ISO-10303-21;
HEADER;
FILE_DESCRIPTION (( 'STEP AP214' ),
    '1' );
FILE_NAME ('59838.STEP',
    '2023-06-22T23:03:19',
    ( '' ),
    ( '' ),
    'SwSTEP 2.0',
    'SolidWorks 2023',
    '' );
FILE_SCHEMA (( 'AUTOMOTIVE_DESIGN' ));
ENDSEC;

DATA;
#1 = EDGE_LOOP ( 'NONE', ( #273, #89, #275, #103 ) ) ;
#2 =( CONVERSION_BASED_UNIT ( 'INCH', #280 ) LENGTH_UNIT ( ) NAMED_UNIT ( #37 ) );
#3 = PRESENTATION_LAYER_ASSIGNMENT (  '', '', ( #223 ) ) ;
#4 = DIRECTION ( 'NONE',  ( 0.000000000000000000, -0.000000000000000000, 1.000000000000000000 ) ) ;
#5 =( LENGTH_UNIT ( ) NAMED_UNIT ( * ) SI_UNIT ( $, .METRE. ) );
#6 = CARTESIAN_POINT ( 'NONE',  ( 0.000000000000000000, 0.7500000000000001110, 0.000000000000000000 ) ) ;
#7 =( GEOMETRIC_REPRESENTATION_CONTEXT ( 3 ) GLOBAL_UNCERTAINTY_ASSIGNED_CONTEXT ( ( #170 ) ) GLOBAL_UNIT_ASSIGNED_CONTEXT ( ( #2, #216, #240 ) ) REPRESENTATION_CONTEXT ( 'NONE', 'WORKASPACE' ) );
#8 =( NAMED_UNIT ( * ) SI_UNIT ( $, .STERADIAN. ) SOLID_ANGLE_UNIT ( ) );
#9 =( GEOMETRIC_REPRESENTATION_CONTEXT ( 3 ) GLOBAL_UNCERTAINTY_ASSIGNED_CONTEXT ( ( #70 ) ) GLOBAL_UNIT_ASSIGNED_CONTEXT ( ( #151, #248, #128 ) ) REPRESENTATION_CONTEXT ( 'NONE', 'WORKASPACE' ) );
#10 = SURFACE_STYLE_FILL_AREA ( #109 ) ;
#11 = CARTESIAN_POINT ( 'NONE',  ( -7.582401355855259480E-33, 0.7499999999999998890, 0.000000000000000000 ) ) ;
#12 = ORIENTED_EDGE ( 'NONE', *, *, #82, .T. ) ;
#13 = DIRECTION ( 'NONE',  ( -3.498990854706722745E-17, 1.000000000000000000, -0.000000000000000000 ) ) ;
#14 = AXIS2_PLACEMENT_3D ( 'NONE', #107, #253, #297 ) ;
#15 = VERTEX_POINT ( 'NONE', #219 ) ;
#16 = FACE_OUTER_BOUND ( 'NONE', #63, .T. ) ;
#17 = CARTESIAN_POINT ( 'NONE',  ( 0.000000000000000000, 0.000000000000000000, 0.000000000000000000 ) ) ;
#18 = APPLICATION_PROTOCOL_DEFINITION ( 'draft international standard', 'automotive_design', 1998, #150 ) ;
#19 = DIRECTION ( 'NONE',  ( -3.498990854706722745E-17, 1.000000000000000000, -0.000000000000000000 ) ) ;
#20 = AXIS2_PLACEMENT_3D ( 'NONE', #144, #68, #244 ) ;
#21 = DIRECTION ( 'NONE',  ( -3.498990854706722745E-17, 1.000000000000000000, -0.000000000000000000 ) ) ;
#22 = ADVANCED_BREP_SHAPE_REPRESENTATION ( '59838', ( #309, #101, #307 ), #7 ) ;
#23 = SURFACE_STYLE_FILL_AREA ( #195 ) ;
#24 = PRODUCT_DEFINITION ( 'UNKNOWN', '', #281, #181 ) ;
#25 = UNCERTAINTY_MEASURE_WITH_UNIT (LENGTH_MEASURE( 1.000000000000000082E-05 ), #117, 'distance_accuracy_value', 'NONE');
#26 = ADVANCED_FACE ( 'NONE', ( #264 ), #305, .T. ) ;
#27 = LENGTH_MEASURE_WITH_UNIT ( LENGTH_MEASURE( 0.02539999999999999897 ), #148 );
#28 =( CONVERSION_BASED_UNIT ( 'INCH', #241 ) LENGTH_UNIT ( ) NAMED_UNIT ( #66 ) );
#29 = STYLED_ITEM ( 'NONE', ( #114 ), #309 ) ;
#30 = AXIS2_PLACEMENT_3D ( 'NONE', #285, #21, #47 ) ;
#31 = MECHANICAL_DESIGN_GEOMETRIC_PRESENTATION_REPRESENTATION (  '', ( #223 ), #9 ) ;
#32 = FILL_AREA_STYLE_COLOUR ( '', #169 ) ;
#33 =( CONVERSION_BASED_UNIT ( 'INCH', #122 ) LENGTH_UNIT ( ) NAMED_UNIT ( #80 ) );
#34 = EDGE_CURVE ( 'NONE', #15, #65, #295, .T. ) ;
#35 = DIRECTION ( 'NONE',  ( -1.000000000000000000, 0.000000000000000000, 0.000000000000000000 ) ) ;
#36 = DIRECTION ( 'NONE',  ( -3.498990854706722745E-17, 1.000000000000000000, -0.000000000000000000 ) ) ;
#37 = DIMENSIONAL_EXPONENTS ( 1.000000000000000000, 0.000000000000000000, 0.000000000000000000, 0.000000000000000000, 0.000000000000000000, 0.000000000000000000, 0.000000000000000000 ) ;
#38 = VERTEX_POINT ( 'NONE', #286 ) ;
#39 = EDGE_CURVE ( 'NONE', #298, #186, #203, .T. ) ;
#40 =( GEOMETRIC_REPRESENTATION_CONTEXT ( 3 ) GLOBAL_UNCERTAINTY_ASSIGNED_CONTEXT ( ( #190 ) ) GLOBAL_UNIT_ASSIGNED_CONTEXT ( ( #279, #304, #262 ) ) REPRESENTATION_CONTEXT ( 'NONE', 'WORKASPACE' ) );
#41 = VECTOR ( 'NONE', #13, 39.37007874015748143 ) ;
#42 = EDGE_LOOP ( 'NONE', ( #108, #12 ) ) ;
#43 = CARTESIAN_POINT ( 'NONE',  ( 0.000000000000000000, 0.000000000000000000, 0.000000000000000000 ) ) ;
#44 = ORIENTED_EDGE ( 'NONE', *, *, #224, .T. ) ;
#45 = SURFACE_SIDE_STYLE ('',( #218 ) ) ;
#46 =( GEOMETRIC_REPRESENTATION_CONTEXT ( 3 ) GLOBAL_UNCERTAINTY_ASSIGNED_CONTEXT ( ( #246 ) ) GLOBAL_UNIT_ASSIGNED_CONTEXT ( ( #28, #149, #8 ) ) REPRESENTATION_CONTEXT ( 'NONE', 'WORKASPACE' ) );
#47 = DIRECTION ( 'NONE',  ( -1.000000000000000000, 0.000000000000000000, 0.000000000000000000 ) ) ;
#48 = SURFACE_STYLE_USAGE ( .BOTH. , #258 ) ;
#49 = LENGTH_MEASURE_WITH_UNIT ( LENGTH_MEASURE( 0.02539999999999999897 ), #69 );
#50 = ADVANCED_FACE ( 'NONE', ( #115 ), #213, .F. ) ;
#51 = CIRCLE ( 'NONE', #92, 0.1250000000000000000 ) ;
#52 = DIRECTION ( 'NONE',  ( 0.000000000000000000, 0.000000000000000000, -1.000000000000000000 ) ) ;
#53 = LENGTH_MEASURE_WITH_UNIT ( LENGTH_MEASURE( 0.02539999999999999897 ), #173 );
#54 =( NAMED_UNIT ( * ) PLANE_ANGLE_UNIT ( ) SI_UNIT ( $, .RADIAN. ) );
#55 = MECHANICAL_DESIGN_GEOMETRIC_PRESENTATION_REPRESENTATION (  '', ( #29 ), #250 ) ;
#56 = CIRCLE ( 'NONE', #287, 0.1250000000000000000 ) ;
#57 = DIRECTION ( 'NONE',  ( -3.498990854706722745E-17, 1.000000000000000000, -0.000000000000000000 ) ) ;
#58 = PRODUCT_RELATED_PRODUCT_CATEGORY ( 'part', '', ( #67 ) ) ;
#59 = CIRCLE ( 'NONE', #30, 0.1250000000000000555 ) ;
#60 =( GEOMETRIC_REPRESENTATION_CONTEXT ( 3 ) GLOBAL_UNCERTAINTY_ASSIGNED_CONTEXT ( ( #123 ) ) GLOBAL_UNIT_ASSIGNED_CONTEXT ( ( #33, #54, #220 ) ) REPRESENTATION_CONTEXT ( 'NONE', 'WORKASPACE' ) );
#61 = EDGE_LOOP ( 'NONE', ( #233, #160, #301, #230 ) ) ;
#62 = PLANE ( 'NONE',  #14 ) ;
#63 = EDGE_LOOP ( 'NONE', ( #166, #271 ) ) ;
#64 = FACE_OUTER_BOUND ( 'NONE', #184, .T. ) ;
#65 = VERTEX_POINT ( 'NONE', #193 ) ;
#66 = DIMENSIONAL_EXPONENTS ( 1.000000000000000000, 0.000000000000000000, 0.000000000000000000, 0.000000000000000000, 0.000000000000000000, 0.000000000000000000, 0.000000000000000000 ) ;
#67 = PRODUCT ( '59838', '59838', '', ( #112 ) ) ;
#68 = DIRECTION ( 'NONE',  ( -0.000000000000000000, -1.000000000000000000, -0.000000000000000000 ) ) ;
#69 =( LENGTH_UNIT ( ) NAMED_UNIT ( * ) SI_UNIT ( $, .METRE. ) );
#70 = UNCERTAINTY_MEASURE_WITH_UNIT (LENGTH_MEASURE( 1.000000000000000082E-05 ), #151, 'distance_accuracy_value', 'NONE');
#71 = VECTOR ( 'NONE', #57, 39.37007874015748143 ) ;
#72 = CARTESIAN_POINT ( 'NONE',  ( 0.000000000000000000, 0.000000000000000000, 0.000000000000000000 ) ) ;
#73 = APPLICATION_CONTEXT ( 'automotive_design' ) ;
#74 = ADVANCED_FACE ( 'NONE', ( #167 ), #259, .T. ) ;
#75 = MECHANICAL_DESIGN_GEOMETRIC_PRESENTATION_REPRESENTATION (  '', ( #291 ), #40 ) ;
#76 = STYLED_ITEM ( 'NONE', ( #255 ), #289 ) ;
#77 = SURFACE_STYLE_USAGE ( .BOTH. , #265 ) ;
#78 = DIRECTION ( 'NONE',  ( -1.000000000000000000, 0.000000000000000000, 0.000000000000000000 ) ) ;
#79 = AXIS2_PLACEMENT_3D ( 'NONE', #81, #234, #270 ) ;
#80 = DIMENSIONAL_EXPONENTS ( 1.000000000000000000, 0.000000000000000000, 0.000000000000000000, 0.000000000000000000, 0.000000000000000000, 0.000000000000000000, 0.000000000000000000 ) ;
#81 = CARTESIAN_POINT ( 'NONE',  ( -6.123233995736766036E-17, 2.500000000000000000, 0.000000000000000000 ) ) ;
#82 = EDGE_CURVE ( 'NONE', #158, #38, #231, .T. ) ;
#83 = EDGE_LOOP ( 'NONE', ( #44, #85, #206, #180 ) ) ;
#84 = DIRECTION ( 'NONE',  ( 0.000000000000000000, -1.000000000000000000, -0.000000000000000000 ) ) ;
#85 = ORIENTED_EDGE ( 'NONE', *, *, #127, .T. ) ;
#86 = AXIS2_PLACEMENT_3D ( 'NONE', #6, #199, #4 ) ;
#87 = SURFACE_SIDE_STYLE ('',( #23 ) ) ;
#88 = CARTESIAN_POINT ( 'NONE',  ( -0.1250000000000001388, 2.500000000000000000, 0.000000000000000000 ) ) ;
#89 = ORIENTED_EDGE ( 'NONE', *, *, #214, .T. ) ;
#90 = EDGE_CURVE ( 'NONE', #65, #38, #266, .T. ) ;
#91 = DIRECTION ( 'NONE',  ( 1.000000000000000000, 3.498990854706722745E-17, 0.000000000000000000 ) ) ;
#92 = AXIS2_PLACEMENT_3D ( 'NONE', #293, #155, #183 ) ;
#93 =( NAMED_UNIT ( * ) SI_UNIT ( $, .STERADIAN. ) SOLID_ANGLE_UNIT ( ) );
#94 = CARTESIAN_POINT ( 'NONE',  ( 0.1250000000000000000, 2.500000000000000000, 0.000000000000000000 ) ) ;
#95 = DIRECTION ( 'NONE',  ( -0.000000000000000000, -1.000000000000000000, -0.000000000000000000 ) ) ;
#96 = CARTESIAN_POINT ( 'NONE',  ( 0.000000000000000000, 0.000000000000000000, 0.000000000000000000 ) ) ;
#97 = AXIS2_PLACEMENT_3D ( 'NONE', #96, #154, #52 ) ;
#98 = CARTESIAN_POINT ( 'NONE',  ( -0.1250000000000001110, 2.500000000000000000, 0.000000000000000000 ) ) ;
#99 = EDGE_CURVE ( 'NONE', #208, #298, #129, .T. ) ;
#100 = CIRCLE ( 'NONE', #192, 0.1250000000000000000 ) ;
#101 = MANIFOLD_SOLID_BREP ( 'Revolve - Tool Body (Straight Shanked)', #110 ) ;
#102 = DIRECTION ( 'NONE',  ( -0.000000000000000000, -1.000000000000000000, -0.000000000000000000 ) ) ;
#103 = ORIENTED_EDGE ( 'NONE', *, *, #300, .F. ) ;
#104 = CARTESIAN_POINT ( 'NONE',  ( -7.582401355855259480E-33, 0.7499999999999998890, 0.000000000000000000 ) ) ;
#105 = VECTOR ( 'NONE', #251, 39.37007874015748143 ) ;
#106 = LENGTH_MEASURE_WITH_UNIT ( LENGTH_MEASURE( 0.02539999999999999897 ), #302 );
#107 = CARTESIAN_POINT ( 'NONE',  ( 7.651835625825800871E-35, 0.7500000000000001110, 0.000000000000000000 ) ) ;
#108 = ORIENTED_EDGE ( 'NONE', *, *, #236, .T. ) ;
#109 = FILL_AREA_STYLE ('',( #185 ) ) ;
#110 = CLOSED_SHELL ( 'NONE', ( #198, #204, #135, #50 ) ) ;
#111 = SHAPE_DEFINITION_REPRESENTATION ( #182, #22 ) ;
#112 = PRODUCT_CONTEXT ( 'NONE', #150, 'mechanical' ) ;
#113 = SURFACE_STYLE_USAGE ( .BOTH. , #45 ) ;
#114 = PRESENTATION_STYLE_ASSIGNMENT (( #48 ) ) ;
#115 = FACE_OUTER_BOUND ( 'NONE', #252, .T. ) ;
#116 = COLOUR_RGB ( '',0.7921568627450980005, 0.8196078431372548767, 0.9333333333333333481 ) ;
#117 =( CONVERSION_BASED_UNIT ( 'INCH', #27 ) LENGTH_UNIT ( ) NAMED_UNIT ( #156 ) );
#118 = DIRECTION ( 'NONE',  ( 3.498990854706722745E-17, -1.000000000000000000, 0.000000000000000000 ) ) ;
#119 = STYLED_ITEM ( 'NONE', ( #284 ), #74 ) ;
#120 =( LENGTH_UNIT ( ) NAMED_UNIT ( * ) SI_UNIT ( $, .METRE. ) );
#121 = FILL_AREA_STYLE ('',( #32 ) ) ;
#122 = LENGTH_MEASURE_WITH_UNIT ( LENGTH_MEASURE( 0.02539999999999999897 ), #5 );
#123 = UNCERTAINTY_MEASURE_WITH_UNIT (LENGTH_MEASURE( 1.000000000000000082E-05 ), #33, 'distance_accuracy_value', 'NONE');
#124 = ADVANCED_FACE ( 'NONE', ( #152 ), #125, .T. ) ;
#125 = PLANE ( 'NONE',  #163 ) ;
#126 = PRESENTATION_LAYER_ASSIGNMENT (  '', '', ( #291 ) ) ;
#127 = EDGE_CURVE ( 'NONE', #15, #158, #201, .T. ) ;
#128 =( NAMED_UNIT ( * ) SI_UNIT ( $, .STERADIAN. ) SOLID_ANGLE_UNIT ( ) );
#129 = LINE ( 'NONE', #98, #71 ) ;
#130 = MECHANICAL_DESIGN_GEOMETRIC_PRESENTATION_REPRESENTATION (  '', ( #76 ), #136 ) ;
#131 = CARTESIAN_POINT ( 'NONE',  ( 0.1249999999999999584, 2.500000000000000000, 1.530808498934191817E-17 ) ) ;
#132 = FACE_OUTER_BOUND ( 'NONE', #1, .T. ) ;
#133 = EDGE_LOOP ( 'NONE', ( #296, #212 ) ) ;
#134 = CARTESIAN_POINT ( 'NONE',  ( -6.123233995736766036E-17, 2.500000000000000000, 0.000000000000000000 ) ) ;
#135 = ADVANCED_FACE ( 'NONE', ( #132 ), #257, .T. ) ;
#136 =( GEOMETRIC_REPRESENTATION_CONTEXT ( 3 ) GLOBAL_UNCERTAINTY_ASSIGNED_CONTEXT ( ( #146 ) ) GLOBAL_UNIT_ASSIGNED_CONTEXT ( ( #268, #177, #157 ) ) REPRESENTATION_CONTEXT ( 'NONE', 'WORKASPACE' ) );
#137 = CARTESIAN_POINT ( 'NONE',  ( -0.1250000000000000000, 0.7499999999999998890, 0.000000000000000000 ) ) ;
#138 = ORIENTED_EDGE ( 'NONE', *, *, #127, .F. ) ;
#139 = DIRECTION ( 'NONE',  ( -3.498990854706722745E-17, 1.000000000000000000, -0.000000000000000000 ) ) ;
#140 = ORIENTED_EDGE ( 'NONE', *, *, #82, .F. ) ;
#141 = DIRECTION ( 'NONE',  ( 0.000000000000000000, 0.000000000000000000, -1.000000000000000000 ) ) ;
#142 = FILL_AREA_STYLE ('',( #171 ) ) ;
#143 = AXIS2_PLACEMENT_3D ( 'NONE', #94, #118, #91 ) ;
#144 = CARTESIAN_POINT ( 'NONE',  ( 0.000000000000000000, 0.7500000000000001110, 0.000000000000000000 ) ) ;
#145 = DIRECTION ( 'NONE',  ( 0.000000000000000000, 0.000000000000000000, -1.000000000000000000 ) ) ;
#146 = UNCERTAINTY_MEASURE_WITH_UNIT (LENGTH_MEASURE( 1.000000000000000082E-05 ), #268, 'distance_accuracy_value', 'NONE');
#147 = EDGE_CURVE ( 'NONE', #208, #235, #100, .T. ) ;
#148 =( LENGTH_UNIT ( ) NAMED_UNIT ( * ) SI_UNIT ( $, .METRE. ) );
#149 =( NAMED_UNIT ( * ) PLANE_ANGLE_UNIT ( ) SI_UNIT ( $, .RADIAN. ) );
#150 = APPLICATION_CONTEXT ( 'automotive_design' ) ;
#151 =( CONVERSION_BASED_UNIT ( 'INCH', #53 ) LENGTH_UNIT ( ) NAMED_UNIT ( #303 ) );
#152 = FACE_OUTER_BOUND ( 'NONE', #42, .T. ) ;
#153 = COLOUR_RGB ( '',1.000000000000000000, 0.000000000000000000, 0.000000000000000000 ) ;
#154 = DIRECTION ( 'NONE',  ( -0.000000000000000000, -1.000000000000000000, -0.000000000000000000 ) ) ;
#155 = DIRECTION ( 'NONE',  ( -0.000000000000000000, -1.000000000000000000, -0.000000000000000000 ) ) ;
#156 = DIMENSIONAL_EXPONENTS ( 1.000000000000000000, 0.000000000000000000, 0.000000000000000000, 0.000000000000000000, 0.000000000000000000, 0.000000000000000000, 0.000000000000000000 ) ;
#157 =( NAMED_UNIT ( * ) SI_UNIT ( $, .STERADIAN. ) SOLID_ANGLE_UNIT ( ) );
#158 = VERTEX_POINT ( 'NONE', #179 ) ;
#159 = DIRECTION ( 'NONE',  ( -1.000000000000000000, 0.000000000000000000, 0.000000000000000000 ) ) ;
#160 = ORIENTED_EDGE ( 'NONE', *, *, #254, .T. ) ;
#161 = CYLINDRICAL_SURFACE ( 'NONE', #222, 0.1250000000000000000 ) ;
#162 = ORIENTED_EDGE ( 'NONE', *, *, #90, .T. ) ;
#163 = AXIS2_PLACEMENT_3D ( 'NONE', #43, #84, #200 ) ;
#164 = COLOUR_RGB ( '',1.000000000000000000, 0.000000000000000000, 0.000000000000000000 ) ;
#165 = CARTESIAN_POINT ( 'NONE',  ( 0.1250000000000000278, 2.500000000000000000, 1.530808498934192125E-17 ) ) ;
#166 = ORIENTED_EDGE ( 'NONE', *, *, #147, .F. ) ;
#167 = FACE_OUTER_BOUND ( 'NONE', #133, .T. ) ;
#168 = DIRECTION ( 'NONE',  ( 1.000000000000000000, 0.000000000000000000, 0.000000000000000000 ) ) ;
#169 = COLOUR_RGB ( '',1.000000000000000000, 0.000000000000000000, 0.000000000000000000 ) ;
#170 = UNCERTAINTY_MEASURE_WITH_UNIT (LENGTH_MEASURE( 1.000000000000000082E-05 ), #2, 'distance_accuracy_value', 'NONE');
#171 = FILL_AREA_STYLE_COLOUR ( '', #294 ) ;
#172 = FILL_AREA_STYLE_COLOUR ( '', #153 ) ;
#173 =( LENGTH_UNIT ( ) NAMED_UNIT ( * ) SI_UNIT ( $, .METRE. ) );
#174 = FILL_AREA_STYLE_COLOUR ( '', #116 ) ;
#175 = AXIS2_PLACEMENT_3D ( 'NONE', #17, #225, #299 ) ;
#176 = FILL_AREA_STYLE_COLOUR ( '', #164 ) ;
#177 =( NAMED_UNIT ( * ) PLANE_ANGLE_UNIT ( ) SI_UNIT ( $, .RADIAN. ) );
#178 = STYLED_ITEM ( 'NONE', ( #267 ), #101 ) ;
#179 = CARTESIAN_POINT ( 'NONE',  ( 1.530808498934191509E-17, 0.000000000000000000, 0.1250000000000000000 ) ) ;
#180 = ORIENTED_EDGE ( 'NONE', *, *, #90, .F. ) ;
#181 = PRODUCT_DEFINITION_CONTEXT ( 'detailed design', #73, 'design' ) ;
#182 = PRODUCT_DEFINITION_SHAPE ( 'NONE', 'NONE',  #24 ) ;
#183 = DIRECTION ( 'NONE',  ( 0.000000000000000000, 0.000000000000000000, -1.000000000000000000 ) ) ;
#184 = EDGE_LOOP ( 'NONE', ( #138, #189, #162, #140 ) ) ;
#185 = FILL_AREA_STYLE_COLOUR ( '', #217 ) ;
#186 = VERTEX_POINT ( 'NONE', #165 ) ;
#187 = PRESENTATION_LAYER_ASSIGNMENT (  '', '', ( #76 ) ) ;
#188 = SURFACE_STYLE_USAGE ( .BOTH. , #87 ) ;
#189 = ORIENTED_EDGE ( 'NONE', *, *, #34, .T. ) ;
#190 = UNCERTAINTY_MEASURE_WITH_UNIT (LENGTH_MEASURE( 1.000000000000000082E-05 ), #279, 'distance_accuracy_value', 'NONE');
#191 =( NAMED_UNIT ( * ) PLANE_ANGLE_UNIT ( ) SI_UNIT ( $, .RADIAN. ) );
#192 = AXIS2_PLACEMENT_3D ( 'NONE', #104, #226, #159 ) ;
#193 = CARTESIAN_POINT ( 'NONE',  ( 0.000000000000000000, 0.7500000000000001110, -0.1250000000000000000 ) ) ;
#194 = PRESENTATION_STYLE_ASSIGNMENT (( #188 ) ) ;
#195 = FILL_AREA_STYLE ('',( #172 ) ) ;
#196 = FILL_AREA_STYLE ('',( #176 ) ) ;
#197 = VECTOR ( 'NONE', #102, 39.37007874015748143 ) ;
#198 = ADVANCED_FACE ( 'NONE', ( #232 ), #229, .T. ) ;
#199 = DIRECTION ( 'NONE',  ( 0.000000000000000000, 1.000000000000000000, 0.000000000000000000 ) ) ;
#200 = DIRECTION ( 'NONE',  ( 0.000000000000000000, 0.000000000000000000, -1.000000000000000000 ) ) ;
#201 = LINE ( 'NONE', #205, #105 ) ;
#202 = DIMENSIONAL_EXPONENTS ( 1.000000000000000000, 0.000000000000000000, 0.000000000000000000, 0.000000000000000000, 0.000000000000000000, 0.000000000000000000, 0.000000000000000000 ) ;
#203 = CIRCLE ( 'NONE', #237, 0.1250000000000000555 ) ;
#204 = ADVANCED_FACE ( 'NONE', ( #16 ), #62, .F. ) ;
#205 = CARTESIAN_POINT ( 'NONE',  ( 1.530808498934191509E-17, 0.000000000000000000, 0.1250000000000000000 ) ) ;
#206 = ORIENTED_EDGE ( 'NONE', *, *, #236, .F. ) ;
#207 = CARTESIAN_POINT ( 'NONE',  ( 0.1250000000000000278, 0.7499999999999998890, 1.530808498934192125E-17 ) ) ;
#208 = VERTEX_POINT ( 'NONE', #137 ) ;
#209 = SURFACE_SIDE_STYLE ('',( #10 ) ) ;
#210 = ORIENTED_EDGE ( 'NONE', *, *, #300, .T. ) ;
#211 = CARTESIAN_POINT ( 'NONE',  ( 0.000000000000000000, 0.000000000000000000, 0.000000000000000000 ) ) ;
#212 = ORIENTED_EDGE ( 'NONE', *, *, #34, .F. ) ;
#213 = PLANE ( 'NONE',  #143 ) ;
#214 = EDGE_CURVE ( 'NONE', #235, #208, #56, .T. ) ;
#215 = CLOSED_SHELL ( 'NONE', ( #26, #74, #289, #124 ) ) ;
#216 =( NAMED_UNIT ( * ) PLANE_ANGLE_UNIT ( ) SI_UNIT ( $, .RADIAN. ) );
#217 = COLOUR_RGB ( '',1.000000000000000000, 0.000000000000000000, 0.000000000000000000 ) ;
#218 = SURFACE_STYLE_FILL_AREA ( #121 ) ;
#219 = CARTESIAN_POINT ( 'NONE',  ( 1.530808498934191509E-17, 0.7500000000000001110, 0.1250000000000000000 ) ) ;
#220 =( NAMED_UNIT ( * ) SI_UNIT ( $, .STERADIAN. ) SOLID_ANGLE_UNIT ( ) );
#221 = SURFACE_SIDE_STYLE ('',( #247 ) ) ;
#222 = AXIS2_PLACEMENT_3D ( 'NONE', #278, #242, #141 ) ;
#223 = STYLED_ITEM ( 'NONE', ( #288 ), #124 ) ;
#224 = EDGE_CURVE ( 'NONE', #65, #15, #51, .T. ) ;
#225 = DIRECTION ( 'NONE',  ( -0.000000000000000000, -1.000000000000000000, -0.000000000000000000 ) ) ;
#226 = DIRECTION ( 'NONE',  ( -3.498990854706722745E-17, 1.000000000000000000, -0.000000000000000000 ) ) ;
#227 = ORIENTED_EDGE ( 'NONE', *, *, #39, .T. ) ;
#228 = DIMENSIONAL_EXPONENTS ( 1.000000000000000000, 0.000000000000000000, 0.000000000000000000, 0.000000000000000000, 0.000000000000000000, 0.000000000000000000, 0.000000000000000000 ) ;
#229 = CYLINDRICAL_SURFACE ( 'NONE', #79, 0.1250000000000000278 ) ;
#230 = ORIENTED_EDGE ( 'NONE', *, *, #99, .F. ) ;
#231 = CIRCLE ( 'NONE', #97, 0.1250000000000000000 ) ;
#232 = FACE_OUTER_BOUND ( 'NONE', #61, .T. ) ;
#233 = ORIENTED_EDGE ( 'NONE', *, *, #147, .T. ) ;
#234 = DIRECTION ( 'NONE',  ( -3.498990854706722745E-17, 1.000000000000000000, -0.000000000000000000 ) ) ;
#235 = VERTEX_POINT ( 'NONE', #207 ) ;
#236 = EDGE_CURVE ( 'NONE', #38, #158, #308, .T. ) ;
#237 = AXIS2_PLACEMENT_3D ( 'NONE', #238, #19, #239 ) ;
#238 = CARTESIAN_POINT ( 'NONE',  ( -6.123233995736766036E-17, 2.500000000000000000, 0.000000000000000000 ) ) ;
#239 = DIRECTION ( 'NONE',  ( -1.000000000000000000, 0.000000000000000000, 0.000000000000000000 ) ) ;
#240 =( NAMED_UNIT ( * ) SI_UNIT ( $, .STERADIAN. ) SOLID_ANGLE_UNIT ( ) );
#241 = LENGTH_MEASURE_WITH_UNIT ( LENGTH_MEASURE( 0.02539999999999999897 ), #263 );
#242 = DIRECTION ( 'NONE',  ( -0.000000000000000000, -1.000000000000000000, -0.000000000000000000 ) ) ;
#243 = AXIS2_PLACEMENT_3D ( 'NONE', #72, #95, #145 ) ;
#244 = DIRECTION ( 'NONE',  ( 0.000000000000000000, 0.000000000000000000, -1.000000000000000000 ) ) ;
#245 = CARTESIAN_POINT ( 'NONE',  ( 0.000000000000000000, 0.000000000000000000, -0.1250000000000000000 ) ) ;
#246 = UNCERTAINTY_MEASURE_WITH_UNIT (LENGTH_MEASURE( 1.000000000000000082E-05 ), #28, 'distance_accuracy_value', 'NONE');
#247 = SURFACE_STYLE_FILL_AREA ( #196 ) ;
#248 =( NAMED_UNIT ( * ) PLANE_ANGLE_UNIT ( ) SI_UNIT ( $, .RADIAN. ) );
#249 = SURFACE_STYLE_FILL_AREA ( #292 ) ;
#250 =( GEOMETRIC_REPRESENTATION_CONTEXT ( 3 ) GLOBAL_UNCERTAINTY_ASSIGNED_CONTEXT ( ( #25 ) ) GLOBAL_UNIT_ASSIGNED_CONTEXT ( ( #117, #191, #93 ) ) REPRESENTATION_CONTEXT ( 'NONE', 'WORKASPACE' ) );
#251 = DIRECTION ( 'NONE',  ( -0.000000000000000000, -1.000000000000000000, -0.000000000000000000 ) ) ;
#252 = EDGE_LOOP ( 'NONE', ( #227, #210 ) ) ;
#253 = DIRECTION ( 'NONE',  ( -3.498990854706722745E-17, 1.000000000000000000, 0.000000000000000000 ) ) ;
#254 = EDGE_CURVE ( 'NONE', #235, #186, #272, .T. ) ;
#255 = PRESENTATION_STYLE_ASSIGNMENT (( #274 ) ) ;
#256 = PRESENTATION_LAYER_ASSIGNMENT (  '', '', ( #29 ) ) ;
#257 = CYLINDRICAL_SURFACE ( 'NONE', #282, 0.1250000000000000278 ) ;
#258 = SURFACE_SIDE_STYLE ('',( #283 ) ) ;
#259 = PLANE ( 'NONE',  #86 ) ;
#260 = PRESENTATION_LAYER_ASSIGNMENT (  '', '', ( #178 ) ) ;
#261 = APPLICATION_PROTOCOL_DEFINITION ( 'draft international standard', 'automotive_design', 1998, #73 ) ;
#262 =( NAMED_UNIT ( * ) SI_UNIT ( $, .STERADIAN. ) SOLID_ANGLE_UNIT ( ) );
#263 =( LENGTH_UNIT ( ) NAMED_UNIT ( * ) SI_UNIT ( $, .METRE. ) );
#264 = FACE_OUTER_BOUND ( 'NONE', #83, .T. ) ;
#265 = SURFACE_SIDE_STYLE ('',( #249 ) ) ;
#266 = LINE ( 'NONE', #245, #197 ) ;
#267 = PRESENTATION_STYLE_ASSIGNMENT (( #77 ) ) ;
#268 =( CONVERSION_BASED_UNIT ( 'INCH', #106 ) LENGTH_UNIT ( ) NAMED_UNIT ( #228 ) );
#269 = MECHANICAL_DESIGN_GEOMETRIC_PRESENTATION_REPRESENTATION (  '', ( #178 ), #60 ) ;
#270 = DIRECTION ( 'NONE',  ( -1.000000000000000000, 0.000000000000000000, 0.000000000000000000 ) ) ;
#271 = ORIENTED_EDGE ( 'NONE', *, *, #214, .F. ) ;
#272 = LINE ( 'NONE', #131, #41 ) ;
#273 = ORIENTED_EDGE ( 'NONE', *, *, #254, .F. ) ;
#274 = SURFACE_STYLE_USAGE ( .BOTH. , #209 ) ;
#275 = ORIENTED_EDGE ( 'NONE', *, *, #99, .T. ) ;
#276 = PRESENTATION_LAYER_ASSIGNMENT (  '', '', ( #119 ) ) ;
#277 = DIRECTION ( 'NONE',  ( 0.000000000000000000, 0.000000000000000000, 1.000000000000000000 ) ) ;
#278 = CARTESIAN_POINT ( 'NONE',  ( 0.000000000000000000, 0.000000000000000000, 0.000000000000000000 ) ) ;
#279 =( CONVERSION_BASED_UNIT ( 'INCH', #49 ) LENGTH_UNIT ( ) NAMED_UNIT ( #202 ) );
#280 = LENGTH_MEASURE_WITH_UNIT ( LENGTH_MEASURE( 0.02539999999999999897 ), #120 );
#281 = PRODUCT_DEFINITION_FORMATION_WITH_SPECIFIED_SOURCE ( 'ANY', '', #67, .NOT_KNOWN. ) ;
#282 = AXIS2_PLACEMENT_3D ( 'NONE', #134, #139, #35 ) ;
#283 = SURFACE_STYLE_FILL_AREA ( #142 ) ;
#284 = PRESENTATION_STYLE_ASSIGNMENT (( #113 ) ) ;
#285 = CARTESIAN_POINT ( 'NONE',  ( -6.123233995736766036E-17, 2.500000000000000000, 0.000000000000000000 ) ) ;
#286 = CARTESIAN_POINT ( 'NONE',  ( 0.000000000000000000, 0.000000000000000000, -0.1250000000000000000 ) ) ;
#287 = AXIS2_PLACEMENT_3D ( 'NONE', #11, #36, #78 ) ;
#288 = PRESENTATION_STYLE_ASSIGNMENT (( #290 ) ) ;
#289 = ADVANCED_FACE ( 'NONE', ( #64 ), #161, .T. ) ;
#290 = SURFACE_STYLE_USAGE ( .BOTH. , #221 ) ;
#291 = STYLED_ITEM ( 'NONE', ( #194 ), #26 ) ;
#292 = FILL_AREA_STYLE ('',( #174 ) ) ;
#293 = CARTESIAN_POINT ( 'NONE',  ( 0.000000000000000000, 0.7500000000000001110, 0.000000000000000000 ) ) ;
#294 = COLOUR_RGB ( '',0.7921568627450980005, 0.8196078431372548767, 0.9333333333333333481 ) ;
#295 = CIRCLE ( 'NONE', #20, 0.1250000000000000000 ) ;
#296 = ORIENTED_EDGE ( 'NONE', *, *, #224, .F. ) ;
#297 = DIRECTION ( 'NONE',  ( -1.000000000000000000, -3.498990854706722745E-17, 0.000000000000000000 ) ) ;
#298 = VERTEX_POINT ( 'NONE', #88 ) ;
#299 = DIRECTION ( 'NONE',  ( 0.000000000000000000, 0.000000000000000000, -1.000000000000000000 ) ) ;
#300 = EDGE_CURVE ( 'NONE', #186, #298, #59, .T. ) ;
#301 = ORIENTED_EDGE ( 'NONE', *, *, #39, .F. ) ;
#302 =( LENGTH_UNIT ( ) NAMED_UNIT ( * ) SI_UNIT ( $, .METRE. ) );
#303 = DIMENSIONAL_EXPONENTS ( 1.000000000000000000, 0.000000000000000000, 0.000000000000000000, 0.000000000000000000, 0.000000000000000000, 0.000000000000000000, 0.000000000000000000 ) ;
#304 =( NAMED_UNIT ( * ) PLANE_ANGLE_UNIT ( ) SI_UNIT ( $, .RADIAN. ) );
#305 = CYLINDRICAL_SURFACE ( 'NONE', #243, 0.1250000000000000000 ) ;
#306 = MECHANICAL_DESIGN_GEOMETRIC_PRESENTATION_REPRESENTATION (  '', ( #119 ), #46 ) ;
#307 = AXIS2_PLACEMENT_3D ( 'NONE', #211, #277, #168 ) ;
#308 = CIRCLE ( 'NONE', #175, 0.1250000000000000000 ) ;
#309 = MANIFOLD_SOLID_BREP ( 'Revolve - Cutting Edge', #215 ) ;
ENDSEC;
END-ISO-10303-21;
