ISO-10303-21;
HEADER;
FILE_DESCRIPTION (( 'STEP AP214' ),
    '1' );
FILE_NAME ('Micro_MMBM-006-12X.STEP',
    '2021-09-03T16:23:31',
    ( '' ),
    ( '' ),
    'SwSTEP 2.0',
    'SolidWorks 2020',
    '' );
FILE_SCHEMA (( 'AUTOMOTIVE_DESIGN' ));
ENDSEC;

DATA;
#1 = PRODUCT_CONTEXT ( 'NONE', #333, 'mechanical' ) ;
#2 = VERTEX_POINT ( 'NONE', #235 ) ;
#3 = PLANE ( 'NONE',  #7 ) ;
#4 = PRESENTATION_LAYER_ASSIGNMENT (  '', '', ( #179 ) ) ;
#5 = DIRECTION ( 'NONE',  ( -0.1736481776669306920, 0.0000000000000000000, -0.9848077530122080203 ) ) ;
#6 = AXIS2_PLACEMENT_3D ( 'NONE', #311, #284, #56 ) ;
#7 = AXIS2_PLACEMENT_3D ( 'NONE', #12, #252, #75 ) ;
#8 = DIRECTION ( 'NONE',  ( 0.0000000000000000000, 0.0000000000000000000, 1.000000000000000000 ) ) ;
#9 = EDGE_CURVE ( 'NONE', #239, #355, #72, .T. ) ;
#10 =( NAMED_UNIT ( * ) SI_UNIT ( $, .STERADIAN. ) SOLID_ANGLE_UNIT ( ) );
#11 = DIRECTION ( 'NONE',  ( -1.000000000000000000, 0.0000000000000000000, 0.0000000000000000000 ) ) ;
#12 = CARTESIAN_POINT ( 'NONE',  ( 0.01141750000000006128, 0.0000000000000000000, 0.4724409999999999998 ) ) ;
#13 = CIRCLE ( 'NONE', #240, 0.01141750000000000577 ) ;
#14 = CIRCLE ( 'NONE', #318, 0.01180981890000000305 ) ;
#15 = EDGE_CURVE ( 'NONE', #146, #101, #58, .T. ) ;
#16 = DIRECTION ( 'NONE',  ( -1.000000000000000000, 0.0000000000000000000, 0.0000000000000000000 ) ) ;
#17 = ORIENTED_EDGE ( 'NONE', *, *, #332, .T. ) ;
#18 = DIRECTION ( 'NONE',  ( -0.0000000000000000000, -0.0000000000000000000, -1.000000000000000000 ) ) ;
#19 = ORIENTED_EDGE ( 'NONE', *, *, #9, .F. ) ;
#20 = CARTESIAN_POINT ( 'NONE',  ( 0.0000000000000000000, 0.0000000000000000000, 0.0000000000000000000 ) ) ;
#21 = EDGE_LOOP ( 'NONE', ( #319, #159 ) ) ;
#22 = VECTOR ( 'NONE', #313, 39.37007874015748143 ) ;
#23 = PRESENTATION_STYLE_ASSIGNMENT (( #343 ) ) ;
#24 = EDGE_LOOP ( 'NONE', ( #231, #265, #102, #95 ) ) ;
#25 =( NAMED_UNIT ( * ) SI_UNIT ( $, .STERADIAN. ) SOLID_ANGLE_UNIT ( ) );
#26 = DIRECTION ( 'NONE',  ( 0.1736481776669306920, 2.126576849575775613E-17, -0.9848077530122080203 ) ) ;
#27 = DIRECTION ( 'NONE',  ( -0.0000000000000000000, -0.0000000000000000000, -1.000000000000000000 ) ) ;
#28 =( GEOMETRIC_REPRESENTATION_CONTEXT ( 3 ) GLOBAL_UNCERTAINTY_ASSIGNED_CONTEXT ( ( #215 ) ) GLOBAL_UNIT_ASSIGNED_CONTEXT ( ( #206, #193, #10 ) ) REPRESENTATION_CONTEXT ( 'NONE', 'WORKASPACE' ) );
#29 = ADVANCED_FACE ( 'NONE', ( #61 ), #209, .T. ) ;
#30 = CARTESIAN_POINT ( 'NONE',  ( 0.0000000000000000000, 0.0000000000000000000, 0.02362200000000000064 ) ) ;
#31 = EDGE_LOOP ( 'NONE', ( #91, #131, #348, #213 ) ) ;
#32 = CARTESIAN_POINT ( 'NONE',  ( -0.01180981890000000305, 0.0000000000000000000, 0.0000000000000000000 ) ) ;
#33 = ORIENTED_EDGE ( 'NONE', *, *, #84, .T. ) ;
#34 = APPLICATION_PROTOCOL_DEFINITION ( 'draft international standard', 'automotive_design', 1998, #333 ) ;
#35 = ORIENTED_EDGE ( 'NONE', *, *, #236, .F. ) ;
#36 = EDGE_CURVE ( 'NONE', #2, #67, #13, .T. ) ;
#37 = VECTOR ( 'NONE', #27, 39.37007874015748143 ) ;
#38 = CIRCLE ( 'NONE', #151, 0.06374000000000018540 ) ;
#39 = EDGE_LOOP ( 'NONE', ( #47, #184 ) ) ;
#40 = FACE_OUTER_BOUND ( 'NONE', #341, .T. ) ;
#41 = CARTESIAN_POINT ( 'NONE',  ( 0.07874000000000001831, 9.642868896486260050E-18, 0.4724410000000000553 ) ) ;
#42 = DIRECTION ( 'NONE',  ( -1.000000000000000000, 0.0000000000000000000, 0.0000000000000000000 ) ) ;
#43 = LINE ( 'NONE', #105, #123 ) ;
#44 = DIRECTION ( 'NONE',  ( -0.0000000000000000000, -0.0000000000000000000, -1.000000000000000000 ) ) ;
#45 = EDGE_CURVE ( 'NONE', #69, #234, #233, .T. ) ;
#46 = DIRECTION ( 'NONE',  ( 1.000000000000000000, 0.0000000000000000000, 0.0000000000000000000 ) ) ;
#47 = ORIENTED_EDGE ( 'NONE', *, *, #200, .T. ) ;
#48 = AXIS2_PLACEMENT_3D ( 'NONE', #20, #144, #264 ) ;
#49 =( LENGTH_UNIT ( ) NAMED_UNIT ( * ) SI_UNIT ( $, .METRE. ) );
#50 = ORIENTED_EDGE ( 'NONE', *, *, #121, .F. ) ;
#51 = CARTESIAN_POINT ( 'NONE',  ( 0.06374000000000018540, 7.805898697765251255E-18, 1.968503999999999809 ) ) ;
#52 = ORIENTED_EDGE ( 'NONE', *, *, #251, .F. ) ;
#53 = PRODUCT_DEFINITION ( 'UNKNOWN', '', #337, #107 ) ;
#54 = ORIENTED_EDGE ( 'NONE', *, *, #36, .T. ) ;
#55 = CONICAL_SURFACE ( 'NONE', #268, 0.01180981890000000305, 0.1745329251994333086 ) ;
#56 = DIRECTION ( 'NONE',  ( -1.000000000000000000, 0.0000000000000000000, 0.0000000000000000000 ) ) ;
#57 = EDGE_LOOP ( 'NONE', ( #50, #128, #153, #185 ) ) ;
#58 = LINE ( 'NONE', #317, #37 ) ;
#59 = EDGE_CURVE ( 'NONE', #69, #375, #163, .T. ) ;
#60 = LINE ( 'NONE', #175, #135 ) ;
#61 = FACE_OUTER_BOUND ( 'NONE', #39, .T. ) ;
#62 = VECTOR ( 'NONE', #26, 39.37007874015748143 ) ;
#63 = PRESENTATION_LAYER_ASSIGNMENT (  '', '', ( #291 ) ) ;
#64 = CARTESIAN_POINT ( 'NONE',  ( 0.01180981890000000305, 1.446285691439491932E-18, 0.02362200000000000064 ) ) ;
#65 = VERTEX_POINT ( 'NONE', #166 ) ;
#66 = SURFACE_STYLE_USAGE ( .BOTH. , #321 ) ;
#67 = VERTEX_POINT ( 'NONE', #138 ) ;
#68 = LINE ( 'NONE', #64, #62 ) ;
#69 = VERTEX_POINT ( 'NONE', #225 ) ;
#70 = PRODUCT_DEFINITION_SHAPE ( 'NONE', 'NONE',  #53 ) ;
#71 = AXIS2_PLACEMENT_3D ( 'NONE', #262, #371, #156 ) ;
#72 = CIRCLE ( 'NONE', #80, 0.01141750000000006128 ) ;
#73 = CIRCLE ( 'NONE', #195, 0.06374000000000018540 ) ;
#74 = DIRECTION ( 'NONE',  ( 1.000000000000000000, 0.0000000000000000000, 0.0000000000000000000 ) ) ;
#75 = DIRECTION ( 'NONE',  ( -1.000000000000000000, 0.0000000000000000000, 0.0000000000000000000 ) ) ;
#76 = ADVANCED_FACE ( 'NONE', ( #273 ), #338, .T. ) ;
#77 = DIRECTION ( 'NONE',  ( -0.0000000000000000000, -0.0000000000000000000, -1.000000000000000000 ) ) ;
#78 = AXIS2_PLACEMENT_3D ( 'NONE', #208, #94, #100 ) ;
#79 = PRODUCT ( 'Micro_MMBM-006-12X', 'Micro_MMBM-006-12X', '', ( #1 ) ) ;
#80 = AXIS2_PLACEMENT_3D ( 'NONE', #207, #289, #315 ) ;
#81 = FACE_OUTER_BOUND ( 'NONE', #31, .T. ) ;
#82 = AXIS2_PLACEMENT_3D ( 'NONE', #300, #302, #74 ) ;
#83 = DIRECTION ( 'NONE',  ( -0.0000000000000000000, -0.0000000000000000000, -1.000000000000000000 ) ) ;
#84 = EDGE_CURVE ( 'NONE', #65, #101, #298, .T. ) ;
#85 = CARTESIAN_POINT ( 'NONE',  ( 0.0000000000000000000, 0.0000000000000000000, 0.0000000000000000000 ) ) ;
#86 = PLANE ( 'NONE',  #48 ) ;
#87 = ORIENTED_EDGE ( 'NONE', *, *, #15, .T. ) ;
#88 = VECTOR ( 'NONE', #358, 39.37007874015748143 ) ;
#89 = DIRECTION ( 'NONE',  ( -0.0000000000000000000, -0.0000000000000000000, -1.000000000000000000 ) ) ;
#90 = LINE ( 'NONE', #51, #204 ) ;
#91 = ORIENTED_EDGE ( 'NONE', *, *, #93, .F. ) ;
#92 = LENGTH_MEASURE_WITH_UNIT ( LENGTH_MEASURE( 0.02539999999999999897 ), #352 );
#93 = EDGE_CURVE ( 'NONE', #234, #307, #43, .T. ) ;
#94 = DIRECTION ( 'NONE',  ( -0.0000000000000000000, -0.0000000000000000000, -1.000000000000000000 ) ) ;
#95 = ORIENTED_EDGE ( 'NONE', *, *, #332, .F. ) ;
#96 =( LENGTH_UNIT ( ) NAMED_UNIT ( * ) SI_UNIT ( $, .METRE. ) );
#97 = ORIENTED_EDGE ( 'NONE', *, *, #359, .F. ) ;
#98 = DIMENSIONAL_EXPONENTS ( 1.000000000000000000, 0.0000000000000000000, 0.0000000000000000000, 0.0000000000000000000, 0.0000000000000000000, 0.0000000000000000000, 0.0000000000000000000 ) ;
#99 = CONICAL_SURFACE ( 'NONE', #6, 0.01180981890000000305, 0.1745329251994333086 ) ;
#100 = DIRECTION ( 'NONE',  ( -1.000000000000000000, 0.0000000000000000000, 0.0000000000000000000 ) ) ;
#101 = VERTEX_POINT ( 'NONE', #41 ) ;
#102 = ORIENTED_EDGE ( 'NONE', *, *, #36, .F. ) ;
#103 = CARTESIAN_POINT ( 'NONE',  ( 0.0000000000000000000, 0.0000000000000000000, 0.4724410000000000553 ) ) ;
#104 = DIRECTION ( 'NONE',  ( 0.0000000000000000000, 0.0000000000000000000, 1.000000000000000000 ) ) ;
#105 = CARTESIAN_POINT ( 'NONE',  ( 0.01180981890000000305, 1.446285691439491932E-18, 0.0000000000000000000 ) ) ;
#106 = DIRECTION ( 'NONE',  ( 1.000000000000000000, 0.0000000000000000000, 0.0000000000000000000 ) ) ;
#107 = PRODUCT_DEFINITION_CONTEXT ( 'detailed design', #287, 'design' ) ;
#108 = APPLICATION_PROTOCOL_DEFINITION ( 'draft international standard', 'automotive_design', 1998, #287 ) ;
#109 = CARTESIAN_POINT ( 'NONE',  ( 0.07874000000000001831, 9.642868896486260050E-18, 1.953504000000000129 ) ) ;
#110 = EDGE_CURVE ( 'NONE', #67, #2, #331, .T. ) ;
#111 = DIRECTION ( 'NONE',  ( -0.0000000000000000000, -0.0000000000000000000, -1.000000000000000000 ) ) ;
#112 = VECTOR ( 'NONE', #154, 39.37007874015748143 ) ;
#113 = FACE_OUTER_BOUND ( 'NONE', #57, .T. ) ;
#114 = CARTESIAN_POINT ( 'NONE',  ( 0.01180981890000000305, 1.446285691439491932E-18, 0.02362200000000000064 ) ) ;
#115 = DIRECTION ( 'NONE',  ( -0.0000000000000000000, -0.0000000000000000000, -1.000000000000000000 ) ) ;
#116 = CLOSED_SHELL ( 'NONE', ( #269, #354, #314, #272, #303, #187, #29, #76, #169, #241, #165, #210, #308 ) ) ;
#117 = CONICAL_SURFACE ( 'NONE', #168, 0.06374000000000018540, 0.7853981633974528309 ) ;
#118 = EDGE_LOOP ( 'NONE', ( #97, #310, #324, #52 ) ) ;
#119 = LINE ( 'NONE', #280, #22 ) ;
#120 = SURFACE_STYLE_FILL_AREA ( #201 ) ;
#121 = EDGE_CURVE ( 'NONE', #270, #258, #38, .T. ) ;
#122 = ORIENTED_EDGE ( 'NONE', *, *, #277, .F. ) ;
#123 = VECTOR ( 'NONE', #328, 39.37007874015748143 ) ;
#124 = FACE_OUTER_BOUND ( 'NONE', #285, .T. ) ;
#125 = DIRECTION ( 'NONE',  ( -0.0000000000000000000, -0.0000000000000000000, -1.000000000000000000 ) ) ;
#126 =( CONVERSION_BASED_UNIT ( 'INCH', #295 ) LENGTH_UNIT ( ) NAMED_UNIT ( #345 ) );
#127 = ORIENTED_EDGE ( 'NONE', *, *, #45, .F. ) ;
#128 = ORIENTED_EDGE ( 'NONE', *, *, #236, .T. ) ;
#129 = EDGE_CURVE ( 'NONE', #176, #146, #283, .T. ) ;
#130 = DIMENSIONAL_EXPONENTS ( 1.000000000000000000, 0.0000000000000000000, 0.0000000000000000000, 0.0000000000000000000, 0.0000000000000000000, 0.0000000000000000000, 0.0000000000000000000 ) ;
#131 = ORIENTED_EDGE ( 'NONE', *, *, #251, .T. ) ;
#132 = CARTESIAN_POINT ( 'NONE',  ( 0.0000000000000000000, 0.0000000000000000000, 0.0000000000000000000 ) ) ;
#133 = ORIENTED_EDGE ( 'NONE', *, *, #359, .T. ) ;
#134 = DIRECTION ( 'NONE',  ( -0.0000000000000000000, -0.0000000000000000000, -1.000000000000000000 ) ) ;
#135 = VECTOR ( 'NONE', #288, 39.37007874015748143 ) ;
#136 = DIRECTION ( 'NONE',  ( -1.000000000000000000, 0.0000000000000000000, 0.0000000000000000000 ) ) ;
#137 = LINE ( 'NONE', #276, #181 ) ;
#138 = CARTESIAN_POINT ( 'NONE',  ( 0.01141750000000000577, 1.422263087182991610E-18, 0.02584695104506240168 ) ) ;
#139 = CARTESIAN_POINT ( 'NONE',  ( 0.0000000000000000000, 0.0000000000000000000, 1.968503999999999809 ) ) ;
#140 = AXIS2_PLACEMENT_3D ( 'NONE', #139, #356, #250 ) ;
#141 = EDGE_LOOP ( 'NONE', ( #35, #296, #294, #122 ) ) ;
#142 = CARTESIAN_POINT ( 'NONE',  ( 0.06374000000000018540, 8.724383797125754882E-18, 1.968503999999999809 ) ) ;
#143 = EDGE_CURVE ( 'NONE', #375, #307, #14, .T. ) ;
#144 = DIRECTION ( 'NONE',  ( 0.0000000000000000000, 0.0000000000000000000, 1.000000000000000000 ) ) ;
#145 = CIRCLE ( 'NONE', #312, 0.01141750000000006128 ) ;
#146 = VERTEX_POINT ( 'NONE', #109 ) ;
#147 = SURFACE_SIDE_STYLE ('',( #120 ) ) ;
#148 = ORIENTED_EDGE ( 'NONE', *, *, #196, .F. ) ;
#149 =( NAMED_UNIT ( * ) SI_UNIT ( $, .STERADIAN. ) SOLID_ANGLE_UNIT ( ) );
#150 = CARTESIAN_POINT ( 'NONE',  ( 0.0000000000000000000, 0.0000000000000000000, 1.968503999999999809 ) ) ;
#151 = AXIS2_PLACEMENT_3D ( 'NONE', #220, #8, #325 ) ;
#152 = CARTESIAN_POINT ( 'NONE',  ( 0.0000000000000000000, 0.0000000000000000000, 0.4724409999999999998 ) ) ;
#153 = ORIENTED_EDGE ( 'NONE', *, *, #129, .F. ) ;
#154 = DIRECTION ( 'NONE',  ( -0.0000000000000000000, -0.0000000000000000000, -1.000000000000000000 ) ) ;
#155 = ORIENTED_EDGE ( 'NONE', *, *, #143, .F. ) ;
#156 = DIRECTION ( 'NONE',  ( -1.000000000000000000, 0.0000000000000000000, 0.0000000000000000000 ) ) ;
#157 = EDGE_LOOP ( 'NONE', ( #267, #87, #219, #243 ) ) ;
#158 = AXIS2_PLACEMENT_3D ( 'NONE', #85, #18, #362 ) ;
#159 = ORIENTED_EDGE ( 'NONE', *, *, #248, .T. ) ;
#160 = CYLINDRICAL_SURFACE ( 'NONE', #162, 0.07874000000000001831 ) ;
#161 = FACE_OUTER_BOUND ( 'NONE', #173, .T. ) ;
#162 = AXIS2_PLACEMENT_3D ( 'NONE', #271, #134, #11 ) ;
#163 = LINE ( 'NONE', #304, #88 ) ;
#164 = CARTESIAN_POINT ( 'NONE',  ( 0.0000000000000000000, 0.0000000000000000000, 0.02584695104506240168 ) ) ;
#165 = ADVANCED_FACE ( 'NONE', ( #190 ), #222, .T. ) ;
#166 = CARTESIAN_POINT ( 'NONE',  ( -0.07874000000000001831, 0.0000000000000000000, 0.4724410000000000553 ) ) ;
#167 = CARTESIAN_POINT ( 'NONE',  ( 0.0000000000000000000, 0.0000000000000000000, 1.968503999999999809 ) ) ;
#168 = AXIS2_PLACEMENT_3D ( 'NONE', #226, #199, #364 ) ;
#169 = ADVANCED_FACE ( 'NONE', ( #278, #161 ), #3, .T. ) ;
#170 =( CONVERSION_BASED_UNIT ( 'INCH', #255 ) LENGTH_UNIT ( ) NAMED_UNIT ( #130 ) );
#171 = CARTESIAN_POINT ( 'NONE',  ( 0.0000000000000000000, 0.0000000000000000000, 0.0000000000000000000 ) ) ;
#172 = AXIS2_PLACEMENT_3D ( 'NONE', #292, #44, #334 ) ;
#173 = EDGE_LOOP ( 'NONE', ( #33, #369 ) ) ;
#174 = FACE_OUTER_BOUND ( 'NONE', #118, .T. ) ;
#175 = CARTESIAN_POINT ( 'NONE',  ( -0.07874000000000001831, 0.0000000000000000000, 1.968503999999999809 ) ) ;
#176 = VERTEX_POINT ( 'NONE', #299 ) ;
#177 = ADVANCED_BREP_SHAPE_REPRESENTATION ( 'Micro_MMBM-006-12X', ( #266, #212 ), #365 ) ;
#178 = LINE ( 'NONE', #183, #112 ) ;
#179 = STYLED_ITEM ( 'NONE', ( #242 ), #177 ) ;
#180 = CARTESIAN_POINT ( 'NONE',  ( 0.0000000000000000000, 0.0000000000000000000, 0.02584695104506240168 ) ) ;
#181 = VECTOR ( 'NONE', #249, 39.37007874015748143 ) ;
#182 = EDGE_CURVE ( 'NONE', #239, #67, #137, .T. ) ;
#183 = CARTESIAN_POINT ( 'NONE',  ( -0.01141750000000003352, 0.0000000000000000000, 0.0000000000000000000 ) ) ;
#184 = ORIENTED_EDGE ( 'NONE', *, *, #121, .T. ) ;
#185 = ORIENTED_EDGE ( 'NONE', *, *, #211, .F. ) ;
#186 = ORIENTED_EDGE ( 'NONE', *, *, #182, .F. ) ;
#187 = ADVANCED_FACE ( 'NONE', ( #40 ), #160, .T. ) ;
#188 = AXIS2_PLACEMENT_3D ( 'NONE', #150, #261, #373 ) ;
#189 = AXIS2_PLACEMENT_3D ( 'NONE', #164, #360, #301 ) ;
#190 = FACE_OUTER_BOUND ( 'NONE', #379, .T. ) ;
#191 = UNCERTAINTY_MEASURE_WITH_UNIT (LENGTH_MEASURE( 1.000000000000000082E-05 ), #170, 'distance_accuracy_value', 'NONE');
#192 = CARTESIAN_POINT ( 'NONE',  ( -0.01180981890000000305, 0.0000000000000000000, 0.02362200000000000064 ) ) ;
#193 =( NAMED_UNIT ( * ) PLANE_ANGLE_UNIT ( ) SI_UNIT ( $, .RADIAN. ) );
#194 = DIRECTION ( 'NONE',  ( -1.000000000000000000, 0.0000000000000000000, 0.0000000000000000000 ) ) ;
#195 = AXIS2_PLACEMENT_3D ( 'NONE', #247, #357, #106 ) ;
#196 = EDGE_CURVE ( 'NONE', #2, #69, #245, .T. ) ;
#197 = CYLINDRICAL_SURFACE ( 'NONE', #351, 0.01180981890000000305 ) ;
#198 = DIRECTION ( 'NONE',  ( -1.000000000000000000, 0.0000000000000000000, 0.0000000000000000000 ) ) ;
#199 = DIRECTION ( 'NONE',  ( 0.0000000000000000000, 0.0000000000000000000, -1.000000000000000000 ) ) ;
#200 = EDGE_CURVE ( 'NONE', #258, #270, #73, .T. ) ;
#201 = FILL_AREA_STYLE ('',( #368 ) ) ;
#202 = DIRECTION ( 'NONE',  ( -1.000000000000000000, 0.0000000000000000000, 0.0000000000000000000 ) ) ;
#203 = DIRECTION ( 'NONE',  ( 0.7071067811865507924, 8.659560562354973534E-17, -0.7071067811865443531 ) ) ;
#204 = VECTOR ( 'NONE', #203, 39.37007874015748143 ) ;
#205 = ORIENTED_EDGE ( 'NONE', *, *, #342, .F. ) ;
#206 =( CONVERSION_BASED_UNIT ( 'INCH', #92 ) LENGTH_UNIT ( ) NAMED_UNIT ( #98 ) );
#207 = CARTESIAN_POINT ( 'NONE',  ( 0.0000000000000000000, 0.0000000000000000000, 0.4724409999999999998 ) ) ;
#208 = CARTESIAN_POINT ( 'NONE',  ( 0.0000000000000000000, 0.0000000000000000000, 0.4724410000000000553 ) ) ;
#209 = PLANE ( 'NONE',  #188 ) ;
#210 = ADVANCED_FACE ( 'NONE', ( #81 ), #197, .T. ) ;
#211 = EDGE_CURVE ( 'NONE', #258, #176, #119, .T. ) ;
#212 = AXIS2_PLACEMENT_3D ( 'NONE', #132, #104, #329 ) ;
#213 = ORIENTED_EDGE ( 'NONE', *, *, #248, .F. ) ;
#214 = CIRCLE ( 'NONE', #223, 0.07874000000000001831 ) ;
#215 = UNCERTAINTY_MEASURE_WITH_UNIT (LENGTH_MEASURE( 1.000000000000000082E-05 ), #206, 'distance_accuracy_value', 'NONE');
#216 = FILL_AREA_STYLE ('',( #378 ) ) ;
#217 = EDGE_LOOP ( 'NONE', ( #344, #353, #155, #254 ) ) ;
#218 = PRODUCT_RELATED_PRODUCT_CATEGORY ( 'part', '', ( #79 ) ) ;
#219 = ORIENTED_EDGE ( 'NONE', *, *, #84, .F. ) ;
#220 = CARTESIAN_POINT ( 'NONE',  ( 0.0000000000000000000, 0.0000000000000000000, 1.968503999999999809 ) ) ;
#221 = CARTESIAN_POINT ( 'NONE',  ( 0.0000000000000000000, 0.0000000000000000000, 0.0000000000000000000 ) ) ;
#222 = CYLINDRICAL_SURFACE ( 'NONE', #256, 0.01141750000000003352 ) ;
#223 = AXIS2_PLACEMENT_3D ( 'NONE', #305, #230, #46 ) ;
#224 = SHAPE_DEFINITION_REPRESENTATION ( #70, #177 ) ;
#225 = CARTESIAN_POINT ( 'NONE',  ( -0.01180981890000000305, 0.0000000000000000000, 0.02362200000000000064 ) ) ;
#226 = CARTESIAN_POINT ( 'NONE',  ( 0.0000000000000000000, 0.0000000000000000000, 1.968503999999999809 ) ) ;
#227 =( NAMED_UNIT ( * ) PLANE_ANGLE_UNIT ( ) SI_UNIT ( $, .RADIAN. ) );
#228 = AXIS2_PLACEMENT_3D ( 'NONE', #340, #89, #335 ) ;
#229 = CIRCLE ( 'NONE', #246, 0.01180981890000000305 ) ;
#230 = DIRECTION ( 'NONE',  ( 0.0000000000000000000, 0.0000000000000000000, -1.000000000000000000 ) ) ;
#231 = ORIENTED_EDGE ( 'NONE', *, *, #342, .T. ) ;
#232 = MECHANICAL_DESIGN_GEOMETRIC_PRESENTATION_REPRESENTATION (  '', ( #179 ), #28 ) ;
#233 = CIRCLE ( 'NONE', #172, 0.01180981890000000305 ) ;
#234 = VERTEX_POINT ( 'NONE', #114 ) ;
#235 = CARTESIAN_POINT ( 'NONE',  ( -0.01141750000000000577, 0.0000000000000000000, 0.02584695104506240168 ) ) ;
#236 = EDGE_CURVE ( 'NONE', #270, #146, #90, .T. ) ;
#237 = DIRECTION ( 'NONE',  ( -1.000000000000000000, 0.0000000000000000000, 0.0000000000000000000 ) ) ;
#238 = ORIENTED_EDGE ( 'NONE', *, *, #15, .F. ) ;
#239 = VERTEX_POINT ( 'NONE', #286 ) ;
#240 = AXIS2_PLACEMENT_3D ( 'NONE', #180, #125, #346 ) ;
#241 = ADVANCED_FACE ( 'NONE', ( #174 ), #99, .T. ) ;
#242 = PRESENTATION_STYLE_ASSIGNMENT (( #66 ) ) ;
#243 = ORIENTED_EDGE ( 'NONE', *, *, #320, .F. ) ;
#244 = EDGE_LOOP ( 'NONE', ( #205, #19 ) ) ;
#245 = LINE ( 'NONE', #192, #366 ) ;
#246 = AXIS2_PLACEMENT_3D ( 'NONE', #171, #370, #202 ) ;
#247 = CARTESIAN_POINT ( 'NONE',  ( 0.0000000000000000000, 0.0000000000000000000, 1.968503999999999809 ) ) ;
#248 = EDGE_CURVE ( 'NONE', #307, #375, #229, .T. ) ;
#249 = DIRECTION ( 'NONE',  ( -0.0000000000000000000, -0.0000000000000000000, -1.000000000000000000 ) ) ;
#250 = DIRECTION ( 'NONE',  ( -1.000000000000000000, 0.0000000000000000000, 0.0000000000000000000 ) ) ;
#251 = EDGE_CURVE ( 'NONE', #234, #69, #306, .T. ) ;
#252 = DIRECTION ( 'NONE',  ( -0.0000000000000000000, 0.0000000000000000000, -1.000000000000000000 ) ) ;
#253 = FACE_OUTER_BOUND ( 'NONE', #217, .T. ) ;
#254 = ORIENTED_EDGE ( 'NONE', *, *, #59, .F. ) ;
#255 = LENGTH_MEASURE_WITH_UNIT ( LENGTH_MEASURE( 0.02539999999999999897 ), #49 );
#256 = AXIS2_PLACEMENT_3D ( 'NONE', #330, #83, #198 ) ;
#257 =( NAMED_UNIT ( * ) PLANE_ANGLE_UNIT ( ) SI_UNIT ( $, .RADIAN. ) );
#258 = VERTEX_POINT ( 'NONE', #279 ) ;
#259 = CARTESIAN_POINT ( 'NONE',  ( -0.01141750000000006128, 0.0000000000000000000, 0.4724409999999999998 ) ) ;
#260 = MECHANICAL_DESIGN_GEOMETRIC_PRESENTATION_REPRESENTATION (  '', ( #291 ), #274 ) ;
#261 = DIRECTION ( 'NONE',  ( 0.0000000000000000000, 0.0000000000000000000, 1.000000000000000000 ) ) ;
#262 = CARTESIAN_POINT ( 'NONE',  ( 0.0000000000000000000, 0.0000000000000000000, 0.0000000000000000000 ) ) ;
#263 = ORIENTED_EDGE ( 'NONE', *, *, #9, .T. ) ;
#264 = DIRECTION ( 'NONE',  ( 1.000000000000000000, 0.0000000000000000000, -0.0000000000000000000 ) ) ;
#265 = ORIENTED_EDGE ( 'NONE', *, *, #182, .T. ) ;
#266 = MANIFOLD_SOLID_BREP ( 'Cut-Revolve1', #116 ) ;
#267 = ORIENTED_EDGE ( 'NONE', *, *, #129, .T. ) ;
#268 = AXIS2_PLACEMENT_3D ( 'NONE', #30, #374, #347 ) ;
#269 = ADVANCED_FACE ( 'NONE', ( #253 ), #309, .T. ) ;
#270 = VERTEX_POINT ( 'NONE', #142 ) ;
#271 = CARTESIAN_POINT ( 'NONE',  ( 0.0000000000000000000, 0.0000000000000000000, 1.968503999999999809 ) ) ;
#272 = ADVANCED_FACE ( 'NONE', ( #113 ), #117, .T. ) ;
#273 = FACE_OUTER_BOUND ( 'NONE', #141, .T. ) ;
#274 =( GEOMETRIC_REPRESENTATION_CONTEXT ( 3 ) GLOBAL_UNCERTAINTY_ASSIGNED_CONTEXT ( ( #191 ) ) GLOBAL_UNIT_ASSIGNED_CONTEXT ( ( #170, #227, #25 ) ) REPRESENTATION_CONTEXT ( 'NONE', 'WORKASPACE' ) );
#275 = DIRECTION ( 'NONE',  ( -0.0000000000000000000, -0.0000000000000000000, -1.000000000000000000 ) ) ;
#276 = CARTESIAN_POINT ( 'NONE',  ( 0.01141750000000003352, 1.398240482926494562E-18, 0.0000000000000000000 ) ) ;
#277 = EDGE_CURVE ( 'NONE', #146, #176, #214, .T. ) ;
#278 = FACE_BOUND ( 'NONE', #244, .T. ) ;
#279 = CARTESIAN_POINT ( 'NONE',  ( -0.06374000000000018540, 0.0000000000000000000, 1.968503999999999809 ) ) ;
#280 = CARTESIAN_POINT ( 'NONE',  ( -0.06374000000000018540, 0.0000000000000000000, 1.968503999999999809 ) ) ;
#281 = ORIENTED_EDGE ( 'NONE', *, *, #277, .T. ) ;
#282 = CYLINDRICAL_SURFACE ( 'NONE', #361, 0.07874000000000001831 ) ;
#283 = CIRCLE ( 'NONE', #82, 0.07874000000000001831 ) ;
#284 = DIRECTION ( 'NONE',  ( -0.0000000000000000000, -0.0000000000000000000, -1.000000000000000000 ) ) ;
#285 = EDGE_LOOP ( 'NONE', ( #54, #133, #127, #148 ) ) ;
#286 = CARTESIAN_POINT ( 'NONE',  ( 0.01141750000000006128, 1.398240482926497836E-18, 0.4724409999999999998 ) ) ;
#287 = APPLICATION_CONTEXT ( 'automotive_design' ) ;
#288 = DIRECTION ( 'NONE',  ( -0.0000000000000000000, -0.0000000000000000000, -1.000000000000000000 ) ) ;
#289 = DIRECTION ( 'NONE',  ( -0.0000000000000000000, -0.0000000000000000000, -1.000000000000000000 ) ) ;
#290 = DIRECTION ( 'NONE',  ( -0.0000000000000000000, -0.0000000000000000000, -1.000000000000000000 ) ) ;
#291 = STYLED_ITEM ( 'NONE', ( #23 ), #266 ) ;
#292 = CARTESIAN_POINT ( 'NONE',  ( 0.0000000000000000000, 0.0000000000000000000, 0.02362200000000000064 ) ) ;
#293 = CYLINDRICAL_SURFACE ( 'NONE', #71, 0.01141750000000003352 ) ;
#294 = ORIENTED_EDGE ( 'NONE', *, *, #211, .T. ) ;
#295 = LENGTH_MEASURE_WITH_UNIT ( LENGTH_MEASURE( 0.02539999999999999897 ), #96 );
#296 = ORIENTED_EDGE ( 'NONE', *, *, #200, .F. ) ;
#297 = ORIENTED_EDGE ( 'NONE', *, *, #376, .F. ) ;
#298 = CIRCLE ( 'NONE', #372, 0.07874000000000001831 ) ;
#299 = CARTESIAN_POINT ( 'NONE',  ( -0.07874000000000001831, 0.0000000000000000000, 1.953504000000000129 ) ) ;
#300 = CARTESIAN_POINT ( 'NONE',  ( 0.0000000000000000000, 0.0000000000000000000, 1.953504000000000129 ) ) ;
#301 = DIRECTION ( 'NONE',  ( -1.000000000000000000, 0.0000000000000000000, 0.0000000000000000000 ) ) ;
#302 = DIRECTION ( 'NONE',  ( 0.0000000000000000000, 0.0000000000000000000, -1.000000000000000000 ) ) ;
#303 = ADVANCED_FACE ( 'NONE', ( #363 ), #282, .T. ) ;
#304 = CARTESIAN_POINT ( 'NONE',  ( -0.01180981890000000305, 0.0000000000000000000, 0.0000000000000000000 ) ) ;
#305 = CARTESIAN_POINT ( 'NONE',  ( 0.0000000000000000000, 0.0000000000000000000, 1.953504000000000129 ) ) ;
#306 = CIRCLE ( 'NONE', #228, 0.01180981890000000305 ) ;
#307 = VERTEX_POINT ( 'NONE', #339 ) ;
#308 = ADVANCED_FACE ( 'NONE', ( #336 ), #86, .F. ) ;
#309 = CYLINDRICAL_SURFACE ( 'NONE', #158, 0.01180981890000000305 ) ;
#310 = ORIENTED_EDGE ( 'NONE', *, *, #110, .T. ) ;
#311 = CARTESIAN_POINT ( 'NONE',  ( 0.0000000000000000000, 0.0000000000000000000, 0.02362200000000000064 ) ) ;
#312 = AXIS2_PLACEMENT_3D ( 'NONE', #152, #290, #237 ) ;
#313 = DIRECTION ( 'NONE',  ( -0.7071067811865507924, 0.0000000000000000000, -0.7071067811865443531 ) ) ;
#314 = ADVANCED_FACE ( 'NONE', ( #124 ), #55, .T. ) ;
#315 = DIRECTION ( 'NONE',  ( -1.000000000000000000, 0.0000000000000000000, 0.0000000000000000000 ) ) ;
#316 = FACE_OUTER_BOUND ( 'NONE', #24, .T. ) ;
#317 = CARTESIAN_POINT ( 'NONE',  ( 0.07874000000000001831, 9.642868896486260050E-18, 1.968503999999999809 ) ) ;
#318 = AXIS2_PLACEMENT_3D ( 'NONE', #327, #111, #42 ) ;
#319 = ORIENTED_EDGE ( 'NONE', *, *, #143, .T. ) ;
#320 = EDGE_CURVE ( 'NONE', #176, #65, #60, .T. ) ;
#321 = SURFACE_SIDE_STYLE ('',( #323 ) ) ;
#322 = ORIENTED_EDGE ( 'NONE', *, *, #320, .T. ) ;
#323 = SURFACE_STYLE_FILL_AREA ( #216 ) ;
#324 = ORIENTED_EDGE ( 'NONE', *, *, #196, .T. ) ;
#325 = DIRECTION ( 'NONE',  ( 1.000000000000000000, 0.0000000000000000000, 0.0000000000000000000 ) ) ;
#326 = COLOUR_RGB ( '',0.7921568627450980005, 0.8196078431372548767, 0.9333333333333333481 ) ;
#327 = CARTESIAN_POINT ( 'NONE',  ( 0.0000000000000000000, 0.0000000000000000000, 0.0000000000000000000 ) ) ;
#328 = DIRECTION ( 'NONE',  ( -0.0000000000000000000, -0.0000000000000000000, -1.000000000000000000 ) ) ;
#329 = DIRECTION ( 'NONE',  ( 1.000000000000000000, 0.0000000000000000000, 0.0000000000000000000 ) ) ;
#330 = CARTESIAN_POINT ( 'NONE',  ( 0.0000000000000000000, 0.0000000000000000000, 0.0000000000000000000 ) ) ;
#331 = CIRCLE ( 'NONE', #189, 0.01141750000000000577 ) ;
#332 = EDGE_CURVE ( 'NONE', #355, #2, #178, .T. ) ;
#333 = APPLICATION_CONTEXT ( 'automotive_design' ) ;
#334 = DIRECTION ( 'NONE',  ( -1.000000000000000000, 0.0000000000000000000, 0.0000000000000000000 ) ) ;
#335 = DIRECTION ( 'NONE',  ( -1.000000000000000000, 0.0000000000000000000, 0.0000000000000000000 ) ) ;
#336 = FACE_OUTER_BOUND ( 'NONE', #21, .T. ) ;
#337 = PRODUCT_DEFINITION_FORMATION_WITH_SPECIFIED_SOURCE ( 'ANY', '', #79, .NOT_KNOWN. ) ;
#338 = CONICAL_SURFACE ( 'NONE', #140, 0.06374000000000018540, 0.7853981633974528309 ) ;
#339 = CARTESIAN_POINT ( 'NONE',  ( 0.01180981890000000305, 1.446285691439491932E-18, 0.0000000000000000000 ) ) ;
#340 = CARTESIAN_POINT ( 'NONE',  ( 0.0000000000000000000, 0.0000000000000000000, 0.02362200000000000064 ) ) ;
#341 = EDGE_LOOP ( 'NONE', ( #238, #281, #322, #297 ) ) ;
#342 = EDGE_CURVE ( 'NONE', #355, #239, #145, .T. ) ;
#343 = SURFACE_STYLE_USAGE ( .BOTH. , #147 ) ;
#344 = ORIENTED_EDGE ( 'NONE', *, *, #45, .T. ) ;
#345 = DIMENSIONAL_EXPONENTS ( 1.000000000000000000, 0.0000000000000000000, 0.0000000000000000000, 0.0000000000000000000, 0.0000000000000000000, 0.0000000000000000000, 0.0000000000000000000 ) ;
#346 = DIRECTION ( 'NONE',  ( -1.000000000000000000, 0.0000000000000000000, 0.0000000000000000000 ) ) ;
#347 = DIRECTION ( 'NONE',  ( -1.000000000000000000, 0.0000000000000000000, 0.0000000000000000000 ) ) ;
#348 = ORIENTED_EDGE ( 'NONE', *, *, #59, .T. ) ;
#349 = CIRCLE ( 'NONE', #78, 0.07874000000000001831 ) ;
#350 = UNCERTAINTY_MEASURE_WITH_UNIT (LENGTH_MEASURE( 1.000000000000000082E-05 ), #126, 'distance_accuracy_value', 'NONE');
#351 = AXIS2_PLACEMENT_3D ( 'NONE', #221, #77, #194 ) ;
#352 =( LENGTH_UNIT ( ) NAMED_UNIT ( * ) SI_UNIT ( $, .METRE. ) );
#353 = ORIENTED_EDGE ( 'NONE', *, *, #93, .T. ) ;
#354 = ADVANCED_FACE ( 'NONE', ( #316 ), #293, .T. ) ;
#355 = VERTEX_POINT ( 'NONE', #259 ) ;
#356 = DIRECTION ( 'NONE',  ( 0.0000000000000000000, 0.0000000000000000000, -1.000000000000000000 ) ) ;
#357 = DIRECTION ( 'NONE',  ( 0.0000000000000000000, 0.0000000000000000000, 1.000000000000000000 ) ) ;
#358 = DIRECTION ( 'NONE',  ( -0.0000000000000000000, -0.0000000000000000000, -1.000000000000000000 ) ) ;
#359 = EDGE_CURVE ( 'NONE', #67, #234, #68, .T. ) ;
#360 = DIRECTION ( 'NONE',  ( -0.0000000000000000000, -0.0000000000000000000, -1.000000000000000000 ) ) ;
#361 = AXIS2_PLACEMENT_3D ( 'NONE', #167, #115, #16 ) ;
#362 = DIRECTION ( 'NONE',  ( -1.000000000000000000, 0.0000000000000000000, 0.0000000000000000000 ) ) ;
#363 = FACE_OUTER_BOUND ( 'NONE', #157, .T. ) ;
#364 = DIRECTION ( 'NONE',  ( -1.000000000000000000, 0.0000000000000000000, 0.0000000000000000000 ) ) ;
#365 =( GEOMETRIC_REPRESENTATION_CONTEXT ( 3 ) GLOBAL_UNCERTAINTY_ASSIGNED_CONTEXT ( ( #350 ) ) GLOBAL_UNIT_ASSIGNED_CONTEXT ( ( #126, #257, #149 ) ) REPRESENTATION_CONTEXT ( 'NONE', 'WORKASPACE' ) );
#366 = VECTOR ( 'NONE', #5, 39.37007874015748143 ) ;
#367 = COLOUR_RGB ( '',0.7921568627450980005, 0.8196078431372548767, 0.9333333333333333481 ) ;
#368 = FILL_AREA_STYLE_COLOUR ( '', #326 ) ;
#369 = ORIENTED_EDGE ( 'NONE', *, *, #376, .T. ) ;
#370 = DIRECTION ( 'NONE',  ( -0.0000000000000000000, -0.0000000000000000000, -1.000000000000000000 ) ) ;
#371 = DIRECTION ( 'NONE',  ( -0.0000000000000000000, -0.0000000000000000000, -1.000000000000000000 ) ) ;
#372 = AXIS2_PLACEMENT_3D ( 'NONE', #103, #275, #136 ) ;
#373 = DIRECTION ( 'NONE',  ( 1.000000000000000000, 0.0000000000000000000, -0.0000000000000000000 ) ) ;
#374 = DIRECTION ( 'NONE',  ( -0.0000000000000000000, -0.0000000000000000000, -1.000000000000000000 ) ) ;
#375 = VERTEX_POINT ( 'NONE', #32 ) ;
#376 = EDGE_CURVE ( 'NONE', #101, #65, #349, .T. ) ;
#377 = ORIENTED_EDGE ( 'NONE', *, *, #110, .F. ) ;
#378 = FILL_AREA_STYLE_COLOUR ( '', #367 ) ;
#379 = EDGE_LOOP ( 'NONE', ( #186, #263, #17, #377 ) ) ;
ENDSEC;
END-ISO-10303-21;
