ISO-10303-21;
HEADER;
FILE_DESCRIPTION (( 'STEP AP214' ),
    '1' );
FILE_NAME ('56167.STEP',
    '2023-06-30T22:06:34',
    ( '' ),
    ( '' ),
    'SwSTEP 2.0',
    'SolidWorks 2023',
    '' );
FILE_SCHEMA (( 'AUTOMOTIVE_DESIGN' ));
ENDSEC;

DATA;
#1 = AXIS2_PLACEMENT_3D ( 'NONE', #59, #350, #92 ) ;
#2 = AXIS2_PLACEMENT_3D ( 'NONE', #373, #250, #81 ) ;
#3 = FACE_OUTER_BOUND ( 'NONE', #351, .T. ) ;
#4 = COLOUR_RGB ( '',1.000000000000000000, 0.000000000000000000, 0.000000000000000000 ) ;
#5 = PRESENTATION_STYLE_ASSIGNMENT (( #258 ) ) ;
#6 = VERTEX_POINT ( 'NONE', #197 ) ;
#7 = ORIENTED_EDGE ( 'NONE', *, *, #158, .F. ) ;
#8 = SURFACE_STYLE_USAGE ( .BOTH. , #273 ) ;
#9 = AXIS2_PLACEMENT_3D ( 'NONE', #302, #70, #216 ) ;
#10 = EDGE_LOOP ( 'NONE', ( #181, #60 ) ) ;
#11 = PLANE ( 'NONE',  #274 ) ;
#12 = CARTESIAN_POINT ( 'NONE',  ( 0.1249999999999998751, 3.000000000000000444, 1.530808498934190276E-17 ) ) ;
#13 = DIRECTION ( 'NONE',  ( -1.000000000000000000, 0.000000000000000000, 0.000000000000000000 ) ) ;
#14 =( CONVERSION_BASED_UNIT ( 'INCH', #309 ) LENGTH_UNIT ( ) NAMED_UNIT ( #46 ) );
#15 = DIRECTION ( 'NONE',  ( -1.224646799147353700E-16, 1.000000000000000000, -0.000000000000000000 ) ) ;
#16 = DIRECTION ( 'NONE',  ( -1.000000000000000000, 0.000000000000000000, 0.000000000000000000 ) ) ;
#17 = MECHANICAL_DESIGN_GEOMETRIC_PRESENTATION_REPRESENTATION (  '', ( #171 ), #143 ) ;
#18 =( CONVERSION_BASED_UNIT ( 'INCH', #76 ) LENGTH_UNIT ( ) NAMED_UNIT ( #53 ) );
#19 = DIRECTION ( 'NONE',  ( 0.000000000000000000, 0.000000000000000000, 1.000000000000000000 ) ) ;
#20 = EDGE_CURVE ( 'NONE', #355, #231, #168, .T. ) ;
#21 = SURFACE_STYLE_USAGE ( .BOTH. , #25 ) ;
#22 = ADVANCED_FACE ( 'NONE', ( #206 ), #39, .T. ) ;
#23 = CIRCLE ( 'NONE', #315, 0.1249999999999997086 ) ;
#24 = PRESENTATION_STYLE_ASSIGNMENT (( #21 ) ) ;
#25 = SURFACE_SIDE_STYLE ('',( #293 ) ) ;
#26 = ADVANCED_FACE ( 'NONE', ( #260 ), #265, .T. ) ;
#27 =( CONVERSION_BASED_UNIT ( 'INCH', #204 ) LENGTH_UNIT ( ) NAMED_UNIT ( #292 ) );
#28 = AXIS2_PLACEMENT_3D ( 'NONE', #241, #37, #34 ) ;
#29 = CARTESIAN_POINT ( 'NONE',  ( -6.123233995736772199E-17, 3.000000000000000444, 0.000000000000000000 ) ) ;
#30 = EDGE_CURVE ( 'NONE', #203, #217, #133, .T. ) ;
#31 = ORIENTED_EDGE ( 'NONE', *, *, #190, .T. ) ;
#32 = AXIS2_PLACEMENT_3D ( 'NONE', #33, #151, #156 ) ;
#33 = CARTESIAN_POINT ( 'NONE',  ( -1.530808498934191509E-17, 0.1250000000000000000, 0.000000000000000000 ) ) ;
#34 = DIRECTION ( 'NONE',  ( 0.000000000000000000, 0.000000000000000000, -1.000000000000000000 ) ) ;
#35 = FILL_AREA_STYLE_COLOUR ( '', #296 ) ;
#36 = ORIENTED_EDGE ( 'NONE', *, *, #191, .F. ) ;
#37 = DIRECTION ( 'NONE',  ( -0.000000000000000000, -1.000000000000000000, -0.000000000000000000 ) ) ;
#38 = CARTESIAN_POINT ( 'NONE',  ( -6.123233995736772199E-17, 3.000000000000000444, 0.000000000000000000 ) ) ;
#39 = SPHERICAL_SURFACE ( 'NONE', #32, 0.1250000000000000000 ) ;
#40 = FILL_AREA_STYLE ('',( #329 ) ) ;
#41 = VECTOR ( 'NONE', #15, 39.37007874015748143 ) ;
#42 = CARTESIAN_POINT ( 'NONE',  ( -1.530808498934191509E-17, 0.1250000000000000000, 0.000000000000000000 ) ) ;
#43 = MECHANICAL_DESIGN_GEOMETRIC_PRESENTATION_REPRESENTATION (  '', ( #79 ), #283 ) ;
#44 =( NAMED_UNIT ( * ) PLANE_ANGLE_UNIT ( ) SI_UNIT ( $, .RADIAN. ) );
#45 = SURFACE_SIDE_STYLE ('',( #368 ) ) ;
#46 = DIMENSIONAL_EXPONENTS ( 1.000000000000000000, 0.000000000000000000, 0.000000000000000000, 0.000000000000000000, 0.000000000000000000, 0.000000000000000000, 0.000000000000000000 ) ;
#47 = UNCERTAINTY_MEASURE_WITH_UNIT (LENGTH_MEASURE( 1.000000000000000082E-05 ), #82, 'distance_accuracy_value', 'NONE');
#48 = DIRECTION ( 'NONE',  ( 0.000000000000000000, 0.000000000000000000, -1.000000000000000000 ) ) ;
#49 = STYLED_ITEM ( 'NONE', ( #220 ), #175 ) ;
#50 = DIMENSIONAL_EXPONENTS ( 1.000000000000000000, 0.000000000000000000, 0.000000000000000000, 0.000000000000000000, 0.000000000000000000, 0.000000000000000000, 0.000000000000000000 ) ;
#51 = DIRECTION ( 'NONE',  ( -1.224646799147353700E-16, 1.000000000000000000, -0.000000000000000000 ) ) ;
#52 = ORIENTED_EDGE ( 'NONE', *, *, #30, .T. ) ;
#53 = DIMENSIONAL_EXPONENTS ( 1.000000000000000000, 0.000000000000000000, 0.000000000000000000, 0.000000000000000000, 0.000000000000000000, 0.000000000000000000, 0.000000000000000000 ) ;
#54 = CIRCLE ( 'NONE', #157, 0.1249999999999997086 ) ;
#55 =( NAMED_UNIT ( * ) SI_UNIT ( $, .STERADIAN. ) SOLID_ANGLE_UNIT ( ) );
#56 = MANIFOLD_SOLID_BREP ( 'Revolve - Tool Body (Straight Shanked)', #335 ) ;
#57 = ORIENTED_EDGE ( 'NONE', *, *, #135, .T. ) ;
#58 = STYLED_ITEM ( 'NONE', ( #132 ), #56 ) ;
#59 = CARTESIAN_POINT ( 'NONE',  ( 0.000000000000000000, 0.1250000000000000278, 0.000000000000000000 ) ) ;
#60 = ORIENTED_EDGE ( 'NONE', *, *, #131, .F. ) ;
#61 = VERTEX_POINT ( 'NONE', #75 ) ;
#62 = LENGTH_MEASURE_WITH_UNIT ( LENGTH_MEASURE( 0.02539999999999999897 ), #66 );
#63 = FILL_AREA_STYLE_COLOUR ( '', #4 ) ;
#64 = CIRCLE ( 'NONE', #282, 0.1250000000000000000 ) ;
#65 = DIRECTION ( 'NONE',  ( 1.000000000000000000, 1.224646799147353700E-16, 0.000000000000000000 ) ) ;
#66 =( LENGTH_UNIT ( ) NAMED_UNIT ( * ) SI_UNIT ( $, .METRE. ) );
#67 = ORIENTED_EDGE ( 'NONE', *, *, #80, .T. ) ;
#68 = SURFACE_SIDE_STYLE ('',( #347 ) ) ;
#69 = SURFACE_STYLE_FILL_AREA ( #40 ) ;
#70 = DIRECTION ( 'NONE',  ( -1.224646799147353700E-16, 1.000000000000000000, -0.000000000000000000 ) ) ;
#71 = ORIENTED_EDGE ( 'NONE', *, *, #286, .F. ) ;
#72 = CIRCLE ( 'NONE', #2, 0.1250000000000000000 ) ;
#73 = CARTESIAN_POINT ( 'NONE',  ( -0.1249999999999999029, 3.000000000000000444, 0.000000000000000000 ) ) ;
#74 = CARTESIAN_POINT ( 'NONE',  ( 0.000000000000000000, 1.000000000000000000, 0.000000000000000000 ) ) ;
#75 = CARTESIAN_POINT ( 'NONE',  ( -0.1250000000000000278, 3.000000000000000444, 0.000000000000000000 ) ) ;
#76 = LENGTH_MEASURE_WITH_UNIT ( LENGTH_MEASURE( 0.02539999999999999897 ), #331 );
#77 = SURFACE_STYLE_USAGE ( .BOTH. , #209 ) ;
#78 = PRODUCT_RELATED_PRODUCT_CATEGORY ( 'part', '', ( #326 ) ) ;
#79 = STYLED_ITEM ( 'NONE', ( #142 ), #358 ) ;
#80 = EDGE_CURVE ( 'NONE', #61, #200, #341, .T. ) ;
#81 = DIRECTION ( 'NONE',  ( 0.000000000000000000, 0.000000000000000000, -1.000000000000000000 ) ) ;
#82 =( CONVERSION_BASED_UNIT ( 'INCH', #316 ) LENGTH_UNIT ( ) NAMED_UNIT ( #186 ) );
#83 = AXIS2_PLACEMENT_3D ( 'NONE', #42, #136, #251 ) ;
#84 = STYLED_ITEM ( 'NONE', ( #5 ), #359 ) ;
#85 =( CONVERSION_BASED_UNIT ( 'INCH', #166 ) LENGTH_UNIT ( ) NAMED_UNIT ( #276 ) );
#86 =( NAMED_UNIT ( * ) SI_UNIT ( $, .STERADIAN. ) SOLID_ANGLE_UNIT ( ) );
#87 = CARTESIAN_POINT ( 'NONE',  ( 0.000000000000000000, 1.000000000000000000, 0.000000000000000000 ) ) ;
#88 = PRODUCT_DEFINITION ( 'UNKNOWN', '', #188, #247 ) ;
#89 = EDGE_CURVE ( 'NONE', #176, #200, #160, .T. ) ;
#90 = MECHANICAL_DESIGN_GEOMETRIC_PRESENTATION_REPRESENTATION (  '', ( #58 ), #301 ) ;
#91 = MECHANICAL_DESIGN_GEOMETRIC_PRESENTATION_REPRESENTATION (  '', ( #84 ), #297 ) ;
#92 = DIRECTION ( 'NONE',  ( 0.000000000000000000, 0.000000000000000000, -1.000000000000000000 ) ) ;
#93 = VERTEX_POINT ( 'NONE', #339 ) ;
#94 = SURFACE_STYLE_FILL_AREA ( #352 ) ;
#95 = DIRECTION ( 'NONE',  ( -1.000000000000000000, 0.000000000000000000, 0.000000000000000000 ) ) ;
#96 = EDGE_LOOP ( 'NONE', ( #118, #148, #36, #116 ) ) ;
#97 = PRESENTATION_LAYER_ASSIGNMENT (  '', '', ( #139 ) ) ;
#98 = AXIS2_PLACEMENT_3D ( 'NONE', #100, #208, #127 ) ;
#99 = ORIENTED_EDGE ( 'NONE', *, *, #205, .T. ) ;
#100 = CARTESIAN_POINT ( 'NONE',  ( 0.000000000000000000, 0.000000000000000000, 0.000000000000000000 ) ) ;
#101 = CYLINDRICAL_SURFACE ( 'NONE', #228, 0.1249999999999999306 ) ;
#102 = DIRECTION ( 'NONE',  ( -0.000000000000000000, -1.000000000000000000, -0.000000000000000000 ) ) ;
#103 =( NAMED_UNIT ( * ) SI_UNIT ( $, .STERADIAN. ) SOLID_ANGLE_UNIT ( ) );
#104 = DIRECTION ( 'NONE',  ( -1.224646799147353700E-16, 1.000000000000000000, -0.000000000000000000 ) ) ;
#105 = MECHANICAL_DESIGN_GEOMETRIC_PRESENTATION_REPRESENTATION (  '', ( #49 ), #198 ) ;
#106 =( CONVERSION_BASED_UNIT ( 'INCH', #245 ) LENGTH_UNIT ( ) NAMED_UNIT ( #249 ) );
#107 =( LENGTH_UNIT ( ) NAMED_UNIT ( * ) SI_UNIT ( $, .METRE. ) );
#108 = CARTESIAN_POINT ( 'NONE',  ( 0.000000000000000000, 0.000000000000000000, 0.000000000000000000 ) ) ;
#109 = CIRCLE ( 'NONE', #113, 0.1249999999999998751 ) ;
#110 = SHAPE_DEFINITION_REPRESENTATION ( #264, #173 ) ;
#111 = DIRECTION ( 'NONE',  ( -1.224646799147353700E-16, 1.000000000000000000, 0.000000000000000000 ) ) ;
#112 = SPHERICAL_SURFACE ( 'NONE', #261, 0.1250000000000000000 ) ;
#113 = AXIS2_PLACEMENT_3D ( 'NONE', #74, #102, #48 ) ;
#114 = LENGTH_MEASURE_WITH_UNIT ( LENGTH_MEASURE( 0.02539999999999999897 ), #356 );
#115 = SURFACE_SIDE_STYLE ('',( #94 ) ) ;
#116 = ORIENTED_EDGE ( 'NONE', *, *, #321, .T. ) ;
#117 = AXIS2_PLACEMENT_3D ( 'NONE', #369, #111, #189 ) ;
#118 = ORIENTED_EDGE ( 'NONE', *, *, #20, .T. ) ;
#119 = UNCERTAINTY_MEASURE_WITH_UNIT (LENGTH_MEASURE( 1.000000000000000082E-05 ), #27, 'distance_accuracy_value', 'NONE');
#120 = DIRECTION ( 'NONE',  ( 0.000000000000000000, 0.000000000000000000, -1.000000000000000000 ) ) ;
#121 =( LENGTH_UNIT ( ) NAMED_UNIT ( * ) SI_UNIT ( $, .METRE. ) );
#122 = SURFACE_STYLE_USAGE ( .BOTH. , #115 ) ;
#123 = ORIENTED_EDGE ( 'NONE', *, *, #223, .F. ) ;
#124 = PRESENTATION_LAYER_ASSIGNMENT (  '', '', ( #58 ) ) ;
#125 = PRESENTATION_LAYER_ASSIGNMENT (  '', '', ( #84 ) ) ;
#126 = CYLINDRICAL_SURFACE ( 'NONE', #134, 0.1249999999999998335 ) ;
#127 = DIRECTION ( 'NONE',  ( 0.000000000000000000, 0.000000000000000000, -1.000000000000000000 ) ) ;
#128 = SURFACE_SIDE_STYLE ('',( #69 ) ) ;
#129 = EDGE_CURVE ( 'NONE', #231, #153, #64, .T. ) ;
#130 =( LENGTH_UNIT ( ) NAMED_UNIT ( * ) SI_UNIT ( $, .METRE. ) );
#131 = EDGE_CURVE ( 'NONE', #217, #203, #109, .T. ) ;
#132 = PRESENTATION_STYLE_ASSIGNMENT (( #77 ) ) ;
#133 = CIRCLE ( 'NONE', #234, 0.1249999999999998751 ) ;
#134 = AXIS2_PLACEMENT_3D ( 'NONE', #38, #183, #13 ) ;
#135 = EDGE_CURVE ( 'NONE', #93, #176, #54, .T. ) ;
#136 = DIRECTION ( 'NONE',  ( 1.224646799147353207E-16, -0.000000000000000000, 1.000000000000000000 ) ) ;
#137 = DIRECTION ( 'NONE',  ( 1.000000000000000000, 0.000000000000000000, 0.000000000000000000 ) ) ;
#138 =( LENGTH_UNIT ( ) NAMED_UNIT ( * ) SI_UNIT ( $, .METRE. ) );
#139 = STYLED_ITEM ( 'NONE', ( #233 ), #22 ) ;
#140 = COLOUR_RGB ( '',1.000000000000000000, 0.000000000000000000, 0.000000000000000000 ) ;
#141 =( NAMED_UNIT ( * ) PLANE_ANGLE_UNIT ( ) SI_UNIT ( $, .RADIAN. ) );
#142 = PRESENTATION_STYLE_ASSIGNMENT (( #8 ) ) ;
#143 =( GEOMETRIC_REPRESENTATION_CONTEXT ( 3 ) GLOBAL_UNCERTAINTY_ASSIGNED_CONTEXT ( ( #47 ) ) GLOBAL_UNIT_ASSIGNED_CONTEXT ( ( #82, #141, #367 ) ) REPRESENTATION_CONTEXT ( 'NONE', 'WORKASPACE' ) );
#144 =( GEOMETRIC_REPRESENTATION_CONTEXT ( 3 ) GLOBAL_UNCERTAINTY_ASSIGNED_CONTEXT ( ( #256 ) ) GLOBAL_UNIT_ASSIGNED_CONTEXT ( ( #85, #346, #55 ) ) REPRESENTATION_CONTEXT ( 'NONE', 'WORKASPACE' ) );
#145 =( GEOMETRIC_REPRESENTATION_CONTEXT ( 3 ) GLOBAL_UNCERTAINTY_ASSIGNED_CONTEXT ( ( #242 ) ) GLOBAL_UNIT_ASSIGNED_CONTEXT ( ( #18, #162, #289 ) ) REPRESENTATION_CONTEXT ( 'NONE', 'WORKASPACE' ) );
#146 = DIRECTION ( 'NONE',  ( 0.000000000000000000, -0.000000000000000000, 1.000000000000000000 ) ) ;
#147 = DIRECTION ( 'NONE',  ( -1.224646799147353700E-16, 1.000000000000000000, -0.000000000000000000 ) ) ;
#148 = ORIENTED_EDGE ( 'NONE', *, *, #158, .T. ) ;
#149 = ORIENTED_EDGE ( 'NONE', *, *, #348, .T. ) ;
#150 = AXIS2_PLACEMENT_3D ( 'NONE', #317, #371, #193 ) ;
#151 = DIRECTION ( 'NONE',  ( 0.000000000000000000, 0.000000000000000000, 1.000000000000000000 ) ) ;
#152 = FILL_AREA_STYLE ('',( #322 ) ) ;
#153 = VERTEX_POINT ( 'NONE', #278 ) ;
#154 = DIRECTION ( 'NONE',  ( 0.000000000000000000, 1.000000000000000000, 0.000000000000000000 ) ) ;
#155 = CARTESIAN_POINT ( 'NONE',  ( 0.000000000000000000, 0.000000000000000000, -0.1249999999999999306 ) ) ;
#156 = DIRECTION ( 'NONE',  ( 1.000000000000000000, 0.000000000000000000, 0.000000000000000000 ) ) ;
#157 = AXIS2_PLACEMENT_3D ( 'NONE', #284, #104, #16 ) ;
#158 = EDGE_CURVE ( 'NONE', #231, #6, #221, .T. ) ;
#159 = EDGE_LOOP ( 'NONE', ( #67, #325 ) ) ;
#160 = LINE ( 'NONE', #182, #307 ) ;
#161 = LINE ( 'NONE', #155, #174 ) ;
#162 =( NAMED_UNIT ( * ) PLANE_ANGLE_UNIT ( ) SI_UNIT ( $, .RADIAN. ) );
#163 = PRESENTATION_LAYER_ASSIGNMENT (  '', '', ( #171 ) ) ;
#164 = DIRECTION ( 'NONE',  ( 0.000000000000000000, 0.000000000000000000, -1.000000000000000000 ) ) ;
#165 = FACE_OUTER_BOUND ( 'NONE', #159, .T. ) ;
#166 = LENGTH_MEASURE_WITH_UNIT ( LENGTH_MEASURE( 0.02539999999999999897 ), #107 );
#167 = DIRECTION ( 'NONE',  ( -1.000000000000000000, 0.000000000000000000, 0.000000000000000000 ) ) ;
#168 = CIRCLE ( 'NONE', #1, 0.1250000000000000000 ) ;
#169 = PRESENTATION_LAYER_ASSIGNMENT (  '', '', ( #318 ) ) ;
#170 = CARTESIAN_POINT ( 'NONE',  ( 0.000000000000000000, 0.000000000000000000, 0.000000000000000000 ) ) ;
#171 = STYLED_ITEM ( 'NONE', ( #212 ), #227 ) ;
#172 = ORIENTED_EDGE ( 'NONE', *, *, #321, .F. ) ;
#173 = ADVANCED_BREP_SHAPE_REPRESENTATION ( '56167', ( #175, #56, #199 ), #145 ) ;
#174 = VECTOR ( 'NONE', #238, 39.37007874015748143 ) ;
#175 = MANIFOLD_SOLID_BREP ( 'Revolve - Cutting Edge', #271 ) ;
#176 = VERTEX_POINT ( 'NONE', #280 ) ;
#177 = EDGE_LOOP ( 'NONE', ( #299, #363 ) ) ;
#178 = UNCERTAINTY_MEASURE_WITH_UNIT (LENGTH_MEASURE( 1.000000000000000082E-05 ), #225, 'distance_accuracy_value', 'NONE');
#179 = DIRECTION ( 'NONE',  ( -1.000000000000000000, 0.000000000000000000, 0.000000000000000000 ) ) ;
#180 =( NAMED_UNIT ( * ) SI_UNIT ( $, .STERADIAN. ) SOLID_ANGLE_UNIT ( ) );
#181 = ORIENTED_EDGE ( 'NONE', *, *, #30, .F. ) ;
#182 = CARTESIAN_POINT ( 'NONE',  ( 0.1249999999999997641, 3.000000000000000444, 1.530808498934189352E-17 ) ) ;
#183 = DIRECTION ( 'NONE',  ( -1.224646799147353700E-16, 1.000000000000000000, -0.000000000000000000 ) ) ;
#184 = FILL_AREA_STYLE_COLOUR ( '', #345 ) ;
#185 = FILL_AREA_STYLE ('',( #35 ) ) ;
#186 = DIMENSIONAL_EXPONENTS ( 1.000000000000000000, 0.000000000000000000, 0.000000000000000000, 0.000000000000000000, 0.000000000000000000, 0.000000000000000000, 0.000000000000000000 ) ;
#187 = DIRECTION ( 'NONE',  ( 1.000000000000000000, 0.000000000000000000, 0.000000000000000000 ) ) ;
#188 = PRODUCT_DEFINITION_FORMATION_WITH_SPECIFIED_SOURCE ( 'ANY', '', #326, .NOT_KNOWN. ) ;
#189 = DIRECTION ( 'NONE',  ( -1.000000000000000000, -1.224646799147353700E-16, 0.000000000000000000 ) ) ;
#190 = EDGE_CURVE ( 'NONE', #217, #355, #328, .T. ) ;
#191 = EDGE_CURVE ( 'NONE', #266, #6, #327, .T. ) ;
#192 = FACE_OUTER_BOUND ( 'NONE', #96, .T. ) ;
#193 = DIRECTION ( 'NONE',  ( -1.000000000000000000, 0.000000000000000000, 0.000000000000000000 ) ) ;
#194 = CARTESIAN_POINT ( 'NONE',  ( 0.1249999999999998751, 3.000000000000000444, 0.000000000000000000 ) ) ;
#195 = DIRECTION ( 'NONE',  ( 1.224646799147353700E-16, -1.000000000000000000, 0.000000000000000000 ) ) ;
#196 =( NAMED_UNIT ( * ) PLANE_ANGLE_UNIT ( ) SI_UNIT ( $, .RADIAN. ) );
#197 = CARTESIAN_POINT ( 'NONE',  ( -7.654042494670957545E-18, 0.000000000000000000, 0.000000000000000000 ) ) ;
#198 =( GEOMETRIC_REPRESENTATION_CONTEXT ( 3 ) GLOBAL_UNCERTAINTY_ASSIGNED_CONTEXT ( ( #263 ) ) GLOBAL_UNIT_ASSIGNED_CONTEXT ( ( #14, #196, #243 ) ) REPRESENTATION_CONTEXT ( 'NONE', 'WORKASPACE' ) );
#199 = AXIS2_PLACEMENT_3D ( 'NONE', #108, #279, #187 ) ;
#200 = VERTEX_POINT ( 'NONE', #12 ) ;
#201 = ORIENTED_EDGE ( 'NONE', *, *, #20, .F. ) ;
#202 = DIRECTION ( 'NONE',  ( -0.000000000000000000, -1.000000000000000000, -0.000000000000000000 ) ) ;
#203 = VERTEX_POINT ( 'NONE', #277 ) ;
#204 = LENGTH_MEASURE_WITH_UNIT ( LENGTH_MEASURE( 0.02539999999999999897 ), #121 );
#205 = EDGE_CURVE ( 'NONE', #93, #61, #304, .T. ) ;
#206 = FACE_OUTER_BOUND ( 'NONE', #257, .T. ) ;
#207 = ADVANCED_FACE ( 'NONE', ( #333 ), #126, .T. ) ;
#208 = DIRECTION ( 'NONE',  ( -0.000000000000000000, -1.000000000000000000, -0.000000000000000000 ) ) ;
#209 = SURFACE_SIDE_STYLE ('',( #281 ) ) ;
#210 = ORIENTED_EDGE ( 'NONE', *, *, #223, .T. ) ;
#211 =( NAMED_UNIT ( * ) PLANE_ANGLE_UNIT ( ) SI_UNIT ( $, .RADIAN. ) );
#212 = PRESENTATION_STYLE_ASSIGNMENT (( #362 ) ) ;
#213 = SURFACE_STYLE_USAGE ( .BOTH. , #45 ) ;
#214 = PRESENTATION_LAYER_ASSIGNMENT (  '', '', ( #79 ) ) ;
#215 = CARTESIAN_POINT ( 'NONE',  ( 1.530808498934190893E-17, 0.000000000000000000, 0.1249999999999999306 ) ) ;
#216 = DIRECTION ( 'NONE',  ( -1.000000000000000000, 0.000000000000000000, 0.000000000000000000 ) ) ;
#217 = VERTEX_POINT ( 'NONE', #310 ) ;
#218 = DIRECTION ( 'NONE',  ( -0.000000000000000000, -1.000000000000000000, -0.000000000000000000 ) ) ;
#219 = DIRECTION ( 'NONE',  ( 0.000000000000000000, 0.000000000000000000, -1.000000000000000000 ) ) ;
#220 = PRESENTATION_STYLE_ASSIGNMENT (( #213 ) ) ;
#221 = CIRCLE ( 'NONE', #83, 0.1250000000000000000 ) ;
#222 = FILL_AREA_STYLE ('',( #319 ) ) ;
#223 = EDGE_CURVE ( 'NONE', #203, #153, #161, .T. ) ;
#224 = PLANE ( 'NONE',  #117 ) ;
#225 =( CONVERSION_BASED_UNIT ( 'INCH', #114 ) LENGTH_UNIT ( ) NAMED_UNIT ( #50 ) );
#226 = FILL_AREA_STYLE_COLOUR ( '', #364 ) ;
#227 = ADVANCED_FACE ( 'NONE', ( #357 ), #101, .T. ) ;
#228 = AXIS2_PLACEMENT_3D ( 'NONE', #170, #253, #219 ) ;
#229 = ORIENTED_EDGE ( 'NONE', *, *, #80, .F. ) ;
#230 = EDGE_LOOP ( 'NONE', ( #248, #298, #210, #244, #201 ) ) ;
#231 = VERTEX_POINT ( 'NONE', #294 ) ;
#232 =( NAMED_UNIT ( * ) PLANE_ANGLE_UNIT ( ) SI_UNIT ( $, .RADIAN. ) );
#233 = PRESENTATION_STYLE_ASSIGNMENT (( #122 ) ) ;
#234 = AXIS2_PLACEMENT_3D ( 'NONE', #270, #202, #120 ) ;
#235 = EDGE_LOOP ( 'NONE', ( #57, #360, #229, #353 ) ) ;
#236 = COLOUR_RGB ( '',1.000000000000000000, 0.000000000000000000, 0.000000000000000000 ) ;
#237 = CYLINDRICAL_SURFACE ( 'NONE', #98, 0.1249999999999999306 ) ;
#238 = DIRECTION ( 'NONE',  ( -0.000000000000000000, -1.000000000000000000, -0.000000000000000000 ) ) ;
#239 =( LENGTH_UNIT ( ) NAMED_UNIT ( * ) SI_UNIT ( $, .METRE. ) );
#240 = ORIENTED_EDGE ( 'NONE', *, *, #287, .T. ) ;
#241 = CARTESIAN_POINT ( 'NONE',  ( 0.000000000000000000, 0.1250000000000000278, 0.000000000000000000 ) ) ;
#242 = UNCERTAINTY_MEASURE_WITH_UNIT (LENGTH_MEASURE( 1.000000000000000082E-05 ), #18, 'distance_accuracy_value', 'NONE');
#243 =( NAMED_UNIT ( * ) SI_UNIT ( $, .STERADIAN. ) SOLID_ANGLE_UNIT ( ) );
#244 = ORIENTED_EDGE ( 'NONE', *, *, #129, .F. ) ;
#245 = LENGTH_MEASURE_WITH_UNIT ( LENGTH_MEASURE( 0.02539999999999999897 ), #130 );
#246 = CIRCLE ( 'NONE', #150, 0.1249999999999999445 ) ;
#247 = PRODUCT_DEFINITION_CONTEXT ( 'detailed design', #337, 'design' ) ;
#248 = ORIENTED_EDGE ( 'NONE', *, *, #190, .F. ) ;
#249 = DIMENSIONAL_EXPONENTS ( 1.000000000000000000, 0.000000000000000000, 0.000000000000000000, 0.000000000000000000, 0.000000000000000000, 0.000000000000000000, 0.000000000000000000 ) ;
#250 = DIRECTION ( 'NONE',  ( -0.000000000000000000, -1.000000000000000000, -0.000000000000000000 ) ) ;
#251 = DIRECTION ( 'NONE',  ( 1.000000000000000000, 0.000000000000000000, -1.224646799147353207E-16 ) ) ;
#252 = APPLICATION_PROTOCOL_DEFINITION ( 'draft international standard', 'automotive_design', 1998, #349 ) ;
#253 = DIRECTION ( 'NONE',  ( -0.000000000000000000, -1.000000000000000000, -0.000000000000000000 ) ) ;
#254 = AXIS2_PLACEMENT_3D ( 'NONE', #338, #366, #179 ) ;
#255 = CARTESIAN_POINT ( 'NONE',  ( 1.836970198721030427E-16, 1.000000000000000000, 0.000000000000000000 ) ) ;
#256 = UNCERTAINTY_MEASURE_WITH_UNIT (LENGTH_MEASURE( 1.000000000000000082E-05 ), #85, 'distance_accuracy_value', 'NONE');
#257 = EDGE_LOOP ( 'NONE', ( #7, #323, #149, #303 ) ) ;
#258 = SURFACE_STYLE_USAGE ( .BOTH. , #68 ) ;
#259 = ORIENTED_EDGE ( 'NONE', *, *, #348, .F. ) ;
#260 = FACE_OUTER_BOUND ( 'NONE', #262, .T. ) ;
#261 = AXIS2_PLACEMENT_3D ( 'NONE', #288, #19, #137 ) ;
#262 = EDGE_LOOP ( 'NONE', ( #267, #240, #99, #71 ) ) ;
#263 = UNCERTAINTY_MEASURE_WITH_UNIT (LENGTH_MEASURE( 1.000000000000000082E-05 ), #14, 'distance_accuracy_value', 'NONE');
#264 = PRODUCT_DEFINITION_SHAPE ( 'NONE', 'NONE',  #88 ) ;
#265 = CYLINDRICAL_SURFACE ( 'NONE', #344, 0.1249999999999998335 ) ;
#266 = VERTEX_POINT ( 'NONE', #372 ) ;
#267 = ORIENTED_EDGE ( 'NONE', *, *, #89, .F. ) ;
#268 = SURFACE_STYLE_FILL_AREA ( #152 ) ;
#269 = UNCERTAINTY_MEASURE_WITH_UNIT (LENGTH_MEASURE( 1.000000000000000082E-05 ), #324, 'distance_accuracy_value', 'NONE');
#270 = CARTESIAN_POINT ( 'NONE',  ( 0.000000000000000000, 1.000000000000000000, 0.000000000000000000 ) ) ;
#271 = CLOSED_SHELL ( 'NONE', ( #332, #359, #358, #227, #22 ) ) ;
#272 = VECTOR ( 'NONE', #218, 39.37007874015748143 ) ;
#273 = SURFACE_SIDE_STYLE ('',( #268 ) ) ;
#274 = AXIS2_PLACEMENT_3D ( 'NONE', #87, #154, #146 ) ;
#275 = CARTESIAN_POINT ( 'NONE',  ( 0.000000000000000000, 0.1250000000000000278, 0.000000000000000000 ) ) ;
#276 = DIMENSIONAL_EXPONENTS ( 1.000000000000000000, 0.000000000000000000, 0.000000000000000000, 0.000000000000000000, 0.000000000000000000, 0.000000000000000000, 0.000000000000000000 ) ;
#277 = CARTESIAN_POINT ( 'NONE',  ( 0.000000000000000000, 1.000000000000000000, -0.1249999999999998751 ) ) ;
#278 = CARTESIAN_POINT ( 'NONE',  ( 0.000000000000000000, 0.1250000000000000278, -0.1250000000000000000 ) ) ;
#279 = DIRECTION ( 'NONE',  ( 0.000000000000000000, 0.000000000000000000, 1.000000000000000000 ) ) ;
#280 = CARTESIAN_POINT ( 'NONE',  ( 0.1249999999999998751, 1.000000000000000000, 1.530808498934190276E-17 ) ) ;
#281 = SURFACE_STYLE_FILL_AREA ( #185 ) ;
#282 = AXIS2_PLACEMENT_3D ( 'NONE', #275, #334, #164 ) ;
#283 =( GEOMETRIC_REPRESENTATION_CONTEXT ( 3 ) GLOBAL_UNCERTAINTY_ASSIGNED_CONTEXT ( ( #119 ) ) GLOBAL_UNIT_ASSIGNED_CONTEXT ( ( #27, #211, #86 ) ) REPRESENTATION_CONTEXT ( 'NONE', 'WORKASPACE' ) );
#284 = CARTESIAN_POINT ( 'NONE',  ( 1.836970198721030427E-16, 1.000000000000000000, 0.000000000000000000 ) ) ;
#285 = PRODUCT_CONTEXT ( 'NONE', #349, 'mechanical' ) ;
#286 = EDGE_CURVE ( 'NONE', #200, #61, #246, .T. ) ;
#287 = EDGE_CURVE ( 'NONE', #176, #93, #23, .T. ) ;
#288 = CARTESIAN_POINT ( 'NONE',  ( -1.530808498934191509E-17, 0.1250000000000000000, 0.000000000000000000 ) ) ;
#289 =( NAMED_UNIT ( * ) SI_UNIT ( $, .STERADIAN. ) SOLID_ANGLE_UNIT ( ) );
#290 = PLANE ( 'NONE',  #365 ) ;
#291 = MECHANICAL_DESIGN_GEOMETRIC_PRESENTATION_REPRESENTATION (  '', ( #139 ), #300 ) ;
#292 = DIMENSIONAL_EXPONENTS ( 1.000000000000000000, 0.000000000000000000, 0.000000000000000000, 0.000000000000000000, 0.000000000000000000, 0.000000000000000000, 0.000000000000000000 ) ;
#293 = SURFACE_STYLE_FILL_AREA ( #222 ) ;
#294 = CARTESIAN_POINT ( 'NONE',  ( -0.1250000000000000000, 0.1250000000000000278, 1.530808498934191201E-17 ) ) ;
#295 = FILL_AREA_STYLE ('',( #63 ) ) ;
#296 = COLOUR_RGB ( '',0.7921568627450980005, 0.8196078431372548767, 0.9333333333333333481 ) ;
#297 =( GEOMETRIC_REPRESENTATION_CONTEXT ( 3 ) GLOBAL_UNCERTAINTY_ASSIGNED_CONTEXT ( ( #178 ) ) GLOBAL_UNIT_ASSIGNED_CONTEXT ( ( #225, #232, #103 ) ) REPRESENTATION_CONTEXT ( 'NONE', 'WORKASPACE' ) );
#298 = ORIENTED_EDGE ( 'NONE', *, *, #131, .T. ) ;
#299 = ORIENTED_EDGE ( 'NONE', *, *, #135, .F. ) ;
#300 =( GEOMETRIC_REPRESENTATION_CONTEXT ( 3 ) GLOBAL_UNCERTAINTY_ASSIGNED_CONTEXT ( ( #269 ) ) GLOBAL_UNIT_ASSIGNED_CONTEXT ( ( #324, #305, #180 ) ) REPRESENTATION_CONTEXT ( 'NONE', 'WORKASPACE' ) );
#301 =( GEOMETRIC_REPRESENTATION_CONTEXT ( 3 ) GLOBAL_UNCERTAINTY_ASSIGNED_CONTEXT ( ( #306 ) ) GLOBAL_UNIT_ASSIGNED_CONTEXT ( ( #106, #44, #330 ) ) REPRESENTATION_CONTEXT ( 'NONE', 'WORKASPACE' ) );
#302 = CARTESIAN_POINT ( 'NONE',  ( -6.123233995736772199E-17, 3.000000000000000444, 0.000000000000000000 ) ) ;
#303 = ORIENTED_EDGE ( 'NONE', *, *, #191, .T. ) ;
#304 = LINE ( 'NONE', #73, #41 ) ;
#305 =( NAMED_UNIT ( * ) PLANE_ANGLE_UNIT ( ) SI_UNIT ( $, .RADIAN. ) );
#306 = UNCERTAINTY_MEASURE_WITH_UNIT (LENGTH_MEASURE( 1.000000000000000082E-05 ), #106, 'distance_accuracy_value', 'NONE');
#307 = VECTOR ( 'NONE', #312, 39.37007874015748143 ) ;
#308 = ADVANCED_FACE ( 'NONE', ( #342 ), #224, .F. ) ;
#309 = LENGTH_MEASURE_WITH_UNIT ( LENGTH_MEASURE( 0.02539999999999999897 ), #239 );
#310 = CARTESIAN_POINT ( 'NONE',  ( 1.530808498934190585E-17, 1.000000000000000000, 0.1249999999999998751 ) ) ;
#311 = FILL_AREA_STYLE ('',( #184 ) ) ;
#312 = DIRECTION ( 'NONE',  ( -1.224646799147353700E-16, 1.000000000000000000, -0.000000000000000000 ) ) ;
#313 = APPLICATION_PROTOCOL_DEFINITION ( 'draft international standard', 'automotive_design', 1998, #337 ) ;
#314 = CIRCLE ( 'NONE', #28, 0.1250000000000000000 ) ;
#315 = AXIS2_PLACEMENT_3D ( 'NONE', #255, #51, #167 ) ;
#316 = LENGTH_MEASURE_WITH_UNIT ( LENGTH_MEASURE( 0.02539999999999999897 ), #138 );
#317 = CARTESIAN_POINT ( 'NONE',  ( -6.123233995736772199E-17, 3.000000000000000444, 0.000000000000000000 ) ) ;
#318 = STYLED_ITEM ( 'NONE', ( #24 ), #332 ) ;
#319 = FILL_AREA_STYLE_COLOUR ( '', #336 ) ;
#320 = FACE_OUTER_BOUND ( 'NONE', #10, .T. ) ;
#321 = EDGE_CURVE ( 'NONE', #266, #355, #72, .T. ) ;
#322 = FILL_AREA_STYLE_COLOUR ( '', #236 ) ;
#323 = ORIENTED_EDGE ( 'NONE', *, *, #129, .T. ) ;
#324 =( CONVERSION_BASED_UNIT ( 'INCH', #62 ) LENGTH_UNIT ( ) NAMED_UNIT ( #343 ) );
#325 = ORIENTED_EDGE ( 'NONE', *, *, #286, .T. ) ;
#326 = PRODUCT ( '56167', '56167', '', ( #285 ) ) ;
#327 = CIRCLE ( 'NONE', #254, 0.1250000000000000000 ) ;
#328 = LINE ( 'NONE', #215, #272 ) ;
#329 = FILL_AREA_STYLE_COLOUR ( '', #140 ) ;
#330 =( NAMED_UNIT ( * ) SI_UNIT ( $, .STERADIAN. ) SOLID_ANGLE_UNIT ( ) );
#331 =( LENGTH_UNIT ( ) NAMED_UNIT ( * ) SI_UNIT ( $, .METRE. ) );
#332 = ADVANCED_FACE ( 'NONE', ( #192 ), #112, .T. ) ;
#333 = FACE_OUTER_BOUND ( 'NONE', #235, .T. ) ;
#334 = DIRECTION ( 'NONE',  ( -0.000000000000000000, -1.000000000000000000, -0.000000000000000000 ) ) ;
#335 = CLOSED_SHELL ( 'NONE', ( #207, #308, #26, #340 ) ) ;
#336 = COLOUR_RGB ( '',1.000000000000000000, 0.000000000000000000, 0.000000000000000000 ) ;
#337 = APPLICATION_CONTEXT ( 'automotive_design' ) ;
#338 = CARTESIAN_POINT ( 'NONE',  ( -1.530808498934191509E-17, 0.1250000000000000000, 0.000000000000000000 ) ) ;
#339 = CARTESIAN_POINT ( 'NONE',  ( -0.1249999999999995143, 1.000000000000000000, 0.000000000000000000 ) ) ;
#340 = ADVANCED_FACE ( 'NONE', ( #165 ), #290, .F. ) ;
#341 = CIRCLE ( 'NONE', #9, 0.1249999999999999445 ) ;
#342 = FACE_OUTER_BOUND ( 'NONE', #177, .T. ) ;
#343 = DIMENSIONAL_EXPONENTS ( 1.000000000000000000, 0.000000000000000000, 0.000000000000000000, 0.000000000000000000, 0.000000000000000000, 0.000000000000000000, 0.000000000000000000 ) ;
#344 = AXIS2_PLACEMENT_3D ( 'NONE', #29, #147, #95 ) ;
#345 = COLOUR_RGB ( '',0.7921568627450980005, 0.8196078431372548767, 0.9333333333333333481 ) ;
#346 =( NAMED_UNIT ( * ) PLANE_ANGLE_UNIT ( ) SI_UNIT ( $, .RADIAN. ) );
#347 = SURFACE_STYLE_FILL_AREA ( #295 ) ;
#348 = EDGE_CURVE ( 'NONE', #153, #266, #314, .T. ) ;
#349 = APPLICATION_CONTEXT ( 'automotive_design' ) ;
#350 = DIRECTION ( 'NONE',  ( -0.000000000000000000, -1.000000000000000000, -0.000000000000000000 ) ) ;
#351 = EDGE_LOOP ( 'NONE', ( #52, #31, #172, #259, #123 ) ) ;
#352 = FILL_AREA_STYLE ('',( #226 ) ) ;
#353 = ORIENTED_EDGE ( 'NONE', *, *, #205, .F. ) ;
#354 = MECHANICAL_DESIGN_GEOMETRIC_PRESENTATION_REPRESENTATION (  '', ( #318 ), #144 ) ;
#355 = VERTEX_POINT ( 'NONE', #361 ) ;
#356 =( LENGTH_UNIT ( ) NAMED_UNIT ( * ) SI_UNIT ( $, .METRE. ) );
#357 = FACE_OUTER_BOUND ( 'NONE', #230, .T. ) ;
#358 = ADVANCED_FACE ( 'NONE', ( #320 ), #11, .T. ) ;
#359 = ADVANCED_FACE ( 'NONE', ( #3 ), #237, .T. ) ;
#360 = ORIENTED_EDGE ( 'NONE', *, *, #89, .T. ) ;
#361 = CARTESIAN_POINT ( 'NONE',  ( 1.530808498934191509E-17, 0.1250000000000000278, 0.1249999999999999861 ) ) ;
#362 = SURFACE_STYLE_USAGE ( .BOTH. , #128 ) ;
#363 = ORIENTED_EDGE ( 'NONE', *, *, #287, .F. ) ;
#364 = COLOUR_RGB ( '',1.000000000000000000, 0.000000000000000000, 0.000000000000000000 ) ;
#365 = AXIS2_PLACEMENT_3D ( 'NONE', #194, #195, #65 ) ;
#366 = DIRECTION ( 'NONE',  ( 0.000000000000000000, 0.000000000000000000, -1.000000000000000000 ) ) ;
#367 =( NAMED_UNIT ( * ) SI_UNIT ( $, .STERADIAN. ) SOLID_ANGLE_UNIT ( ) );
#368 = SURFACE_STYLE_FILL_AREA ( #311 ) ;
#369 = CARTESIAN_POINT ( 'NONE',  ( 1.836970198721030181E-16, 1.000000000000000000, 0.000000000000000000 ) ) ;
#370 = PRESENTATION_LAYER_ASSIGNMENT (  '', '', ( #49 ) ) ;
#371 = DIRECTION ( 'NONE',  ( -1.224646799147353700E-16, 1.000000000000000000, -0.000000000000000000 ) ) ;
#372 = CARTESIAN_POINT ( 'NONE',  ( 0.1250000000000000000, 0.1250000000000000278, 0.000000000000000000 ) ) ;
#373 = CARTESIAN_POINT ( 'NONE',  ( 0.000000000000000000, 0.1250000000000000278, 0.000000000000000000 ) ) ;
ENDSEC;
END-ISO-10303-21;
