ISO-10303-21;
HEADER;
FILE_DESCRIPTION (( 'STEP AP214' ),
    '1' );
FILE_NAME ('Micro_GEMM-040-3.STEP',
    '2021-09-01T21:32:15',
    ( '' ),
    ( '' ),
    'SwSTEP 2.0',
    'SolidWorks 2020',
    '' );
FILE_SCHEMA (( 'AUTOMOTIVE_DESIGN' ));
ENDSEC;

DATA;
#1 = CLOSED_SHELL ( 'NONE', ( #204, #65, #14, #66, #96, #7, #202, #189, #210, #11 ) ) ;
#2 = STYLED_ITEM ( 'NONE', ( #168 ), #6 ) ;
#3 = ORIENTED_EDGE ( 'NONE', *, *, #129, .F. ) ;
#4 = EDGE_LOOP ( 'NONE', ( #73, #212, #240, #75 ) ) ;
#5 = ORIENTED_EDGE ( 'NONE', *, *, #177, .F. ) ;
#6 = MANIFOLD_SOLID_BREP ( 'Cut-Revolve1', #1 ) ;
#7 = ADVANCED_FACE ( 'NONE', ( #134 ), #141, .T. ) ;
#8 = VERTEX_POINT ( 'NONE', #104 ) ;
#9 = CYLINDRICAL_SURFACE ( 'NONE', #137, 0.07866126000000001062 ) ;
#10 = CIRCLE ( 'NONE', #178, 0.07874000000000000443 ) ;
#11 = ADVANCED_FACE ( 'NONE', ( #246 ), #15, .F. ) ;
#12 = CARTESIAN_POINT ( 'NONE',  ( 3.857159805062494824E-17, 0.0000000000000000000, 0.3149609999999999910 ) ) ;
#13 = DIRECTION ( 'NONE',  ( -0.1736481776669311639, 2.126576849575783008E-17, 0.9848077530122080203 ) ) ;
#14 = ADVANCED_FACE ( 'NONE', ( #190 ), #25, .T. ) ;
#15 = PLANE ( 'NONE',  #288 ) ;
#16 = LINE ( 'NONE', #105, #85 ) ;
#17 = DIRECTION ( 'NONE',  ( 1.000000000000000000, 0.0000000000000000000, -0.0000000000000000000 ) ) ;
#18 = CARTESIAN_POINT ( 'NONE',  ( 0.0000000000000000000, 0.0000000000000000000, 1.953504000000000129 ) ) ;
#19 = VECTOR ( 'NONE', #124, 39.37007874015748143 ) ;
#20 = PRESENTATION_STYLE_ASSIGNMENT (( #250 ) ) ;
#21 = VECTOR ( 'NONE', #13, 39.37007874015747433 ) ;
#22 = CONICAL_SURFACE ( 'NONE', #227, 0.06374000000000018540, 0.7853981633974522758 ) ;
#23 =( LENGTH_UNIT ( ) NAMED_UNIT ( * ) SI_UNIT ( $, .METRE. ) );
#24 = PRODUCT_DEFINITION_CONTEXT ( 'detailed design', #90, 'design' ) ;
#25 = CONICAL_SURFACE ( 'NONE', #205, 0.06374000000000018540, 0.7853981633974522758 ) ;
#26 = ORIENTED_EDGE ( 'NONE', *, *, #99, .T. ) ;
#27 = DIRECTION ( 'NONE',  ( -1.224646799147353207E-16, -0.0000000000000000000, -1.000000000000000000 ) ) ;
#28 = EDGE_LOOP ( 'NONE', ( #165, #213, #26, #116 ) ) ;
#29 = ORIENTED_EDGE ( 'NONE', *, *, #230, .T. ) ;
#30 = FILL_AREA_STYLE ('',( #142 ) ) ;
#31 = CIRCLE ( 'NONE', #94, 0.06374000000000018540 ) ;
#32 = VERTEX_POINT ( 'NONE', #201 ) ;
#33 = FACE_OUTER_BOUND ( 'NONE', #242, .T. ) ;
#34 = CARTESIAN_POINT ( 'NONE',  ( 3.857159805062494824E-17, 0.0000000000000000000, 0.3149609999999999910 ) ) ;
#35 = DIRECTION ( 'NONE',  ( 0.0000000000000000000, 0.0000000000000000000, -1.000000000000000000 ) ) ;
#36 = CARTESIAN_POINT ( 'NONE',  ( 0.0000000000000000000, 0.0000000000000000000, 0.0000000000000000000 ) ) ;
#37 = CARTESIAN_POINT ( 'NONE',  ( 0.0000000000000000000, 0.0000000000000000000, 1.968503999999999809 ) ) ;
#38 = DIRECTION ( 'NONE',  ( 1.000000000000000000, 0.0000000000000000000, 0.0000000000000000000 ) ) ;
#39 = DIRECTION ( 'NONE',  ( 1.000000000000000000, 0.0000000000000000000, 0.0000000000000000000 ) ) ;
#40 = CARTESIAN_POINT ( 'NONE',  ( 3.857159805062494824E-17, 0.0000000000000000000, 0.3149609999999999910 ) ) ;
#41 = MECHANICAL_DESIGN_GEOMETRIC_PRESENTATION_REPRESENTATION (  '', ( #49 ), #164 ) ;
#42 = DIRECTION ( 'NONE',  ( 0.7071067811865502373, 8.659560562354966138E-17, -0.7071067811865446862 ) ) ;
#43 = AXIS2_PLACEMENT_3D ( 'NONE', #37, #133, #296 ) ;
#44 = EDGE_CURVE ( 'NONE', #236, #52, #151, .T. ) ;
#45 = CARTESIAN_POINT ( 'NONE',  ( 0.0000000000000000000, 0.0000000000000000000, 0.0000000000000000000 ) ) ;
#46 = ORIENTED_EDGE ( 'NONE', *, *, #229, .T. ) ;
#47 = CIRCLE ( 'NONE', #221, 0.07866126000000001062 ) ;
#48 = ORIENTED_EDGE ( 'NONE', *, *, #129, .T. ) ;
#49 = STYLED_ITEM ( 'NONE', ( #20 ), #281 ) ;
#50 = ORIENTED_EDGE ( 'NONE', *, *, #89, .F. ) ;
#51 = CARTESIAN_POINT ( 'NONE',  ( -0.07873999999999996280, 0.0000000000000000000, 0.3154075567304767125 ) ) ;
#52 = VERTEX_POINT ( 'NONE', #267 ) ;
#53 = EDGE_CURVE ( 'NONE', #52, #236, #200, .T. ) ;
#54 = ORIENTED_EDGE ( 'NONE', *, *, #89, .T. ) ;
#55 = CIRCLE ( 'NONE', #297, 0.07874000000000000443 ) ;
#56 = CARTESIAN_POINT ( 'NONE',  ( 0.06374000000000018540, 8.724383797125754882E-18, 1.968503999999999809 ) ) ;
#57 = FACE_OUTER_BOUND ( 'NONE', #28, .T. ) ;
#58 = DIRECTION ( 'NONE',  ( -0.0000000000000000000, -0.0000000000000000000, -1.000000000000000000 ) ) ;
#59 = SURFACE_STYLE_FILL_AREA ( #271 ) ;
#60 = CYLINDRICAL_SURFACE ( 'NONE', #233, 0.07866126000000001062 ) ;
#61 = DIRECTION ( 'NONE',  ( 1.224646799147353207E-16, 0.0000000000000000000, 1.000000000000000000 ) ) ;
#62 = DIRECTION ( 'NONE',  ( 1.224646799147353207E-16, 0.0000000000000000000, 1.000000000000000000 ) ) ;
#63 = FACE_OUTER_BOUND ( 'NONE', #114, .T. ) ;
#64 = DIRECTION ( 'NONE',  ( 0.0000000000000000000, 0.0000000000000000000, -1.000000000000000000 ) ) ;
#65 = ADVANCED_FACE ( 'NONE', ( #57 ), #144, .T. ) ;
#66 = ADVANCED_FACE ( 'NONE', ( #33 ), #223, .T. ) ;
#67 = AXIS2_PLACEMENT_3D ( 'NONE', #249, #198, #38 ) ;
#68 = DIRECTION ( 'NONE',  ( 0.0000000000000000000, 0.0000000000000000000, 1.000000000000000000 ) ) ;
#69 = APPLICATION_PROTOCOL_DEFINITION ( 'draft international standard', 'automotive_design', 1998, #90 ) ;
#70 = VERTEX_POINT ( 'NONE', #76 ) ;
#71 = ORIENTED_EDGE ( 'NONE', *, *, #261, .F. ) ;
#72 =( GEOMETRIC_REPRESENTATION_CONTEXT ( 3 ) GLOBAL_UNCERTAINTY_ASSIGNED_CONTEXT ( ( #136 ) ) GLOBAL_UNIT_ASSIGNED_CONTEXT ( ( #110, #157, #228 ) ) REPRESENTATION_CONTEXT ( 'NONE', 'WORKASPACE' ) );
#73 = ORIENTED_EDGE ( 'NONE', *, *, #44, .T. ) ;
#74 = VERTEX_POINT ( 'NONE', #147 ) ;
#75 = ORIENTED_EDGE ( 'NONE', *, *, #92, .F. ) ;
#76 = CARTESIAN_POINT ( 'NONE',  ( -0.06374000000000018540, 0.0000000000000000000, 1.968503999999999809 ) ) ;
#77 = AXIS2_PLACEMENT_3D ( 'NONE', #12, #84, #126 ) ;
#78 = DIRECTION ( 'NONE',  ( 1.000000000000000000, 0.0000000000000000000, 0.0000000000000000000 ) ) ;
#79 = DIRECTION ( 'NONE',  ( -1.000000000000000000, 0.0000000000000000000, 1.224646799147353207E-16 ) ) ;
#80 = DIRECTION ( 'NONE',  ( -1.000000000000000000, 0.0000000000000000000, 1.224646799147353207E-16 ) ) ;
#81 = CARTESIAN_POINT ( 'NONE',  ( 0.07866126000000001062, 9.633226027589773945E-18, -9.633226027589773945E-18 ) ) ;
#82 = CYLINDRICAL_SURFACE ( 'NONE', #153, 0.07874000000000000443 ) ;
#83 = DIRECTION ( 'NONE',  ( -1.000000000000000000, 0.0000000000000000000, 1.224646799147353207E-16 ) ) ;
#84 = DIRECTION ( 'NONE',  ( -1.224646799147353207E-16, -0.0000000000000000000, -1.000000000000000000 ) ) ;
#85 = VECTOR ( 'NONE', #226, 39.37007874015748143 ) ;
#86 = PRODUCT_DEFINITION_FORMATION_WITH_SPECIFIED_SOURCE ( 'ANY', '', #93, .NOT_KNOWN. ) ;
#87 = DIRECTION ( 'NONE',  ( -0.7071067811865502373, 0.0000000000000000000, -0.7071067811865446862 ) ) ;
#88 = DIRECTION ( 'NONE',  ( 1.000000000000000000, 0.0000000000000000000, 0.0000000000000000000 ) ) ;
#89 = EDGE_CURVE ( 'NONE', #70, #214, #106, .T. ) ;
#90 = APPLICATION_CONTEXT ( 'automotive_design' ) ;
#91 = AXIS2_PLACEMENT_3D ( 'NONE', #45, #68, #181 ) ;
#92 = EDGE_CURVE ( 'NONE', #236, #8, #176, .T. ) ;
#93 = PRODUCT ( 'Micro_GEMM-040-3', 'Micro_GEMM-040-3', '', ( #234 ) ) ;
#94 = AXIS2_PLACEMENT_3D ( 'NONE', #109, #199, #88 ) ;
#95 = EDGE_LOOP ( 'NONE', ( #183, #118, #284, #256 ) ) ;
#96 = ADVANCED_FACE ( 'NONE', ( #63 ), #82, .T. ) ;
#97 = ORIENTED_EDGE ( 'NONE', *, *, #177, .T. ) ;
#98 = ORIENTED_EDGE ( 'NONE', *, *, #206, .F. ) ;
#99 = EDGE_CURVE ( 'NONE', #146, #285, #127, .T. ) ;
#100 = ORIENTED_EDGE ( 'NONE', *, *, #115, .F. ) ;
#101 = DIRECTION ( 'NONE',  ( 0.0000000000000000000, 0.0000000000000000000, 1.000000000000000000 ) ) ;
#102 = LINE ( 'NONE', #81, #193 ) ;
#103 = DIRECTION ( 'NONE',  ( -1.224646799147353207E-16, -0.0000000000000000000, -1.000000000000000000 ) ) ;
#104 = CARTESIAN_POINT ( 'NONE',  ( -0.07866126000000001062, 0.0000000000000000000, 1.926645205517954789E-17 ) ) ;
#105 = CARTESIAN_POINT ( 'NONE',  ( 0.07866126000000002449, 0.0000000000000000000, 0.3149609999999999910 ) ) ;
#106 = LINE ( 'NONE', #195, #111 ) ;
#107 =( NAMED_UNIT ( * ) PLANE_ANGLE_UNIT ( ) SI_UNIT ( $, .RADIAN. ) );
#108 = CARTESIAN_POINT ( 'NONE',  ( 3.857159805062494824E-17, 0.0000000000000000000, 0.3149609999999999910 ) ) ;
#109 = CARTESIAN_POINT ( 'NONE',  ( 0.0000000000000000000, 0.0000000000000000000, 1.968503999999999809 ) ) ;
#110 =( CONVERSION_BASED_UNIT ( 'INCH', #275 ) LENGTH_UNIT ( ) NAMED_UNIT ( #294 ) );
#111 = VECTOR ( 'NONE', #87, 39.37007874015748854 ) ;
#112 = EDGE_CURVE ( 'NONE', #74, #8, #163, .T. ) ;
#113 = AXIS2_PLACEMENT_3D ( 'NONE', #149, #172, #224 ) ;
#114 = EDGE_LOOP ( 'NONE', ( #3, #97, #143, #100 ) ) ;
#115 = EDGE_CURVE ( 'NONE', #285, #146, #186, .T. ) ;
#116 = ORIENTED_EDGE ( 'NONE', *, *, #167, .F. ) ;
#117 = PRODUCT_DEFINITION_SHAPE ( 'NONE', 'NONE',  #253 ) ;
#118 = ORIENTED_EDGE ( 'NONE', *, *, #53, .T. ) ;
#119 = PRESENTATION_LAYER_ASSIGNMENT (  '', '', ( #2 ) ) ;
#120 = AXIS2_PLACEMENT_3D ( 'NONE', #244, #27, #78 ) ;
#121 = SURFACE_STYLE_FILL_AREA ( #30 ) ;
#122 = EDGE_LOOP ( 'NONE', ( #263, #166, #98, #50 ) ) ;
#123 = CARTESIAN_POINT ( 'NONE',  ( -0.07874000000000000443, 0.0000000000000000000, 1.968503999999999809 ) ) ;
#124 = DIRECTION ( 'NONE',  ( -1.224646799147353207E-16, -0.0000000000000000000, -1.000000000000000000 ) ) ;
#125 = DIRECTION ( 'NONE',  ( -1.224646799147353207E-16, -0.0000000000000000000, -1.000000000000000000 ) ) ;
#126 = DIRECTION ( 'NONE',  ( -1.000000000000000000, 0.0000000000000000000, 0.0000000000000000000 ) ) ;
#127 = CIRCLE ( 'NONE', #67, 0.07874000000000000443 ) ;
#128 = COLOUR_RGB ( '',0.7921568627450980005, 0.8196078431372548767, 0.9333333333333333481 ) ;
#129 = EDGE_CURVE ( 'NONE', #32, #285, #282, .T. ) ;
#130 = DIRECTION ( 'NONE',  ( -1.000000000000000000, 0.0000000000000000000, 0.0000000000000000000 ) ) ;
#131 = DIRECTION ( 'NONE',  ( -1.224646799147353207E-16, -0.0000000000000000000, -1.000000000000000000 ) ) ;
#132 = CARTESIAN_POINT ( 'NONE',  ( 1.179729942015078919E-33, 0.0000000000000000000, 9.633226027589773945E-18 ) ) ;
#133 = DIRECTION ( 'NONE',  ( 0.0000000000000000000, 0.0000000000000000000, 1.000000000000000000 ) ) ;
#134 = FACE_OUTER_BOUND ( 'NONE', #162, .T. ) ;
#135 = CIRCLE ( 'NONE', #43, 0.06374000000000018540 ) ;
#136 = UNCERTAINTY_MEASURE_WITH_UNIT (LENGTH_MEASURE( 1.000000000000000082E-05 ), #110, 'distance_accuracy_value', 'NONE');
#137 = AXIS2_PLACEMENT_3D ( 'NONE', #292, #131, #83 ) ;
#138 = VERTEX_POINT ( 'NONE', #56 ) ;
#139 = CONICAL_SURFACE ( 'NONE', #175, 0.07866125999999999674, 0.1745329251994338637 ) ;
#140 = LENGTH_MEASURE_WITH_UNIT ( LENGTH_MEASURE( 0.02539999999999999897 ), #23 );
#141 = PLANE ( 'NONE',  #113 ) ;
#142 = FILL_AREA_STYLE_COLOUR ( '', #161 ) ;
#143 = ORIENTED_EDGE ( 'NONE', *, *, #261, .T. ) ;
#144 = CONICAL_SURFACE ( 'NONE', #259, 0.07866125999999999674, 0.1745329251994338637 ) ;
#145 = LINE ( 'NONE', #262, #21 ) ;
#146 = VERTEX_POINT ( 'NONE', #51 ) ;
#147 = CARTESIAN_POINT ( 'NONE',  ( 0.07866126000000001062, 9.633226027589773945E-18, 0.0000000000000000000 ) ) ;
#148 = DIRECTION ( 'NONE',  ( -1.224646799147353207E-16, -0.0000000000000000000, -1.000000000000000000 ) ) ;
#149 = CARTESIAN_POINT ( 'NONE',  ( 0.0000000000000000000, 0.0000000000000000000, 1.968503999999999809 ) ) ;
#150 = DIRECTION ( 'NONE',  ( 1.000000000000000000, 0.0000000000000000000, 0.0000000000000000000 ) ) ;
#151 = CIRCLE ( 'NONE', #77, 0.07866125999999999674 ) ;
#152 = DIRECTION ( 'NONE',  ( -1.000000000000000000, 0.0000000000000000000, 0.0000000000000000000 ) ) ;
#153 = AXIS2_PLACEMENT_3D ( 'NONE', #270, #58, #152 ) ;
#154 = SURFACE_SIDE_STYLE ('',( #59 ) ) ;
#155 = DIRECTION ( 'NONE',  ( -1.000000000000000000, 0.0000000000000000000, 0.0000000000000000000 ) ) ;
#156 = DIRECTION ( 'NONE',  ( 1.000000000000000000, 0.0000000000000000000, 0.0000000000000000000 ) ) ;
#157 =( NAMED_UNIT ( * ) PLANE_ANGLE_UNIT ( ) SI_UNIT ( $, .RADIAN. ) );
#158 = AXIS2_PLACEMENT_3D ( 'NONE', #170, #298, #130 ) ;
#159 = EDGE_CURVE ( 'NONE', #236, #146, #145, .T. ) ;
#160 = ORIENTED_EDGE ( 'NONE', *, *, #99, .F. ) ;
#161 = COLOUR_RGB ( '',0.7921568627450980005, 0.8196078431372548767, 0.9333333333333333481 ) ;
#162 = EDGE_LOOP ( 'NONE', ( #260, #29 ) ) ;
#163 = CIRCLE ( 'NONE', #243, 0.07866126000000001062 ) ;
#164 =( GEOMETRIC_REPRESENTATION_CONTEXT ( 3 ) GLOBAL_UNCERTAINTY_ASSIGNED_CONTEXT ( ( #207 ) ) GLOBAL_UNIT_ASSIGNED_CONTEXT ( ( #238, #235, #257 ) ) REPRESENTATION_CONTEXT ( 'NONE', 'WORKASPACE' ) );
#165 = ORIENTED_EDGE ( 'NONE', *, *, #44, .F. ) ;
#166 = ORIENTED_EDGE ( 'NONE', *, *, #241, .T. ) ;
#167 = EDGE_CURVE ( 'NONE', #52, #285, #16, .T. ) ;
#168 = PRESENTATION_STYLE_ASSIGNMENT (( #216 ) ) ;
#169 = VECTOR ( 'NONE', #42, 39.37007874015748854 ) ;
#170 = CARTESIAN_POINT ( 'NONE',  ( 0.0000000000000000000, 0.0000000000000000000, 1.968503999999999809 ) ) ;
#171 = DIRECTION ( 'NONE',  ( 0.0000000000000000000, 0.0000000000000000000, -1.000000000000000000 ) ) ;
#172 = DIRECTION ( 'NONE',  ( 0.0000000000000000000, 0.0000000000000000000, 1.000000000000000000 ) ) ;
#173 = APPLICATION_PROTOCOL_DEFINITION ( 'draft international standard', 'automotive_design', 1998, #194 ) ;
#174 = CARTESIAN_POINT ( 'NONE',  ( -0.07874000000000000443, 0.0000000000000000000, 1.953504000000000129 ) ) ;
#175 = AXIS2_PLACEMENT_3D ( 'NONE', #34, #62, #156 ) ;
#176 = LINE ( 'NONE', #291, #19 ) ;
#177 = EDGE_CURVE ( 'NONE', #32, #214, #55, .T. ) ;
#178 = AXIS2_PLACEMENT_3D ( 'NONE', #197, #64, #39 ) ;
#179 = DIRECTION ( 'NONE',  ( -0.0000000000000000000, -0.0000000000000000000, -1.000000000000000000 ) ) ;
#180 = LINE ( 'NONE', #123, #273 ) ;
#181 = DIRECTION ( 'NONE',  ( 1.000000000000000000, 0.0000000000000000000, 0.0000000000000000000 ) ) ;
#182 = VECTOR ( 'NONE', #179, 39.37007874015748143 ) ;
#183 = ORIENTED_EDGE ( 'NONE', *, *, #295, .F. ) ;
#184 = EDGE_LOOP ( 'NONE', ( #279, #283, #54, #5 ) ) ;
#185 = ORIENTED_EDGE ( 'NONE', *, *, #115, .T. ) ;
#186 = CIRCLE ( 'NONE', #120, 0.07874000000000000443 ) ;
#187 = ORIENTED_EDGE ( 'NONE', *, *, #167, .T. ) ;
#188 = EDGE_LOOP ( 'NONE', ( #217, #265, #187, #185 ) ) ;
#189 = ADVANCED_FACE ( 'NONE', ( #218 ), #139, .T. ) ;
#190 = FACE_OUTER_BOUND ( 'NONE', #122, .T. ) ;
#191 =( LENGTH_UNIT ( ) NAMED_UNIT ( * ) SI_UNIT ( $, .METRE. ) );
#192 = CARTESIAN_POINT ( 'NONE',  ( -0.07866125999999995511, 9.638047462038014686E-18, 0.3149609999999999910 ) ) ;
#193 = VECTOR ( 'NONE', #148, 39.37007874015748143 ) ;
#194 = APPLICATION_CONTEXT ( 'automotive_design' ) ;
#195 = CARTESIAN_POINT ( 'NONE',  ( -0.06374000000000018540, 0.0000000000000000000, 1.968503999999999809 ) ) ;
#196 = FILL_AREA_STYLE_COLOUR ( '', #128 ) ;
#197 = CARTESIAN_POINT ( 'NONE',  ( 0.0000000000000000000, 0.0000000000000000000, 1.953504000000000129 ) ) ;
#198 = DIRECTION ( 'NONE',  ( -1.224646799147353207E-16, -0.0000000000000000000, -1.000000000000000000 ) ) ;
#199 = DIRECTION ( 'NONE',  ( 0.0000000000000000000, 0.0000000000000000000, 1.000000000000000000 ) ) ;
#200 = CIRCLE ( 'NONE', #237, 0.07866125999999999674 ) ;
#201 = CARTESIAN_POINT ( 'NONE',  ( 0.07874000000000000443, 9.642868896486258509E-18, 1.953504000000000129 ) ) ;
#202 = ADVANCED_FACE ( 'NONE', ( #290 ), #22, .T. ) ;
#203 = DIRECTION ( 'NONE',  ( -1.000000000000000000, 0.0000000000000000000, 0.0000000000000000000 ) ) ;
#204 = ADVANCED_FACE ( 'NONE', ( #248 ), #60, .T. ) ;
#205 = AXIS2_PLACEMENT_3D ( 'NONE', #287, #35, #254 ) ;
#206 = EDGE_CURVE ( 'NONE', #214, #32, #10, .T. ) ;
#207 = UNCERTAINTY_MEASURE_WITH_UNIT (LENGTH_MEASURE( 1.000000000000000082E-05 ), #238, 'distance_accuracy_value', 'NONE');
#208 = SHAPE_DEFINITION_REPRESENTATION ( #117, #281 ) ;
#209 = MECHANICAL_DESIGN_GEOMETRIC_PRESENTATION_REPRESENTATION (  '', ( #2 ), #72 ) ;
#210 = ADVANCED_FACE ( 'NONE', ( #220 ), #9, .T. ) ;
#211 = PRESENTATION_LAYER_ASSIGNMENT (  '', '', ( #49 ) ) ;
#212 = ORIENTED_EDGE ( 'NONE', *, *, #295, .T. ) ;
#213 = ORIENTED_EDGE ( 'NONE', *, *, #159, .T. ) ;
#214 = VERTEX_POINT ( 'NONE', #174 ) ;
#215 = EDGE_CURVE ( 'NONE', #70, #138, #135, .T. ) ;
#216 = SURFACE_STYLE_USAGE ( .BOTH. , #280 ) ;
#217 = ORIENTED_EDGE ( 'NONE', *, *, #159, .F. ) ;
#218 = FACE_OUTER_BOUND ( 'NONE', #188, .T. ) ;
#219 =( LENGTH_UNIT ( ) NAMED_UNIT ( * ) SI_UNIT ( $, .METRE. ) );
#220 = FACE_OUTER_BOUND ( 'NONE', #95, .T. ) ;
#221 = AXIS2_PLACEMENT_3D ( 'NONE', #272, #103, #299 ) ;
#222 = DIMENSIONAL_EXPONENTS ( 1.000000000000000000, 0.0000000000000000000, 0.0000000000000000000, 0.0000000000000000000, 0.0000000000000000000, 0.0000000000000000000, 0.0000000000000000000 ) ;
#223 = CYLINDRICAL_SURFACE ( 'NONE', #158, 0.07874000000000000443 ) ;
#224 = DIRECTION ( 'NONE',  ( 1.000000000000000000, 0.0000000000000000000, -0.0000000000000000000 ) ) ;
#225 = DIRECTION ( 'NONE',  ( -0.0000000000000000000, -0.0000000000000000000, -1.000000000000000000 ) ) ;
#226 = DIRECTION ( 'NONE',  ( 0.1736481776669313581, 0.0000000000000000000, 0.9848077530122077983 ) ) ;
#227 = AXIS2_PLACEMENT_3D ( 'NONE', #269, #276, #203 ) ;
#228 =( NAMED_UNIT ( * ) SI_UNIT ( $, .STERADIAN. ) SOLID_ANGLE_UNIT ( ) );
#229 = EDGE_CURVE ( 'NONE', #8, #74, #47, .T. ) ;
#230 = EDGE_CURVE ( 'NONE', #138, #70, #31, .T. ) ;
#231 = CARTESIAN_POINT ( 'NONE',  ( 0.06374000000000018540, 7.805898697765251255E-18, 1.968503999999999809 ) ) ;
#232 =( CONVERSION_BASED_UNIT ( 'INCH', #268 ) LENGTH_UNIT ( ) NAMED_UNIT ( #264 ) );
#233 = AXIS2_PLACEMENT_3D ( 'NONE', #36, #125, #79 ) ;
#234 = PRODUCT_CONTEXT ( 'NONE', #194, 'mechanical' ) ;
#235 =( NAMED_UNIT ( * ) PLANE_ANGLE_UNIT ( ) SI_UNIT ( $, .RADIAN. ) );
#236 = VERTEX_POINT ( 'NONE', #192 ) ;
#237 = AXIS2_PLACEMENT_3D ( 'NONE', #40, #274, #155 ) ;
#238 =( CONVERSION_BASED_UNIT ( 'INCH', #140 ) LENGTH_UNIT ( ) NAMED_UNIT ( #222 ) );
#239 = ORIENTED_EDGE ( 'NONE', *, *, #112, .T. ) ;
#240 = ORIENTED_EDGE ( 'NONE', *, *, #229, .F. ) ;
#241 = EDGE_CURVE ( 'NONE', #138, #32, #289, .T. ) ;
#242 = EDGE_LOOP ( 'NONE', ( #258, #48, #160, #71 ) ) ;
#243 = AXIS2_PLACEMENT_3D ( 'NONE', #132, #277, #80 ) ;
#244 = CARTESIAN_POINT ( 'NONE',  ( 3.862628547768655706E-17, 0.0000000000000000000, 0.3154075567304767125 ) ) ;
#245 = EDGE_LOOP ( 'NONE', ( #46, #239 ) ) ;
#246 = FACE_OUTER_BOUND ( 'NONE', #245, .T. ) ;
#247 = CARTESIAN_POINT ( 'NONE',  ( 0.0000000000000000000, 0.0000000000000000000, 0.0000000000000000000 ) ) ;
#248 = FACE_OUTER_BOUND ( 'NONE', #4, .T. ) ;
#249 = CARTESIAN_POINT ( 'NONE',  ( 3.862628547768655706E-17, 0.0000000000000000000, 0.3154075567304767125 ) ) ;
#250 = SURFACE_STYLE_USAGE ( .BOTH. , #154 ) ;
#251 = DIRECTION ( 'NONE',  ( 1.000000000000000000, 0.0000000000000000000, 0.0000000000000000000 ) ) ;
#252 = CARTESIAN_POINT ( 'NONE',  ( 0.07874000000000000443, 9.642868896486258509E-18, 1.968503999999999809 ) ) ;
#253 = PRODUCT_DEFINITION ( 'UNKNOWN', '', #86, #24 ) ;
#254 = DIRECTION ( 'NONE',  ( -1.000000000000000000, 0.0000000000000000000, 0.0000000000000000000 ) ) ;
#255 =( NAMED_UNIT ( * ) SI_UNIT ( $, .STERADIAN. ) SOLID_ANGLE_UNIT ( ) );
#256 = ORIENTED_EDGE ( 'NONE', *, *, #112, .F. ) ;
#257 =( NAMED_UNIT ( * ) SI_UNIT ( $, .STERADIAN. ) SOLID_ANGLE_UNIT ( ) );
#258 = ORIENTED_EDGE ( 'NONE', *, *, #206, .T. ) ;
#259 = AXIS2_PLACEMENT_3D ( 'NONE', #108, #61, #251 ) ;
#260 = ORIENTED_EDGE ( 'NONE', *, *, #215, .T. ) ;
#261 = EDGE_CURVE ( 'NONE', #214, #146, #180, .T. ) ;
#262 = CARTESIAN_POINT ( 'NONE',  ( -0.07866125999999995511, 9.633226027589770864E-18, 0.3149609999999999910 ) ) ;
#263 = ORIENTED_EDGE ( 'NONE', *, *, #230, .F. ) ;
#264 = DIMENSIONAL_EXPONENTS ( 1.000000000000000000, 0.0000000000000000000, 0.0000000000000000000, 0.0000000000000000000, 0.0000000000000000000, 0.0000000000000000000, 0.0000000000000000000 ) ;
#265 = ORIENTED_EDGE ( 'NONE', *, *, #53, .F. ) ;
#266 =( GEOMETRIC_REPRESENTATION_CONTEXT ( 3 ) GLOBAL_UNCERTAINTY_ASSIGNED_CONTEXT ( ( #278 ) ) GLOBAL_UNIT_ASSIGNED_CONTEXT ( ( #232, #107, #255 ) ) REPRESENTATION_CONTEXT ( 'NONE', 'WORKASPACE' ) );
#267 = CARTESIAN_POINT ( 'NONE',  ( 0.07866126000000002449, 0.0000000000000000000, 0.3149609999999999910 ) ) ;
#268 = LENGTH_MEASURE_WITH_UNIT ( LENGTH_MEASURE( 0.02539999999999999897 ), #191 );
#269 = CARTESIAN_POINT ( 'NONE',  ( 0.0000000000000000000, 0.0000000000000000000, 1.968503999999999809 ) ) ;
#270 = CARTESIAN_POINT ( 'NONE',  ( 0.0000000000000000000, 0.0000000000000000000, 1.968503999999999809 ) ) ;
#271 = FILL_AREA_STYLE ('',( #196 ) ) ;
#272 = CARTESIAN_POINT ( 'NONE',  ( 1.179729942015078919E-33, 0.0000000000000000000, 9.633226027589773945E-18 ) ) ;
#273 = VECTOR ( 'NONE', #225, 39.37007874015748143 ) ;
#274 = DIRECTION ( 'NONE',  ( -1.224646799147353207E-16, -0.0000000000000000000, -1.000000000000000000 ) ) ;
#275 = LENGTH_MEASURE_WITH_UNIT ( LENGTH_MEASURE( 0.02539999999999999897 ), #219 );
#276 = DIRECTION ( 'NONE',  ( 0.0000000000000000000, 0.0000000000000000000, -1.000000000000000000 ) ) ;
#277 = DIRECTION ( 'NONE',  ( -1.224646799147353207E-16, -0.0000000000000000000, -1.000000000000000000 ) ) ;
#278 = UNCERTAINTY_MEASURE_WITH_UNIT (LENGTH_MEASURE( 1.000000000000000082E-05 ), #232, 'distance_accuracy_value', 'NONE');
#279 = ORIENTED_EDGE ( 'NONE', *, *, #241, .F. ) ;
#280 = SURFACE_SIDE_STYLE ('',( #121 ) ) ;
#281 = ADVANCED_BREP_SHAPE_REPRESENTATION ( 'Micro_GEMM-040-3', ( #6, #91 ), #266 ) ;
#282 = LINE ( 'NONE', #252, #182 ) ;
#283 = ORIENTED_EDGE ( 'NONE', *, *, #215, .F. ) ;
#284 = ORIENTED_EDGE ( 'NONE', *, *, #92, .T. ) ;
#285 = VERTEX_POINT ( 'NONE', #286 ) ;
#286 = CARTESIAN_POINT ( 'NONE',  ( 0.07874000000000003219, 9.642868896486263131E-18, 0.3154075567304767125 ) ) ;
#287 = CARTESIAN_POINT ( 'NONE',  ( 0.0000000000000000000, 0.0000000000000000000, 1.968503999999999809 ) ) ;
#288 = AXIS2_PLACEMENT_3D ( 'NONE', #247, #101, #17 ) ;
#289 = LINE ( 'NONE', #231, #169 ) ;
#290 = FACE_OUTER_BOUND ( 'NONE', #184, .T. ) ;
#291 = CARTESIAN_POINT ( 'NONE',  ( -0.07866126000000001062, 0.0000000000000000000, 9.633226027589773945E-18 ) ) ;
#292 = CARTESIAN_POINT ( 'NONE',  ( 0.0000000000000000000, 0.0000000000000000000, 0.0000000000000000000 ) ) ;
#293 = PRODUCT_RELATED_PRODUCT_CATEGORY ( 'part', '', ( #93 ) ) ;
#294 = DIMENSIONAL_EXPONENTS ( 1.000000000000000000, 0.0000000000000000000, 0.0000000000000000000, 0.0000000000000000000, 0.0000000000000000000, 0.0000000000000000000, 0.0000000000000000000 ) ;
#295 = EDGE_CURVE ( 'NONE', #52, #74, #102, .T. ) ;
#296 = DIRECTION ( 'NONE',  ( 1.000000000000000000, 0.0000000000000000000, 0.0000000000000000000 ) ) ;
#297 = AXIS2_PLACEMENT_3D ( 'NONE', #18, #171, #150 ) ;
#298 = DIRECTION ( 'NONE',  ( -0.0000000000000000000, -0.0000000000000000000, -1.000000000000000000 ) ) ;
#299 = DIRECTION ( 'NONE',  ( -1.000000000000000000, 0.0000000000000000000, 1.224646799147353207E-16 ) ) ;
ENDSEC;
END-ISO-10303-21;
