ISO-10303-21;
HEADER;
FILE_DESCRIPTION (( 'STEP AP214' ),
    '1' );
FILE_NAME ('Micro_SBMM-040-232X.STEP',
    '2021-09-02T17:09:46',
    ( '' ),
    ( '' ),
    'SwSTEP 2.0',
    'SolidWorks 2020',
    '' );
FILE_SCHEMA (( 'AUTOMOTIVE_DESIGN' ));
ENDSEC;

DATA;
#1 = FACE_OUTER_BOUND ( 'NONE', #203, .T. ) ;
#2 = ORIENTED_EDGE ( 'NONE', *, *, #41, .F. ) ;
#3 = DIRECTION ( 'NONE',  ( 1.000000000000000000, 0.0000000000000000000, 0.0000000000000000000 ) ) ;
#4 = CARTESIAN_POINT ( 'NONE',  ( 0.0000000000000000000, 0.0000000000000000000, 3.937007999999999619 ) ) ;
#5 = CARTESIAN_POINT ( 'NONE',  ( 0.1181100000000000344, 1.446430334472939084E-17, 1.732282999999999795 ) ) ;
#6 = CARTESIAN_POINT ( 'NONE',  ( 0.0000000000000000000, 0.0000000000000000000, 3.922007999999999939 ) ) ;
#7 = STYLED_ITEM ( 'NONE', ( #101 ), #141 ) ;
#8 = LINE ( 'NONE', #332, #261 ) ;
#9 = CARTESIAN_POINT ( 'NONE',  ( 0.0000000000000000000, 0.0000000000000000000, 1.259842999999999824 ) ) ;
#10 =( LENGTH_UNIT ( ) NAMED_UNIT ( * ) SI_UNIT ( $, .METRE. ) );
#11 = DIRECTION ( 'NONE',  ( -0.0000000000000000000, -0.0000000000000000000, -1.000000000000000000 ) ) ;
#12 = EDGE_CURVE ( 'NONE', #181, #260, #30, .T. ) ;
#13 = CARTESIAN_POINT ( 'NONE',  ( 0.05314949999999991903, 6.508936505128214479E-18, 0.0000000000000000000 ) ) ;
#14 = ORIENTED_EDGE ( 'NONE', *, *, #88, .F. ) ;
#15 = CONICAL_SURFACE ( 'NONE', #156, 0.1031100000000005484, 0.7853981633974410625 ) ;
#16 = ADVANCED_FACE ( 'NONE', ( #215 ), #266, .T. ) ;
#17 = AXIS2_PLACEMENT_3D ( 'NONE', #79, #82, #73 ) ;
#18 = MECHANICAL_DESIGN_GEOMETRIC_PRESENTATION_REPRESENTATION (  '', ( #7 ), #139 ) ;
#19 = CARTESIAN_POINT ( 'NONE',  ( 0.1031100000000005484, 1.262733314600842673E-17, 3.937007999999999619 ) ) ;
#20 = ORIENTED_EDGE ( 'NONE', *, *, #289, .T. ) ;
#21 = DIRECTION ( 'NONE',  ( -1.000000000000000000, 0.0000000000000000000, 0.0000000000000000000 ) ) ;
#22 = EDGE_LOOP ( 'NONE', ( #226, #286, #162, #128 ) ) ;
#23 = ORIENTED_EDGE ( 'NONE', *, *, #98, .F. ) ;
#24 = PRODUCT_RELATED_PRODUCT_CATEGORY ( 'part', '', ( #173 ) ) ;
#25 = VECTOR ( 'NONE', #96, 39.37007874015748143 ) ;
#26 = VERTEX_POINT ( 'NONE', #159 ) ;
#27 = DIRECTION ( 'NONE',  ( -0.7071067811865422437, 0.0000000000000000000, -0.7071067811865526798 ) ) ;
#28 = DIRECTION ( 'NONE',  ( 0.0000000000000000000, 0.0000000000000000000, 1.000000000000000000 ) ) ;
#29 = PLANE ( 'NONE',  #119 ) ;
#30 = LINE ( 'NONE', #262, #81 ) ;
#31 = EDGE_LOOP ( 'NONE', ( #97, #345, #252, #14 ) ) ;
#32 = DIRECTION ( 'NONE',  ( 0.0000000000000000000, 0.0000000000000000000, -1.000000000000000000 ) ) ;
#33 = CONICAL_SURFACE ( 'NONE', #136, 0.1031100000000005484, 0.7853981633974410625 ) ;
#34 =( NAMED_UNIT ( * ) PLANE_ANGLE_UNIT ( ) SI_UNIT ( $, .RADIAN. ) );
#35 = DIRECTION ( 'NONE',  ( -0.0000000000000000000, -0.0000000000000000000, -1.000000000000000000 ) ) ;
#36 =( CONVERSION_BASED_UNIT ( 'INCH', #196 ) LENGTH_UNIT ( ) NAMED_UNIT ( #193 ) );
#37 = CIRCLE ( 'NONE', #63, 0.05314949999999998842 ) ;
#38 = LINE ( 'NONE', #114, #328 ) ;
#39 = LINE ( 'NONE', #308, #25 ) ;
#40 = ORIENTED_EDGE ( 'NONE', *, *, #254, .F. ) ;
#41 = EDGE_CURVE ( 'NONE', #187, #135, #326, .T. ) ;
#42 = ORIENTED_EDGE ( 'NONE', *, *, #155, .T. ) ;
#43 = CIRCLE ( 'NONE', #267, 0.1181100000000000344 ) ;
#44 = DIRECTION ( 'NONE',  ( 1.000000000000000000, 0.0000000000000000000, 0.0000000000000000000 ) ) ;
#45 = VERTEX_POINT ( 'NONE', #5 ) ;
#46 = CARTESIAN_POINT ( 'NONE',  ( 0.0000000000000000000, 0.0000000000000000000, 1.732282999999999795 ) ) ;
#47 = ORIENTED_EDGE ( 'NONE', *, *, #333, .T. ) ;
#48 = DIRECTION ( 'NONE',  ( -1.000000000000000000, 0.0000000000000000000, 0.0000000000000000000 ) ) ;
#49 = EDGE_CURVE ( 'NONE', #134, #181, #43, .T. ) ;
#50 = CONICAL_SURFACE ( 'NONE', #76, 0.1299209999999997867, 0.1366431624910874332 ) ;
#51 = AXIS2_PLACEMENT_3D ( 'NONE', #133, #56, #243 ) ;
#52 = CARTESIAN_POINT ( 'NONE',  ( 0.0000000000000000000, 0.0000000000000000000, 3.937007999999999619 ) ) ;
#53 = CARTESIAN_POINT ( 'NONE',  ( 0.0000000000000000000, 0.0000000000000000000, 3.937007999999999619 ) ) ;
#54 = DIRECTION ( 'NONE',  ( 0.0000000000000000000, 1.000000000000000000, 0.0000000000000000000 ) ) ;
#55 = LENGTH_MEASURE_WITH_UNIT ( LENGTH_MEASURE( 0.02539999999999999897 ), #318 );
#56 = DIRECTION ( 'NONE',  ( -0.0000000000000000000, -0.0000000000000000000, -1.000000000000000000 ) ) ;
#57 = DIRECTION ( 'NONE',  ( -0.0000000000000000000, -0.0000000000000000000, -1.000000000000000000 ) ) ;
#58 = AXIS2_PLACEMENT_3D ( 'NONE', #250, #11, #84 ) ;
#59 = FACE_OUTER_BOUND ( 'NONE', #258, .T. ) ;
#60 = ADVANCED_FACE ( 'NONE', ( #317 ), #29, .T. ) ;
#61 = FILL_AREA_STYLE_COLOUR ( '', #300 ) ;
#62 = DIRECTION ( 'NONE',  ( 0.0000000000000000000, 0.0000000000000000000, 1.000000000000000000 ) ) ;
#63 = AXIS2_PLACEMENT_3D ( 'NONE', #169, #271, #110 ) ;
#64 = CARTESIAN_POINT ( 'NONE',  ( 0.0000000000000000000, 0.0000000000000000000, 3.937007999999999619 ) ) ;
#65 = ORIENTED_EDGE ( 'NONE', *, *, #277, .F. ) ;
#66 = CARTESIAN_POINT ( 'NONE',  ( -0.1181100000000000344, 0.0000000000000000000, 1.732282999999999795 ) ) ;
#67 = ORIENTED_EDGE ( 'NONE', *, *, #336, .F. ) ;
#68 = CARTESIAN_POINT ( 'NONE',  ( -0.1031100000000005484, 0.0000000000000000000, 3.937007999999999619 ) ) ;
#69 = VERTEX_POINT ( 'NONE', #265 ) ;
#70 = SURFACE_STYLE_USAGE ( .BOTH. , #278 ) ;
#71 = DIRECTION ( 'NONE',  ( 1.000000000000000000, 1.224646799147353207E-16, -0.0000000000000000000 ) ) ;
#72 = EDGE_LOOP ( 'NONE', ( #124, #151, #205, #100, #94 ) ) ;
#73 = DIRECTION ( 'NONE',  ( 1.000000000000000000, 0.0000000000000000000, 0.0000000000000000000 ) ) ;
#74 = CIRCLE ( 'NONE', #58, 0.05314949999999998842 ) ;
#75 =( NAMED_UNIT ( * ) SI_UNIT ( $, .STERADIAN. ) SOLID_ANGLE_UNIT ( ) );
#76 = AXIS2_PLACEMENT_3D ( 'NONE', #89, #62, #144 ) ;
#77 = DIRECTION ( 'NONE',  ( -1.000000000000000000, 0.0000000000000000000, 0.0000000000000000000 ) ) ;
#78 = SPHERICAL_SURFACE ( 'NONE', #171, 0.07873999999999999055 ) ;
#79 = CARTESIAN_POINT ( 'NONE',  ( 0.0000000000000000000, 0.0000000000000000000, 1.818181181818179670 ) ) ;
#80 = ADVANCED_FACE ( 'NONE', ( #1 ), #157, .T. ) ;
#81 = VECTOR ( 'NONE', #57, 39.37007874015748143 ) ;
#82 = DIRECTION ( 'NONE',  ( 0.0000000000000000000, 0.0000000000000000000, 1.000000000000000000 ) ) ;
#83 = AXIS2_PLACEMENT_3D ( 'NONE', #256, #147, #186 ) ;
#84 = DIRECTION ( 'NONE',  ( -1.000000000000000000, 0.0000000000000000000, 0.0000000000000000000 ) ) ;
#85 = UNCERTAINTY_MEASURE_WITH_UNIT (LENGTH_MEASURE( 1.000000000000000082E-05 ), #129, 'distance_accuracy_value', 'NONE');
#86 = DIRECTION ( 'NONE',  ( 0.1362183404787285501, 0.0000000000000000000, 0.9906788398452957001 ) ) ;
#87 = SPHERICAL_SURFACE ( 'NONE', #92, 0.07873999999999999055 ) ;
#88 = EDGE_CURVE ( 'NONE', #26, #279, #321, .T. ) ;
#89 = CARTESIAN_POINT ( 'NONE',  ( 0.0000000000000000000, 0.0000000000000000000, 1.818181181818179670 ) ) ;
#90 = DIRECTION ( 'NONE',  ( 0.0000000000000000000, 0.0000000000000000000, -1.000000000000000000 ) ) ;
#91 = DIRECTION ( 'NONE',  ( -0.0000000000000000000, -0.0000000000000000000, -1.000000000000000000 ) ) ;
#92 = AXIS2_PLACEMENT_3D ( 'NONE', #140, #138, #174 ) ;
#93 = DIRECTION ( 'NONE',  ( 0.0000000000000000000, 0.0000000000000000000, 1.000000000000000000 ) ) ;
#94 = ORIENTED_EDGE ( 'NONE', *, *, #116, .F. ) ;
#95 = ORIENTED_EDGE ( 'NONE', *, *, #113, .F. ) ;
#96 = DIRECTION ( 'NONE',  ( -0.1362183404787285501, 1.668193546524392655E-17, 0.9906788398452957001 ) ) ;
#97 = ORIENTED_EDGE ( 'NONE', *, *, #231, .T. ) ;
#98 = EDGE_CURVE ( 'NONE', #309, #181, #188, .T. ) ;
#99 = CARTESIAN_POINT ( 'NONE',  ( 0.0000000000000000000, 4.821434448243128484E-18, 1.707404996040164512E-17 ) ) ;
#100 = ORIENTED_EDGE ( 'NONE', *, *, #289, .F. ) ;
#101 = PRESENTATION_STYLE_ASSIGNMENT (( #70 ) ) ;
#102 = DIRECTION ( 'NONE',  ( 0.0000000000000000000, 0.0000000000000000000, 1.000000000000000000 ) ) ;
#103 = DIRECTION ( 'NONE',  ( -1.000000000000000000, 0.0000000000000000000, 0.0000000000000000000 ) ) ;
#104 = DIRECTION ( 'NONE',  ( -0.0000000000000000000, -0.0000000000000000000, -1.000000000000000000 ) ) ;
#105 = DIRECTION ( 'NONE',  ( 1.000000000000000000, 0.0000000000000000000, -0.0000000000000000000 ) ) ;
#106 = ORIENTED_EDGE ( 'NONE', *, *, #12, .F. ) ;
#107 = ORIENTED_EDGE ( 'NONE', *, *, #264, .F. ) ;
#108 = CIRCLE ( 'NONE', #120, 0.07873999999999999055 ) ;
#109 = APPLICATION_CONTEXT ( 'automotive_design' ) ;
#110 = DIRECTION ( 'NONE',  ( -1.000000000000000000, 0.0000000000000000000, 0.0000000000000000000 ) ) ;
#111 = ADVANCED_FACE ( 'NONE', ( #295 ), #287, .T. ) ;
#112 = DIMENSIONAL_EXPONENTS ( 1.000000000000000000, 0.0000000000000000000, 0.0000000000000000000, 0.0000000000000000000, 0.0000000000000000000, 0.0000000000000000000, 0.0000000000000000000 ) ;
#113 = EDGE_CURVE ( 'NONE', #69, #309, #313, .T. ) ;
#114 = CARTESIAN_POINT ( 'NONE',  ( 0.1299209999999997867, 0.0000000000000000000, 1.818181181818179670 ) ) ;
#115 = AXIS2_PLACEMENT_3D ( 'NONE', #52, #130, #103 ) ;
#116 = EDGE_CURVE ( 'NONE', #187, #149, #239, .T. ) ;
#117 = CARTESIAN_POINT ( 'NONE',  ( 0.0000000000000000000, 0.0000000000000000000, 0.1368357679160022988 ) ) ;
#118 = ORIENTED_EDGE ( 'NONE', *, *, #179, .F. ) ;
#119 = AXIS2_PLACEMENT_3D ( 'NONE', #4, #324, #105 ) ;
#120 = AXIS2_PLACEMENT_3D ( 'NONE', #184, #71, #229 ) ;
#121 =( NAMED_UNIT ( * ) PLANE_ANGLE_UNIT ( ) SI_UNIT ( $, .RADIAN. ) );
#122 = ORIENTED_EDGE ( 'NONE', *, *, #336, .T. ) ;
#123 = DIRECTION ( 'NONE',  ( 1.000000000000000000, 0.0000000000000000000, 0.0000000000000000000 ) ) ;
#124 = ORIENTED_EDGE ( 'NONE', *, *, #41, .T. ) ;
#125 = CARTESIAN_POINT ( 'NONE',  ( 0.0000000000000000000, 0.0000000000000000000, 0.0000000000000000000 ) ) ;
#126 = ORIENTED_EDGE ( 'NONE', *, *, #237, .F. ) ;
#127 =( GEOMETRIC_REPRESENTATION_CONTEXT ( 3 ) GLOBAL_UNCERTAINTY_ASSIGNED_CONTEXT ( ( #270 ) ) GLOBAL_UNIT_ASSIGNED_CONTEXT ( ( #36, #34, #329 ) ) REPRESENTATION_CONTEXT ( 'NONE', 'WORKASPACE' ) );
#128 = ORIENTED_EDGE ( 'NONE', *, *, #334, .T. ) ;
#129 =( CONVERSION_BASED_UNIT ( 'INCH', #55 ) LENGTH_UNIT ( ) NAMED_UNIT ( #112 ) );
#130 = DIRECTION ( 'NONE',  ( -0.0000000000000000000, -0.0000000000000000000, -1.000000000000000000 ) ) ;
#131 = DIRECTION ( 'NONE',  ( 1.000000000000000000, 0.0000000000000000000, 0.0000000000000000000 ) ) ;
#132 = ADVANCED_FACE ( 'NONE', ( #213 ), #78, .T. ) ;
#133 = CARTESIAN_POINT ( 'NONE',  ( 0.0000000000000000000, 0.0000000000000000000, 1.259842999999999824 ) ) ;
#134 = VERTEX_POINT ( 'NONE', #323 ) ;
#135 = VERTEX_POINT ( 'NONE', #293 ) ;
#136 = AXIS2_PLACEMENT_3D ( 'NONE', #175, #90, #246 ) ;
#137 = VECTOR ( 'NONE', #27, 39.37007874015748854 ) ;
#138 = DIRECTION ( 'NONE',  ( 1.000000000000000000, 0.0000000000000000000, 0.0000000000000000000 ) ) ;
#139 =( GEOMETRIC_REPRESENTATION_CONTEXT ( 3 ) GLOBAL_UNCERTAINTY_ASSIGNED_CONTEXT ( ( #85 ) ) GLOBAL_UNIT_ASSIGNED_CONTEXT ( ( #129, #316, #75 ) ) REPRESENTATION_CONTEXT ( 'NONE', 'WORKASPACE' ) );
#140 = CARTESIAN_POINT ( 'NONE',  ( 0.0000000000000000000, 0.0000000000000000000, 0.07874000000000000443 ) ) ;
#141 = ADVANCED_BREP_SHAPE_REPRESENTATION ( 'Micro_SBMM-040-232X', ( #176, #338 ), #223 ) ;
#142 = CYLINDRICAL_SURFACE ( 'NONE', #272, 0.1181100000000000344 ) ;
#143 = CIRCLE ( 'NONE', #158, 0.05314949999999998842 ) ;
#144 = DIRECTION ( 'NONE',  ( 1.000000000000000000, 0.0000000000000000000, 0.0000000000000000000 ) ) ;
#145 =( CONVERSION_BASED_UNIT ( 'INCH', #182 ) LENGTH_UNIT ( ) NAMED_UNIT ( #245 ) );
#146 = ORIENTED_EDGE ( 'NONE', *, *, #254, .T. ) ;
#147 = DIRECTION ( 'NONE',  ( 0.0000000000000000000, 0.0000000000000000000, 1.000000000000000000 ) ) ;
#148 = AXIS2_PLACEMENT_3D ( 'NONE', #125, #91, #222 ) ;
#149 = VERTEX_POINT ( 'NONE', #166 ) ;
#150 = CYLINDRICAL_SURFACE ( 'NONE', #148, 0.05314949999999991903 ) ;
#151 = ORIENTED_EDGE ( 'NONE', *, *, #264, .T. ) ;
#152 = FILL_AREA_STYLE_COLOUR ( '', #344 ) ;
#153 = APPLICATION_PROTOCOL_DEFINITION ( 'draft international standard', 'automotive_design', 1998, #109 ) ;
#154 = ORIENTED_EDGE ( 'NONE', *, *, #179, .T. ) ;
#155 = EDGE_CURVE ( 'NONE', #181, #134, #305, .T. ) ;
#156 = AXIS2_PLACEMENT_3D ( 'NONE', #64, #310, #21 ) ;
#157 = CONICAL_SURFACE ( 'NONE', #17, 0.1299209999999997867, 0.1366431624910874332 ) ;
#158 = AXIS2_PLACEMENT_3D ( 'NONE', #180, #343, #280 ) ;
#159 = CARTESIAN_POINT ( 'NONE',  ( 0.0000000000000000000, 0.05314949999999997454, 0.1368357679160022988 ) ) ;
#160 = CARTESIAN_POINT ( 'NONE',  ( 0.0000000000000000000, 0.0000000000000000000, 0.0000000000000000000 ) ) ;
#161 = CARTESIAN_POINT ( 'NONE',  ( 0.0000000000000000000, 0.0000000000000000000, 0.0000000000000000000 ) ) ;
#162 = ORIENTED_EDGE ( 'NONE', *, *, #12, .T. ) ;
#163 = APPLICATION_PROTOCOL_DEFINITION ( 'draft international standard', 'automotive_design', 1998, #307 ) ;
#164 = ADVANCED_FACE ( 'NONE', ( #218 ), #87, .T. ) ;
#165 = AXIS2_PLACEMENT_3D ( 'NONE', #190, #320, #192 ) ;
#166 = CARTESIAN_POINT ( 'NONE',  ( -0.05314949999999998842, 0.0000000000000000000, 0.1368357679160022988 ) ) ;
#167 = ADVANCED_FACE ( 'NONE', ( #276 ), #142, .T. ) ;
#168 = CARTESIAN_POINT ( 'NONE',  ( -0.1031100000000005484, 0.0000000000000000000, 3.937007999999999619 ) ) ;
#169 = CARTESIAN_POINT ( 'NONE',  ( 0.0000000000000000000, 0.0000000000000000000, 0.1368357679160022988 ) ) ;
#170 = MECHANICAL_DESIGN_GEOMETRIC_PRESENTATION_REPRESENTATION (  '', ( #235 ), #127 ) ;
#171 = AXIS2_PLACEMENT_3D ( 'NONE', #268, #291, #54 ) ;
#172 = SURFACE_SIDE_STYLE ('',( #302 ) ) ;
#173 = PRODUCT ( 'Micro_SBMM-040-232X', 'Micro_SBMM-040-232X', '', ( #209 ) ) ;
#174 = DIRECTION ( 'NONE',  ( 0.0000000000000000000, 1.000000000000000000, 0.0000000000000000000 ) ) ;
#175 = CARTESIAN_POINT ( 'NONE',  ( 0.0000000000000000000, 0.0000000000000000000, 3.937007999999999619 ) ) ;
#176 = MANIFOLD_SOLID_BREP ( 'Cut-Revolve3', #234 ) ;
#177 = CIRCLE ( 'NONE', #227, 0.1181100000000000344 ) ;
#178 = VERTEX_POINT ( 'NONE', #335 ) ;
#179 = EDGE_CURVE ( 'NONE', #135, #187, #319, .T. ) ;
#180 = CARTESIAN_POINT ( 'NONE',  ( 0.0000000000000000000, 0.0000000000000000000, 0.1368357679160022988 ) ) ;
#181 = VERTEX_POINT ( 'NONE', #303 ) ;
#182 = LENGTH_MEASURE_WITH_UNIT ( LENGTH_MEASURE( 0.02539999999999999897 ), #204 );
#183 = EDGE_LOOP ( 'NONE', ( #230, #284 ) ) ;
#184 = CARTESIAN_POINT ( 'NONE',  ( 0.0000000000000000000, 0.0000000000000000000, 0.07874000000000000443 ) ) ;
#185 = EDGE_LOOP ( 'NONE', ( #95, #283, #238, #23 ) ) ;
#186 = DIRECTION ( 'NONE',  ( 1.000000000000000000, 0.0000000000000000000, 0.0000000000000000000 ) ) ;
#187 = VERTEX_POINT ( 'NONE', #219 ) ;
#188 = LINE ( 'NONE', #168, #137 ) ;
#189 = PRODUCT_DEFINITION_FORMATION_WITH_SPECIFIED_SOURCE ( 'ANY', '', #173, .NOT_KNOWN. ) ;
#190 = CARTESIAN_POINT ( 'NONE',  ( 0.0000000000000000000, 0.0000000000000000000, 0.07874000000000000443 ) ) ;
#191 = CARTESIAN_POINT ( 'NONE',  ( -0.05314949999999991903, 0.0000000000000000000, 0.0000000000000000000 ) ) ;
#192 = DIRECTION ( 'NONE',  ( 0.0000000000000000000, 0.0000000000000000000, 1.000000000000000000 ) ) ;
#193 = DIMENSIONAL_EXPONENTS ( 1.000000000000000000, 0.0000000000000000000, 0.0000000000000000000, 0.0000000000000000000, 0.0000000000000000000, 0.0000000000000000000, 0.0000000000000000000 ) ;
#194 = CARTESIAN_POINT ( 'NONE',  ( 0.0000000000000000000, 0.0000000000000000000, 3.922007999999999939 ) ) ;
#195 = FACE_OUTER_BOUND ( 'NONE', #185, .T. ) ;
#196 = LENGTH_MEASURE_WITH_UNIT ( LENGTH_MEASURE( 0.02539999999999999897 ), #10 );
#197 = CARTESIAN_POINT ( 'NONE',  ( 6.508936505128221412E-18, -0.05314949999999997454, 0.1368357679160022988 ) ) ;
#198 = VECTOR ( 'NONE', #224, 39.37007874015748854 ) ;
#199 = FACE_OUTER_BOUND ( 'NONE', #72, .T. ) ;
#200 = EDGE_CURVE ( 'NONE', #135, #45, #38, .T. ) ;
#201 = ADVANCED_FACE ( 'NONE', ( #195 ), #33, .T. ) ;
#202 = SURFACE_STYLE_FILL_AREA ( #312 ) ;
#203 = EDGE_LOOP ( 'NONE', ( #311, #118, #210, #314 ) ) ;
#204 =( LENGTH_UNIT ( ) NAMED_UNIT ( * ) SI_UNIT ( $, .METRE. ) );
#205 = ORIENTED_EDGE ( 'NONE', *, *, #231, .F. ) ;
#206 = VECTOR ( 'NONE', #104, 39.37007874015748143 ) ;
#207 = ORIENTED_EDGE ( 'NONE', *, *, #200, .F. ) ;
#208 = VERTEX_POINT ( 'NONE', #197 ) ;
#209 = PRODUCT_CONTEXT ( 'NONE', #109, 'mechanical' ) ;
#210 = ORIENTED_EDGE ( 'NONE', *, *, #200, .T. ) ;
#211 = CIRCLE ( 'NONE', #83, 0.1031100000000005484 ) ;
#212 = AXIS2_PLACEMENT_3D ( 'NONE', #194, #32, #296 ) ;
#213 = FACE_OUTER_BOUND ( 'NONE', #31, .T. ) ;
#214 = DIRECTION ( 'NONE',  ( 1.000000000000000000, 0.0000000000000000000, 0.0000000000000000000 ) ) ;
#215 = FACE_OUTER_BOUND ( 'NONE', #241, .T. ) ;
#216 = DIRECTION ( 'NONE',  ( -0.0000000000000000000, -0.0000000000000000000, -1.000000000000000000 ) ) ;
#217 = SURFACE_STYLE_USAGE ( .BOTH. , #172 ) ;
#218 = FACE_OUTER_BOUND ( 'NONE', #233, .T. ) ;
#219 = CARTESIAN_POINT ( 'NONE',  ( -0.05314949999999984964, 1.048661992492879804E-17, 1.259842999999999824 ) ) ;
#220 = PRODUCT_DEFINITION ( 'UNKNOWN', '', #189, #297 ) ;
#221 = EDGE_CURVE ( 'NONE', #134, #45, #8, .T. ) ;
#222 = DIRECTION ( 'NONE',  ( -1.000000000000000000, 0.0000000000000000000, 0.0000000000000000000 ) ) ;
#223 =( GEOMETRIC_REPRESENTATION_CONTEXT ( 3 ) GLOBAL_UNCERTAINTY_ASSIGNED_CONTEXT ( ( #327 ) ) GLOBAL_UNIT_ASSIGNED_CONTEXT ( ( #145, #121, #306 ) ) REPRESENTATION_CONTEXT ( 'NONE', 'WORKASPACE' ) );
#224 = DIRECTION ( 'NONE',  ( 0.7071067811865422437, 8.659560562354868763E-17, -0.7071067811865526798 ) ) ;
#225 = ADVANCED_FACE ( 'NONE', ( #59 ), #50, .T. ) ;
#226 = ORIENTED_EDGE ( 'NONE', *, *, #221, .F. ) ;
#227 = AXIS2_PLACEMENT_3D ( 'NONE', #232, #93, #123 ) ;
#228 = ORIENTED_EDGE ( 'NONE', *, *, #236, .F. ) ;
#229 = DIRECTION ( 'NONE',  ( -1.224646799147352961E-16, 1.000000000000000000, 0.0000000000000000000 ) ) ;
#230 = ORIENTED_EDGE ( 'NONE', *, *, #249, .T. ) ;
#231 = EDGE_CURVE ( 'NONE', #26, #178, #74, .T. ) ;
#232 = CARTESIAN_POINT ( 'NONE',  ( 0.0000000000000000000, 0.0000000000000000000, 1.732282999999999795 ) ) ;
#233 = EDGE_LOOP ( 'NONE', ( #65, #122, #20, #257 ) ) ;
#234 = CLOSED_SHELL ( 'NONE', ( #240, #132, #225, #201, #111, #167, #60, #248, #80, #164, #16 ) ) ;
#235 = STYLED_ITEM ( 'NONE', ( #274 ), #176 ) ;
#236 = EDGE_CURVE ( 'NONE', #178, #208, #37, .T. ) ;
#237 = EDGE_CURVE ( 'NONE', #69, #134, #273, .T. ) ;
#238 = ORIENTED_EDGE ( 'NONE', *, *, #155, .F. ) ;
#239 = LINE ( 'NONE', #191, #206 ) ;
#240 = ADVANCED_FACE ( 'NONE', ( #199 ), #150, .T. ) ;
#241 = EDGE_LOOP ( 'NONE', ( #107, #154, #342, #67, #228 ) ) ;
#242 = EDGE_LOOP ( 'NONE', ( #126, #269, #315, #255 ) ) ;
#243 = DIRECTION ( 'NONE',  ( -1.000000000000000000, 0.0000000000000000000, 0.0000000000000000000 ) ) ;
#244 = AXIS2_PLACEMENT_3D ( 'NONE', #53, #28, #131 ) ;
#245 = DIMENSIONAL_EXPONENTS ( 1.000000000000000000, 0.0000000000000000000, 0.0000000000000000000, 0.0000000000000000000, 0.0000000000000000000, 0.0000000000000000000, 0.0000000000000000000 ) ;
#246 = DIRECTION ( 'NONE',  ( -1.000000000000000000, 0.0000000000000000000, 0.0000000000000000000 ) ) ;
#247 = FILL_AREA_STYLE ('',( #61 ) ) ;
#248 = ADVANCED_FACE ( 'NONE', ( #285 ), #15, .T. ) ;
#249 = EDGE_CURVE ( 'NONE', #309, #69, #211, .T. ) ;
#250 = CARTESIAN_POINT ( 'NONE',  ( 0.0000000000000000000, 0.0000000000000000000, 0.1368357679160022988 ) ) ;
#251 = LINE ( 'NONE', #13, #253 ) ;
#252 = ORIENTED_EDGE ( 'NONE', *, *, #277, .T. ) ;
#253 = VECTOR ( 'NONE', #259, 39.37007874015748143 ) ;
#254 = EDGE_CURVE ( 'NONE', #45, #260, #177, .T. ) ;
#255 = ORIENTED_EDGE ( 'NONE', *, *, #49, .F. ) ;
#256 = CARTESIAN_POINT ( 'NONE',  ( 0.0000000000000000000, 0.0000000000000000000, 3.937007999999999619 ) ) ;
#257 = ORIENTED_EDGE ( 'NONE', *, *, #88, .T. ) ;
#258 = EDGE_LOOP ( 'NONE', ( #2, #47, #40, #207 ) ) ;
#259 = DIRECTION ( 'NONE',  ( -0.0000000000000000000, -0.0000000000000000000, -1.000000000000000000 ) ) ;
#260 = VERTEX_POINT ( 'NONE', #66 ) ;
#261 = VECTOR ( 'NONE', #298, 39.37007874015748143 ) ;
#262 = CARTESIAN_POINT ( 'NONE',  ( -0.1181100000000000344, 0.0000000000000000000, 3.937007999999999619 ) ) ;
#263 = PRODUCT_DEFINITION_SHAPE ( 'NONE', 'NONE',  #220 ) ;
#264 = EDGE_CURVE ( 'NONE', #135, #178, #251, .T. ) ;
#265 = CARTESIAN_POINT ( 'NONE',  ( 0.1031100000000005484, 1.354581824536890879E-17, 3.937007999999999619 ) ) ;
#266 = CYLINDRICAL_SURFACE ( 'NONE', #282, 0.05314949999999991903 ) ;
#267 = AXIS2_PLACEMENT_3D ( 'NONE', #6, #290, #214 ) ;
#268 = CARTESIAN_POINT ( 'NONE',  ( 0.0000000000000000000, 0.0000000000000000000, 0.07874000000000000443 ) ) ;
#269 = ORIENTED_EDGE ( 'NONE', *, *, #249, .F. ) ;
#270 = UNCERTAINTY_MEASURE_WITH_UNIT (LENGTH_MEASURE( 1.000000000000000082E-05 ), #36, 'distance_accuracy_value', 'NONE');
#271 = DIRECTION ( 'NONE',  ( -0.0000000000000000000, -0.0000000000000000000, -1.000000000000000000 ) ) ;
#272 = AXIS2_PLACEMENT_3D ( 'NONE', #330, #35, #301 ) ;
#273 = LINE ( 'NONE', #19, #198 ) ;
#274 = PRESENTATION_STYLE_ASSIGNMENT (( #217 ) ) ;
#275 = PRESENTATION_LAYER_ASSIGNMENT (  '', '', ( #235 ) ) ;
#276 = FACE_OUTER_BOUND ( 'NONE', #22, .T. ) ;
#277 = EDGE_CURVE ( 'NONE', #208, #279, #108, .T. ) ;
#278 = SURFACE_SIDE_STYLE ('',( #202 ) ) ;
#279 = VERTEX_POINT ( 'NONE', #99 ) ;
#280 = DIRECTION ( 'NONE',  ( -1.000000000000000000, 0.0000000000000000000, 0.0000000000000000000 ) ) ;
#281 = ORIENTED_EDGE ( 'NONE', *, *, #221, .T. ) ;
#282 = AXIS2_PLACEMENT_3D ( 'NONE', #161, #325, #77 ) ;
#283 = ORIENTED_EDGE ( 'NONE', *, *, #237, .T. ) ;
#284 = ORIENTED_EDGE ( 'NONE', *, *, #113, .T. ) ;
#285 = FACE_OUTER_BOUND ( 'NONE', #242, .T. ) ;
#286 = ORIENTED_EDGE ( 'NONE', *, *, #49, .T. ) ;
#287 = CYLINDRICAL_SURFACE ( 'NONE', #115, 0.1181100000000000344 ) ;
#288 = PRESENTATION_LAYER_ASSIGNMENT (  '', '', ( #7 ) ) ;
#289 = EDGE_CURVE ( 'NONE', #149, #26, #299, .T. ) ;
#290 = DIRECTION ( 'NONE',  ( 0.0000000000000000000, 0.0000000000000000000, -1.000000000000000000 ) ) ;
#291 = DIRECTION ( 'NONE',  ( 1.000000000000000000, 0.0000000000000000000, 0.0000000000000000000 ) ) ;
#292 = SHAPE_DEFINITION_REPRESENTATION ( #263, #141 ) ;
#293 = CARTESIAN_POINT ( 'NONE',  ( 0.05314949999999984964, 0.0000000000000000000, 1.259842999999999824 ) ) ;
#294 = AXIS2_PLACEMENT_3D ( 'NONE', #117, #341, #48 ) ;
#295 = FACE_OUTER_BOUND ( 'NONE', #340, .T. ) ;
#296 = DIRECTION ( 'NONE',  ( 1.000000000000000000, 0.0000000000000000000, 0.0000000000000000000 ) ) ;
#297 = PRODUCT_DEFINITION_CONTEXT ( 'detailed design', #307, 'design' ) ;
#298 = DIRECTION ( 'NONE',  ( -0.0000000000000000000, -0.0000000000000000000, -1.000000000000000000 ) ) ;
#299 = CIRCLE ( 'NONE', #294, 0.05314949999999998842 ) ;
#300 = COLOUR_RGB ( '',0.7921568627450980005, 0.8196078431372548767, 0.9333333333333333481 ) ;
#301 = DIRECTION ( 'NONE',  ( -1.000000000000000000, 0.0000000000000000000, 0.0000000000000000000 ) ) ;
#302 = SURFACE_STYLE_FILL_AREA ( #247 ) ;
#303 = CARTESIAN_POINT ( 'NONE',  ( -0.1181100000000000344, 0.0000000000000000000, 3.922007999999999939 ) ) ;
#304 = AXIS2_PLACEMENT_3D ( 'NONE', #9, #216, #331 ) ;
#305 = CIRCLE ( 'NONE', #212, 0.1181100000000000344 ) ;
#306 =( NAMED_UNIT ( * ) SI_UNIT ( $, .STERADIAN. ) SOLID_ANGLE_UNIT ( ) );
#307 = APPLICATION_CONTEXT ( 'automotive_design' ) ;
#308 = CARTESIAN_POINT ( 'NONE',  ( -0.1299209999999997867, 1.591073367920230343E-17, 1.818181181818179670 ) ) ;
#309 = VERTEX_POINT ( 'NONE', #68 ) ;
#310 = DIRECTION ( 'NONE',  ( 0.0000000000000000000, 0.0000000000000000000, -1.000000000000000000 ) ) ;
#311 = ORIENTED_EDGE ( 'NONE', *, *, #333, .F. ) ;
#312 = FILL_AREA_STYLE ('',( #152 ) ) ;
#313 = CIRCLE ( 'NONE', #244, 0.1031100000000005484 ) ;
#314 = ORIENTED_EDGE ( 'NONE', *, *, #334, .F. ) ;
#315 = ORIENTED_EDGE ( 'NONE', *, *, #98, .T. ) ;
#316 =( NAMED_UNIT ( * ) PLANE_ANGLE_UNIT ( ) SI_UNIT ( $, .RADIAN. ) );
#317 = FACE_OUTER_BOUND ( 'NONE', #183, .T. ) ;
#318 =( LENGTH_UNIT ( ) NAMED_UNIT ( * ) SI_UNIT ( $, .METRE. ) );
#319 = CIRCLE ( 'NONE', #304, 0.05314949999999984964 ) ;
#320 = DIRECTION ( 'NONE',  ( -1.000000000000000000, 0.0000000000000000000, 0.0000000000000000000 ) ) ;
#321 = CIRCLE ( 'NONE', #165, 0.07873999999999996280 ) ;
#322 = AXIS2_PLACEMENT_3D ( 'NONE', #46, #339, #44 ) ;
#323 = CARTESIAN_POINT ( 'NONE',  ( 0.1181100000000000344, 1.446430334472939084E-17, 3.922007999999999939 ) ) ;
#324 = DIRECTION ( 'NONE',  ( 0.0000000000000000000, 0.0000000000000000000, 1.000000000000000000 ) ) ;
#325 = DIRECTION ( 'NONE',  ( -0.0000000000000000000, -0.0000000000000000000, -1.000000000000000000 ) ) ;
#326 = CIRCLE ( 'NONE', #51, 0.05314949999999984964 ) ;
#327 = UNCERTAINTY_MEASURE_WITH_UNIT (LENGTH_MEASURE( 1.000000000000000082E-05 ), #145, 'distance_accuracy_value', 'NONE');
#328 = VECTOR ( 'NONE', #86, 39.37007874015748143 ) ;
#329 =( NAMED_UNIT ( * ) SI_UNIT ( $, .STERADIAN. ) SOLID_ANGLE_UNIT ( ) );
#330 = CARTESIAN_POINT ( 'NONE',  ( 0.0000000000000000000, 0.0000000000000000000, 3.937007999999999619 ) ) ;
#331 = DIRECTION ( 'NONE',  ( -1.000000000000000000, 0.0000000000000000000, 0.0000000000000000000 ) ) ;
#332 = CARTESIAN_POINT ( 'NONE',  ( 0.1181100000000000344, 1.446430334472939084E-17, 3.937007999999999619 ) ) ;
#333 = EDGE_CURVE ( 'NONE', #187, #260, #39, .T. ) ;
#334 = EDGE_CURVE ( 'NONE', #260, #45, #337, .T. ) ;
#335 = CARTESIAN_POINT ( 'NONE',  ( 0.05314949999999998842, 6.508936505128222953E-18, 0.1368357679160022988 ) ) ;
#336 = EDGE_CURVE ( 'NONE', #208, #149, #143, .T. ) ;
#337 = CIRCLE ( 'NONE', #322, 0.1181100000000000344 ) ;
#338 = AXIS2_PLACEMENT_3D ( 'NONE', #160, #102, #3 ) ;
#339 = DIRECTION ( 'NONE',  ( 0.0000000000000000000, 0.0000000000000000000, 1.000000000000000000 ) ) ;
#340 = EDGE_LOOP ( 'NONE', ( #42, #281, #146, #106 ) ) ;
#341 = DIRECTION ( 'NONE',  ( -0.0000000000000000000, -0.0000000000000000000, -1.000000000000000000 ) ) ;
#342 = ORIENTED_EDGE ( 'NONE', *, *, #116, .T. ) ;
#343 = DIRECTION ( 'NONE',  ( -0.0000000000000000000, -0.0000000000000000000, -1.000000000000000000 ) ) ;
#344 = COLOUR_RGB ( '',0.7921568627450980005, 0.8196078431372548767, 0.9333333333333333481 ) ;
#345 = ORIENTED_EDGE ( 'NONE', *, *, #236, .T. ) ;
ENDSEC;
END-ISO-10303-21;
