ISO-10303-21;
HEADER;
FILE_DESCRIPTION (( 'STEP AP214' ),
    '1' );
FILE_NAME ('Micro_SEM-046-04.STEP',
    '2021-09-02T00:42:34',
    ( '' ),
    ( '' ),
    'SwSTEP 2.0',
    'SolidWorks 2020',
    '' );
FILE_SCHEMA (( 'AUTOMOTIVE_DESIGN' ));
ENDSEC;

DATA;
#1 = CARTESIAN_POINT ( 'NONE',  ( 0.0000000000000000000, 0.0000000000000000000, 0.0000000000000000000 ) ) ;
#2 = ORIENTED_EDGE ( 'NONE', *, *, #210, .T. ) ;
#3 = CIRCLE ( 'NONE', #166, 0.06250000000000000000 ) ;
#4 = ORIENTED_EDGE ( 'NONE', *, *, #82, .T. ) ;
#5 = ORIENTED_EDGE ( 'NONE', *, *, #242, .F. ) ;
#6 = FACE_OUTER_BOUND ( 'NONE', #161, .T. ) ;
#7 = AXIS2_PLACEMENT_3D ( 'NONE', #232, #281, #101 ) ;
#8 = DIRECTION ( 'NONE',  ( 0.7071067811865456854, 8.659560562354911904E-17, -0.7071067811865493491 ) ) ;
#9 = CYLINDRICAL_SURFACE ( 'NONE', #73, 0.06250000000000000000 ) ;
#10 = CARTESIAN_POINT ( 'NONE',  ( -0.02342654999999999044, 0.0000000000000000000, 5.737849894513084357E-18 ) ) ;
#11 =( CONVERSION_BASED_UNIT ( 'INCH', #133 ) LENGTH_UNIT ( ) NAMED_UNIT ( #112 ) );
#12 = CARTESIAN_POINT ( 'NONE',  ( 3.513419753651714367E-34, 0.0000000000000000000, 2.868924947256542179E-18 ) ) ;
#13 = CARTESIAN_POINT ( 'NONE',  ( 0.0000000000000000000, 0.0000000000000000000, 0.0000000000000000000 ) ) ;
#14 = STYLED_ITEM ( 'NONE', ( #200 ), #152 ) ;
#15 = DIRECTION ( 'NONE',  ( 0.1736481776669313859, 0.0000000000000000000, 0.9848077530122077983 ) ) ;
#16 = DIRECTION ( 'NONE',  ( -1.224646799147353454E-16, -0.0000000000000000000, -1.000000000000000000 ) ) ;
#17 = EDGE_CURVE ( 'NONE', #68, #205, #162, .T. ) ;
#18 = SURFACE_STYLE_USAGE ( .BOTH. , #204 ) ;
#19 = CARTESIAN_POINT ( 'NONE',  ( -0.04750000000000064587, 0.0000000000000000000, 1.500000000000000222 ) ) ;
#20 = EDGE_CURVE ( 'NONE', #100, #202, #284, .T. ) ;
#21 = FILL_AREA_STYLE ('',( #182 ) ) ;
#22 = CYLINDRICAL_SURFACE ( 'NONE', #118, 0.02342654999999999044 ) ;
#23 = CARTESIAN_POINT ( 'NONE',  ( 0.0000000000000000000, 0.0000000000000000000, 0.0000000000000000000 ) ) ;
#24 = ORIENTED_EDGE ( 'NONE', *, *, #295, .T. ) ;
#25 = APPLICATION_PROTOCOL_DEFINITION ( 'draft international standard', 'automotive_design', 1998, #249 ) ;
#26 = ORIENTED_EDGE ( 'NONE', *, *, #52, .T. ) ;
#27 = CIRCLE ( 'NONE', #296, 0.06250000000000000000 ) ;
#28 = ORIENTED_EDGE ( 'NONE', *, *, #285, .F. ) ;
#29 = CARTESIAN_POINT ( 'NONE',  ( 0.0000000000000000000, 0.0000000000000000000, 1.500000000000000222 ) ) ;
#30 = ADVANCED_FACE ( 'NONE', ( #92 ), #157, .T. ) ;
#31 =( NAMED_UNIT ( * ) SI_UNIT ( $, .STERADIAN. ) SOLID_ANGLE_UNIT ( ) );
#32 = DIRECTION ( 'NONE',  ( 1.000000000000000000, 0.0000000000000000000, 0.0000000000000000000 ) ) ;
#33 =( GEOMETRIC_REPRESENTATION_CONTEXT ( 3 ) GLOBAL_UNCERTAINTY_ASSIGNED_CONTEXT ( ( #227 ) ) GLOBAL_UNIT_ASSIGNED_CONTEXT ( ( #124, #49, #228 ) ) REPRESENTATION_CONTEXT ( 'NONE', 'WORKASPACE' ) );
#34 = ADVANCED_FACE ( 'NONE', ( #225 ), #22, .T. ) ;
#35 = LENGTH_MEASURE_WITH_UNIT ( LENGTH_MEASURE( 0.02539999999999999897 ), #165 );
#36 = ADVANCED_FACE ( 'NONE', ( #6 ), #9, .T. ) ;
#37 = FACE_OUTER_BOUND ( 'NONE', #277, .T. ) ;
#38 = CARTESIAN_POINT ( 'NONE',  ( -0.06249999999999995837, 0.0000000000000000000, 0.3155965466147404586 ) ) ;
#39 = CIRCLE ( 'NONE', #97, 0.04750000000000064587 ) ;
#40 = AXIS2_PLACEMENT_3D ( 'NONE', #85, #218, #263 ) ;
#41 = FACE_OUTER_BOUND ( 'NONE', #140, .T. ) ;
#42 = CARTESIAN_POINT ( 'NONE',  ( 0.02342654999999999044, 2.868924947256541793E-18, 0.0000000000000000000 ) ) ;
#43 = DIRECTION ( 'NONE',  ( 0.0000000000000000000, 0.0000000000000000000, 1.000000000000000000 ) ) ;
#44 = ORIENTED_EDGE ( 'NONE', *, *, #67, .T. ) ;
#45 = APPLICATION_CONTEXT ( 'automotive_design' ) ;
#46 = ORIENTED_EDGE ( 'NONE', *, *, #219, .T. ) ;
#47 = ORIENTED_EDGE ( 'NONE', *, *, #69, .F. ) ;
#48 = PRODUCT_DEFINITION ( 'UNKNOWN', '', #240, #246 ) ;
#49 =( NAMED_UNIT ( * ) PLANE_ANGLE_UNIT ( ) SI_UNIT ( $, .RADIAN. ) );
#50 = DIRECTION ( 'NONE',  ( -1.000000000000000000, 0.0000000000000000000, 0.0000000000000000000 ) ) ;
#51 = CONICAL_SURFACE ( 'NONE', #79, 0.02342654999999999391, 0.1745329251994338915 ) ;
#52 = EDGE_CURVE ( 'NONE', #202, #100, #131, .T. ) ;
#53 = EDGE_LOOP ( 'NONE', ( #145, #28, #229, #160 ) ) ;
#54 = DIRECTION ( 'NONE',  ( -1.224646799147353454E-16, -0.0000000000000000000, -1.000000000000000000 ) ) ;
#55 = DIRECTION ( 'NONE',  ( 0.0000000000000000000, 0.0000000000000000000, -1.000000000000000000 ) ) ;
#56 = DIRECTION ( 'NONE',  ( 1.000000000000000000, 0.0000000000000000000, 0.0000000000000000000 ) ) ;
#57 = SURFACE_STYLE_FILL_AREA ( #104 ) ;
#58 = DIRECTION ( 'NONE',  ( -0.1736481776669311916, 2.126576849575783316E-17, 0.9848077530122080203 ) ) ;
#59 = EDGE_CURVE ( 'NONE', #276, #255, #128, .T. ) ;
#60 = DIRECTION ( 'NONE',  ( 1.000000000000000000, 0.0000000000000000000, 0.0000000000000000000 ) ) ;
#61 =( GEOMETRIC_REPRESENTATION_CONTEXT ( 3 ) GLOBAL_UNCERTAINTY_ASSIGNED_CONTEXT ( ( #102 ) ) GLOBAL_UNIT_ASSIGNED_CONTEXT ( ( #11, #265, #247 ) ) REPRESENTATION_CONTEXT ( 'NONE', 'WORKASPACE' ) );
#62 = DIRECTION ( 'NONE',  ( -1.000000000000000000, 0.0000000000000000000, 1.224646799147353454E-16 ) ) ;
#63 = ORIENTED_EDGE ( 'NONE', *, *, #126, .T. ) ;
#64 = LINE ( 'NONE', #111, #163 ) ;
#65 = DIRECTION ( 'NONE',  ( -1.224646799147353454E-16, -0.0000000000000000000, -1.000000000000000000 ) ) ;
#66 = AXIS2_PLACEMENT_3D ( 'NONE', #217, #88, #60 ) ;
#67 = EDGE_CURVE ( 'NONE', #100, #230, #80, .T. ) ;
#68 = VERTEX_POINT ( 'NONE', #188 ) ;
#69 = EDGE_CURVE ( 'NONE', #100, #144, #150, .T. ) ;
#70 = UNCERTAINTY_MEASURE_WITH_UNIT (LENGTH_MEASURE( 1.000000000000000082E-05 ), #211, 'distance_accuracy_value', 'NONE');
#71 = DIRECTION ( 'NONE',  ( -0.0000000000000000000, -0.0000000000000000000, -1.000000000000000000 ) ) ;
#72 = AXIS2_PLACEMENT_3D ( 'NONE', #29, #83, #235 ) ;
#73 = AXIS2_PLACEMENT_3D ( 'NONE', #187, #106, #236 ) ;
#74 = EDGE_LOOP ( 'NONE', ( #125, #203, #89, #47 ) ) ;
#75 = DIRECTION ( 'NONE',  ( -0.7071067811865456854, 0.0000000000000000000, -0.7071067811865493491 ) ) ;
#76 = ORIENTED_EDGE ( 'NONE', *, *, #69, .T. ) ;
#77 = CARTESIAN_POINT ( 'NONE',  ( 0.0000000000000000000, 0.0000000000000000000, 1.500000000000000222 ) ) ;
#78 = LINE ( 'NONE', #245, #172 ) ;
#79 = AXIS2_PLACEMENT_3D ( 'NONE', #283, #259, #32 ) ;
#80 = LINE ( 'NONE', #105, #251 ) ;
#81 = VECTOR ( 'NONE', #155, 39.37007874015748143 ) ;
#82 = EDGE_CURVE ( 'NONE', #205, #255, #27, .T. ) ;
#83 = DIRECTION ( 'NONE',  ( 0.0000000000000000000, 0.0000000000000000000, -1.000000000000000000 ) ) ;
#84 = PLANE ( 'NONE',  #40 ) ;
#85 = CARTESIAN_POINT ( 'NONE',  ( 0.0000000000000000000, 0.0000000000000000000, 0.0000000000000000000 ) ) ;
#86 = CIRCLE ( 'NONE', #147, 0.06250000000000000000 ) ;
#87 = CYLINDRICAL_SURFACE ( 'NONE', #190, 0.02342654999999999044 ) ;
#88 = DIRECTION ( 'NONE',  ( -1.224646799147353454E-16, -0.0000000000000000000, -1.000000000000000000 ) ) ;
#89 = ORIENTED_EDGE ( 'NONE', *, *, #219, .F. ) ;
#90 = ADVANCED_FACE ( 'NONE', ( #279 ), #177, .T. ) ;
#91 = ADVANCED_FACE ( 'NONE', ( #37 ), #258, .T. ) ;
#92 = FACE_OUTER_BOUND ( 'NONE', #274, .T. ) ;
#93 = CLOSED_SHELL ( 'NONE', ( #34, #184, #260, #30, #36, #239, #90, #91, #233, #297 ) ) ;
#94 = LENGTH_MEASURE_WITH_UNIT ( LENGTH_MEASURE( 0.02539999999999999897 ), #143 );
#95 = DIRECTION ( 'NONE',  ( -1.224646799147353454E-16, -0.0000000000000000000, -1.000000000000000000 ) ) ;
#96 = ORIENTED_EDGE ( 'NONE', *, *, #285, .T. ) ;
#97 = AXIS2_PLACEMENT_3D ( 'NONE', #77, #167, #130 ) ;
#98 = SURFACE_STYLE_FILL_AREA ( #21 ) ;
#99 = ORIENTED_EDGE ( 'NONE', *, *, #293, .T. ) ;
#100 = VERTEX_POINT ( 'NONE', #212 ) ;
#101 = DIRECTION ( 'NONE',  ( -1.000000000000000000, 0.0000000000000000000, 0.0000000000000000000 ) ) ;
#102 = UNCERTAINTY_MEASURE_WITH_UNIT (LENGTH_MEASURE( 1.000000000000000082E-05 ), #11, 'distance_accuracy_value', 'NONE');
#103 = CIRCLE ( 'NONE', #231, 0.04750000000000064587 ) ;
#104 = FILL_AREA_STYLE ('',( #186 ) ) ;
#105 = CARTESIAN_POINT ( 'NONE',  ( -0.02342654999999998350, 2.868924947256542179E-18, 0.09400000000000001410 ) ) ;
#106 = DIRECTION ( 'NONE',  ( -0.0000000000000000000, -0.0000000000000000000, -1.000000000000000000 ) ) ;
#107 = FACE_OUTER_BOUND ( 'NONE', #175, .T. ) ;
#108 = CARTESIAN_POINT ( 'NONE',  ( 3.864943006337004181E-17, 0.0000000000000000000, 0.3155965466147404586 ) ) ;
#109 = DIMENSIONAL_EXPONENTS ( 1.000000000000000000, 0.0000000000000000000, 0.0000000000000000000, 0.0000000000000000000, 0.0000000000000000000, 0.0000000000000000000, 0.0000000000000000000 ) ;
#110 = FACE_OUTER_BOUND ( 'NONE', #209, .T. ) ;
#111 = CARTESIAN_POINT ( 'NONE',  ( 0.02342654999999999044, 2.868924947256541793E-18, -2.868924947256542179E-18 ) ) ;
#112 = DIMENSIONAL_EXPONENTS ( 1.000000000000000000, 0.0000000000000000000, 0.0000000000000000000, 0.0000000000000000000, 0.0000000000000000000, 0.0000000000000000000, 0.0000000000000000000 ) ;
#113 = FACE_OUTER_BOUND ( 'NONE', #142, .T. ) ;
#114 = PRODUCT_RELATED_PRODUCT_CATEGORY ( 'part', '', ( #234 ) ) ;
#115 = ORIENTED_EDGE ( 'NONE', *, *, #52, .F. ) ;
#116 = CARTESIAN_POINT ( 'NONE',  ( 3.513419753651714367E-34, 0.0000000000000000000, 2.868924947256542179E-18 ) ) ;
#117 = ORIENTED_EDGE ( 'NONE', *, *, #273, .F. ) ;
#118 = AXIS2_PLACEMENT_3D ( 'NONE', #1, #95, #158 ) ;
#119 = CIRCLE ( 'NONE', #154, 0.02342654999999999044 ) ;
#120 = SHAPE_DEFINITION_REPRESENTATION ( #224, #152 ) ;
#121 = ORIENTED_EDGE ( 'NONE', *, *, #82, .F. ) ;
#122 = ORIENTED_EDGE ( 'NONE', *, *, #20, .F. ) ;
#123 = ORIENTED_EDGE ( 'NONE', *, *, #126, .F. ) ;
#124 =( CONVERSION_BASED_UNIT ( 'INCH', #94 ) LENGTH_UNIT ( ) NAMED_UNIT ( #109 ) );
#125 = ORIENTED_EDGE ( 'NONE', *, *, #20, .T. ) ;
#126 = EDGE_CURVE ( 'NONE', #276, #68, #39, .T. ) ;
#127 = COLOUR_RGB ( '',0.7921568627450980005, 0.8196078431372548767, 0.9333333333333333481 ) ;
#128 = LINE ( 'NONE', #237, #170 ) ;
#129 = PRESENTATION_STYLE_ASSIGNMENT (( #168 ) ) ;
#130 = DIRECTION ( 'NONE',  ( 1.000000000000000000, 0.0000000000000000000, 0.0000000000000000000 ) ) ;
#131 = CIRCLE ( 'NONE', #7, 0.02342654999999999391 ) ;
#132 = VECTOR ( 'NONE', #15, 39.37007874015748143 ) ;
#133 = LENGTH_MEASURE_WITH_UNIT ( LENGTH_MEASURE( 0.02539999999999999897 ), #153 );
#134 = ORIENTED_EDGE ( 'NONE', *, *, #270, .F. ) ;
#135 = CARTESIAN_POINT ( 'NONE',  ( 0.0000000000000000000, 0.0000000000000000000, 1.500000000000000222 ) ) ;
#136 = AXIS2_PLACEMENT_3D ( 'NONE', #191, #146, #56 ) ;
#137 = DIRECTION ( 'NONE',  ( 1.000000000000000000, 0.0000000000000000000, 0.0000000000000000000 ) ) ;
#138 = DIRECTION ( 'NONE',  ( -1.000000000000000000, 0.0000000000000000000, 0.0000000000000000000 ) ) ;
#139 = PRESENTATION_LAYER_ASSIGNMENT (  '', '', ( #14 ) ) ;
#140 = EDGE_LOOP ( 'NONE', ( #46, #24 ) ) ;
#141 = EDGE_CURVE ( 'NONE', #255, #205, #3, .T. ) ;
#142 = EDGE_LOOP ( 'NONE', ( #123, #253, #121, #278 ) ) ;
#143 =( LENGTH_UNIT ( ) NAMED_UNIT ( * ) SI_UNIT ( $, .METRE. ) );
#144 = VERTEX_POINT ( 'NONE', #10 ) ;
#145 = ORIENTED_EDGE ( 'NONE', *, *, #59, .F. ) ;
#146 = DIRECTION ( 'NONE',  ( 1.224646799147353454E-16, 0.0000000000000000000, 1.000000000000000000 ) ) ;
#147 = AXIS2_PLACEMENT_3D ( 'NONE', #108, #16, #287 ) ;
#148 = DIRECTION ( 'NONE',  ( 1.000000000000000000, 0.0000000000000000000, 0.0000000000000000000 ) ) ;
#149 = DIMENSIONAL_EXPONENTS ( 1.000000000000000000, 0.0000000000000000000, 0.0000000000000000000, 0.0000000000000000000, 0.0000000000000000000, 0.0000000000000000000, 0.0000000000000000000 ) ;
#150 = LINE ( 'NONE', #282, #159 ) ;
#151 = CARTESIAN_POINT ( 'NONE',  ( 0.0000000000000000000, 0.0000000000000000000, 1.500000000000000222 ) ) ;
#152 = ADVANCED_BREP_SHAPE_REPRESENTATION ( 'Micro_SEM-046-04', ( #194, #275 ), #61 ) ;
#153 =( LENGTH_UNIT ( ) NAMED_UNIT ( * ) SI_UNIT ( $, .METRE. ) );
#154 = AXIS2_PLACEMENT_3D ( 'NONE', #116, #169, #193 ) ;
#155 = DIRECTION ( 'NONE',  ( -0.0000000000000000000, -0.0000000000000000000, -1.000000000000000000 ) ) ;
#156 = CARTESIAN_POINT ( 'NONE',  ( -0.06250000000000000000, 0.0000000000000000000, 1.485000000000000764 ) ) ;
#157 = CYLINDRICAL_SURFACE ( 'NONE', #290, 0.06250000000000000000 ) ;
#158 = DIRECTION ( 'NONE',  ( -1.000000000000000000, 0.0000000000000000000, 1.224646799147353454E-16 ) ) ;
#159 = VECTOR ( 'NONE', #54, 39.37007874015748143 ) ;
#160 = ORIENTED_EDGE ( 'NONE', *, *, #141, .F. ) ;
#161 = EDGE_LOOP ( 'NONE', ( #180, #226, #271, #134 ) ) ;
#162 = LINE ( 'NONE', #19, #261 ) ;
#163 = VECTOR ( 'NONE', #65, 39.37007874015748143 ) ;
#164 = CARTESIAN_POINT ( 'NONE',  ( 0.0000000000000000000, 0.0000000000000000000, 1.485000000000000764 ) ) ;
#165 =( LENGTH_UNIT ( ) NAMED_UNIT ( * ) SI_UNIT ( $, .METRE. ) );
#166 = AXIS2_PLACEMENT_3D ( 'NONE', #262, #216, #148 ) ;
#167 = DIRECTION ( 'NONE',  ( 0.0000000000000000000, 0.0000000000000000000, 1.000000000000000000 ) ) ;
#168 = SURFACE_STYLE_USAGE ( .BOTH. , #214 ) ;
#169 = DIRECTION ( 'NONE',  ( -1.224646799147353454E-16, -0.0000000000000000000, -1.000000000000000000 ) ) ;
#170 = VECTOR ( 'NONE', #8, 39.37007874015748143 ) ;
#171 = CARTESIAN_POINT ( 'NONE',  ( -0.06250000000000000000, 0.0000000000000000000, 1.500000000000000222 ) ) ;
#172 = VECTOR ( 'NONE', #266, 39.37007874015748143 ) ;
#173 = CARTESIAN_POINT ( 'NONE',  ( 0.06250000000000000000, 7.654042494670956004E-18, 1.485000000000000764 ) ) ;
#174 = LINE ( 'NONE', #171, #81 ) ;
#175 = EDGE_LOOP ( 'NONE', ( #122, #44, #179, #183 ) ) ;
#176 = DIRECTION ( 'NONE',  ( -1.224646799147353454E-16, -0.0000000000000000000, -1.000000000000000000 ) ) ;
#177 = CONICAL_SURFACE ( 'NONE', #72, 0.04750000000000064587, 0.7853981633974457255 ) ;
#178 = ORIENTED_EDGE ( 'NONE', *, *, #67, .F. ) ;
#179 = ORIENTED_EDGE ( 'NONE', *, *, #242, .T. ) ;
#180 = ORIENTED_EDGE ( 'NONE', *, *, #210, .F. ) ;
#181 = AXIS2_PLACEMENT_3D ( 'NONE', #12, #241, #197 ) ;
#182 = FILL_AREA_STYLE_COLOUR ( '', #127 ) ;
#183 = ORIENTED_EDGE ( 'NONE', *, *, #293, .F. ) ;
#184 = ADVANCED_FACE ( 'NONE', ( #107 ), #51, .T. ) ;
#185 = VERTEX_POINT ( 'NONE', #286 ) ;
#186 = FILL_AREA_STYLE_COLOUR ( '', #207 ) ;
#187 = CARTESIAN_POINT ( 'NONE',  ( 0.0000000000000000000, 0.0000000000000000000, 1.500000000000000222 ) ) ;
#188 = CARTESIAN_POINT ( 'NONE',  ( -0.04750000000000064587, 0.0000000000000000000, 1.500000000000000222 ) ) ;
#189 = PRESENTATION_LAYER_ASSIGNMENT (  '', '', ( #244 ) ) ;
#190 = AXIS2_PLACEMENT_3D ( 'NONE', #13, #176, #62 ) ;
#191 = CARTESIAN_POINT ( 'NONE',  ( 1.151167991198512393E-17, 0.0000000000000000000, 0.09400000000000001410 ) ) ;
#192 = PLANE ( 'NONE',  #213 ) ;
#193 = DIRECTION ( 'NONE',  ( -1.000000000000000000, 0.0000000000000000000, 1.224646799147353454E-16 ) ) ;
#194 = MANIFOLD_SOLID_BREP ( 'Cut-Revolve1', #93 ) ;
#195 = FACE_OUTER_BOUND ( 'NONE', #252, .T. ) ;
#196 =( GEOMETRIC_REPRESENTATION_CONTEXT ( 3 ) GLOBAL_UNCERTAINTY_ASSIGNED_CONTEXT ( ( #70 ) ) GLOBAL_UNIT_ASSIGNED_CONTEXT ( ( #211, #215, #31 ) ) REPRESENTATION_CONTEXT ( 'NONE', 'WORKASPACE' ) );
#197 = DIRECTION ( 'NONE',  ( -1.000000000000000000, 0.0000000000000000000, 1.224646799147353454E-16 ) ) ;
#198 = VERTEX_POINT ( 'NONE', #42 ) ;
#199 = DIRECTION ( 'NONE',  ( 0.0000000000000000000, 0.0000000000000000000, 1.000000000000000000 ) ) ;
#200 = PRESENTATION_STYLE_ASSIGNMENT (( #18 ) ) ;
#201 = MECHANICAL_DESIGN_GEOMETRIC_PRESENTATION_REPRESENTATION (  '', ( #244 ), #196 ) ;
#202 = VERTEX_POINT ( 'NONE', #238 ) ;
#203 = ORIENTED_EDGE ( 'NONE', *, *, #220, .T. ) ;
#204 = SURFACE_SIDE_STYLE ('',( #98 ) ) ;
#205 = VERTEX_POINT ( 'NONE', #156 ) ;
#206 = ORIENTED_EDGE ( 'NONE', *, *, #270, .T. ) ;
#207 = COLOUR_RGB ( '',0.7921568627450980005, 0.8196078431372548767, 0.9333333333333333481 ) ;
#208 = APPLICATION_PROTOCOL_DEFINITION ( 'draft international standard', 'automotive_design', 1998, #45 ) ;
#209 = EDGE_LOOP ( 'NONE', ( #289, #26, #76, #222 ) ) ;
#210 = EDGE_CURVE ( 'NONE', #255, #185, #78, .T. ) ;
#211 =( CONVERSION_BASED_UNIT ( 'INCH', #35 ) LENGTH_UNIT ( ) NAMED_UNIT ( #149 ) );
#212 = CARTESIAN_POINT ( 'NONE',  ( -0.02342654999999998350, 5.261483720963751017E-18, 0.09400000000000001410 ) ) ;
#213 = AXIS2_PLACEMENT_3D ( 'NONE', #135, #199, #268 ) ;
#214 = SURFACE_SIDE_STYLE ('',( #57 ) ) ;
#215 =( NAMED_UNIT ( * ) PLANE_ANGLE_UNIT ( ) SI_UNIT ( $, .RADIAN. ) );
#216 = DIRECTION ( 'NONE',  ( 0.0000000000000000000, 0.0000000000000000000, -1.000000000000000000 ) ) ;
#217 = CARTESIAN_POINT ( 'NONE',  ( 3.864943006337004181E-17, 0.0000000000000000000, 0.3155965466147404586 ) ) ;
#218 = DIRECTION ( 'NONE',  ( 0.0000000000000000000, 0.0000000000000000000, 1.000000000000000000 ) ) ;
#219 = EDGE_CURVE ( 'NONE', #144, #198, #119, .T. ) ;
#220 = EDGE_CURVE ( 'NONE', #202, #198, #64, .T. ) ;
#221 = LINE ( 'NONE', #223, #132 ) ;
#222 = ORIENTED_EDGE ( 'NONE', *, *, #295, .F. ) ;
#223 = CARTESIAN_POINT ( 'NONE',  ( 0.02342655000000000778, 0.0000000000000000000, 0.09400000000000001410 ) ) ;
#224 = PRODUCT_DEFINITION_SHAPE ( 'NONE', 'NONE',  #48 ) ;
#225 = FACE_OUTER_BOUND ( 'NONE', #74, .T. ) ;
#226 = ORIENTED_EDGE ( 'NONE', *, *, #141, .T. ) ;
#227 = UNCERTAINTY_MEASURE_WITH_UNIT (LENGTH_MEASURE( 1.000000000000000082E-05 ), #124, 'distance_accuracy_value', 'NONE');
#228 =( NAMED_UNIT ( * ) SI_UNIT ( $, .STERADIAN. ) SOLID_ANGLE_UNIT ( ) );
#229 = ORIENTED_EDGE ( 'NONE', *, *, #17, .T. ) ;
#230 = VERTEX_POINT ( 'NONE', #38 ) ;
#231 = AXIS2_PLACEMENT_3D ( 'NONE', #294, #43, #137 ) ;
#232 = CARTESIAN_POINT ( 'NONE',  ( 1.151167991198512393E-17, 0.0000000000000000000, 0.09400000000000001410 ) ) ;
#233 = ADVANCED_FACE ( 'NONE', ( #110 ), #87, .T. ) ;
#234 = PRODUCT ( 'Micro_SEM-046-04', 'Micro_SEM-046-04', '', ( #269 ) ) ;
#235 = DIRECTION ( 'NONE',  ( -1.000000000000000000, 0.0000000000000000000, 0.0000000000000000000 ) ) ;
#236 = DIRECTION ( 'NONE',  ( -1.000000000000000000, 0.0000000000000000000, 0.0000000000000000000 ) ) ;
#237 = CARTESIAN_POINT ( 'NONE',  ( 0.04750000000000064587, 5.817072295950006528E-18, 1.500000000000000222 ) ) ;
#238 = CARTESIAN_POINT ( 'NONE',  ( 0.02342655000000000778, 0.0000000000000000000, 0.09400000000000001410 ) ) ;
#239 = ADVANCED_FACE ( 'NONE', ( #195 ), #192, .T. ) ;
#240 = PRODUCT_DEFINITION_FORMATION_WITH_SPECIFIED_SOURCE ( 'ANY', '', #234, .NOT_KNOWN. ) ;
#241 = DIRECTION ( 'NONE',  ( -1.224646799147353454E-16, -0.0000000000000000000, -1.000000000000000000 ) ) ;
#242 = EDGE_CURVE ( 'NONE', #230, #185, #256, .T. ) ;
#243 = CARTESIAN_POINT ( 'NONE',  ( 0.04750000000000064587, 6.735557395310482421E-18, 1.500000000000000222 ) ) ;
#244 = STYLED_ITEM ( 'NONE', ( #129 ), #194 ) ;
#245 = CARTESIAN_POINT ( 'NONE',  ( 0.06250000000000000000, 7.654042494670956004E-18, 1.500000000000000222 ) ) ;
#246 = PRODUCT_DEFINITION_CONTEXT ( 'detailed design', #45, 'design' ) ;
#247 =( NAMED_UNIT ( * ) SI_UNIT ( $, .STERADIAN. ) SOLID_ANGLE_UNIT ( ) );
#248 = CARTESIAN_POINT ( 'NONE',  ( 0.0000000000000000000, 0.0000000000000000000, 1.500000000000000222 ) ) ;
#249 = APPLICATION_CONTEXT ( 'automotive_design' ) ;
#250 = DIRECTION ( 'NONE',  ( 1.000000000000000000, 0.0000000000000000000, 0.0000000000000000000 ) ) ;
#251 = VECTOR ( 'NONE', #58, 39.37007874015747433 ) ;
#252 = EDGE_LOOP ( 'NONE', ( #96, #63 ) ) ;
#253 = ORIENTED_EDGE ( 'NONE', *, *, #59, .T. ) ;
#254 = DIRECTION ( 'NONE',  ( -1.224646799147353454E-16, -0.0000000000000000000, -1.000000000000000000 ) ) ;
#255 = VERTEX_POINT ( 'NONE', #173 ) ;
#256 = CIRCLE ( 'NONE', #66, 0.06250000000000000000 ) ;
#257 = DIRECTION ( 'NONE',  ( 1.000000000000000000, 0.0000000000000000000, 0.0000000000000000000 ) ) ;
#258 = CONICAL_SURFACE ( 'NONE', #136, 0.02342654999999999391, 0.1745329251994338915 ) ;
#259 = DIRECTION ( 'NONE',  ( 1.224646799147353454E-16, 0.0000000000000000000, 1.000000000000000000 ) ) ;
#260 = ADVANCED_FACE ( 'NONE', ( #113 ), #267, .T. ) ;
#261 = VECTOR ( 'NONE', #75, 39.37007874015748143 ) ;
#262 = CARTESIAN_POINT ( 'NONE',  ( 0.0000000000000000000, 0.0000000000000000000, 1.485000000000000764 ) ) ;
#263 = DIRECTION ( 'NONE',  ( 1.000000000000000000, 0.0000000000000000000, -0.0000000000000000000 ) ) ;
#264 = AXIS2_PLACEMENT_3D ( 'NONE', #299, #254, #50 ) ;
#265 =( NAMED_UNIT ( * ) PLANE_ANGLE_UNIT ( ) SI_UNIT ( $, .RADIAN. ) );
#266 = DIRECTION ( 'NONE',  ( -0.0000000000000000000, -0.0000000000000000000, -1.000000000000000000 ) ) ;
#267 = CONICAL_SURFACE ( 'NONE', #280, 0.04750000000000064587, 0.7853981633974457255 ) ;
#268 = DIRECTION ( 'NONE',  ( 1.000000000000000000, 0.0000000000000000000, -0.0000000000000000000 ) ) ;
#269 = PRODUCT_CONTEXT ( 'NONE', #249, 'mechanical' ) ;
#270 = EDGE_CURVE ( 'NONE', #185, #230, #86, .T. ) ;
#271 = ORIENTED_EDGE ( 'NONE', *, *, #273, .T. ) ;
#272 = DIRECTION ( 'NONE',  ( 0.0000000000000000000, 0.0000000000000000000, 1.000000000000000000 ) ) ;
#273 = EDGE_CURVE ( 'NONE', #205, #230, #174, .T. ) ;
#274 = EDGE_LOOP ( 'NONE', ( #4, #2, #5, #117 ) ) ;
#275 = AXIS2_PLACEMENT_3D ( 'NONE', #23, #272, #250 ) ;
#276 = VERTEX_POINT ( 'NONE', #243 ) ;
#277 = EDGE_LOOP ( 'NONE', ( #178, #115, #99, #206 ) ) ;
#278 = ORIENTED_EDGE ( 'NONE', *, *, #17, .F. ) ;
#279 = FACE_OUTER_BOUND ( 'NONE', #53, .T. ) ;
#280 = AXIS2_PLACEMENT_3D ( 'NONE', #151, #292, #288 ) ;
#281 = DIRECTION ( 'NONE',  ( -1.224646799147353454E-16, -0.0000000000000000000, -1.000000000000000000 ) ) ;
#282 = CARTESIAN_POINT ( 'NONE',  ( -0.02342654999999999044, 0.0000000000000000000, 2.868924947256542179E-18 ) ) ;
#283 = CARTESIAN_POINT ( 'NONE',  ( 1.151167991198512393E-17, 0.0000000000000000000, 0.09400000000000001410 ) ) ;
#284 = CIRCLE ( 'NONE', #264, 0.02342654999999999391 ) ;
#285 = EDGE_CURVE ( 'NONE', #68, #276, #103, .T. ) ;
#286 = CARTESIAN_POINT ( 'NONE',  ( 0.06250000000000004163, 7.654042494670960626E-18, 0.3155965466147404586 ) ) ;
#287 = DIRECTION ( 'NONE',  ( 1.000000000000000000, 0.0000000000000000000, 0.0000000000000000000 ) ) ;
#288 = DIRECTION ( 'NONE',  ( -1.000000000000000000, 0.0000000000000000000, 0.0000000000000000000 ) ) ;
#289 = ORIENTED_EDGE ( 'NONE', *, *, #220, .F. ) ;
#290 = AXIS2_PLACEMENT_3D ( 'NONE', #248, #71, #138 ) ;
#291 = MECHANICAL_DESIGN_GEOMETRIC_PRESENTATION_REPRESENTATION (  '', ( #14 ), #33 ) ;
#292 = DIRECTION ( 'NONE',  ( 0.0000000000000000000, 0.0000000000000000000, -1.000000000000000000 ) ) ;
#293 = EDGE_CURVE ( 'NONE', #202, #185, #221, .T. ) ;
#294 = CARTESIAN_POINT ( 'NONE',  ( 0.0000000000000000000, 0.0000000000000000000, 1.500000000000000222 ) ) ;
#295 = EDGE_CURVE ( 'NONE', #198, #144, #298, .T. ) ;
#296 = AXIS2_PLACEMENT_3D ( 'NONE', #164, #55, #257 ) ;
#297 = ADVANCED_FACE ( 'NONE', ( #41 ), #84, .F. ) ;
#298 = CIRCLE ( 'NONE', #181, 0.02342654999999999044 ) ;
#299 = CARTESIAN_POINT ( 'NONE',  ( 1.151167991198512393E-17, 0.0000000000000000000, 0.09400000000000001410 ) ) ;
ENDSEC;
END-ISO-10303-21;
