ISO-10303-21;
HEADER;
FILE_DESCRIPTION (( 'STEP AP214' ),
    '1' );
FILE_NAME ('83756.STEP',
    '2023-07-05T19:23:53',
    ( '' ),
    ( '' ),
    'SwSTEP 2.0',
    'SolidWorks 2023',
    '' );
FILE_SCHEMA (( 'AUTOMOTIVE_DESIGN' ));
ENDSEC;

DATA;
#1 = MANIFOLD_SOLID_BREP ( 'Revolve - Tool Body (Straight Shanked)', #217 ) ;
#2 = SURFACE_STYLE_FILL_AREA ( #142 ) ;
#3 = LENGTH_MEASURE_WITH_UNIT ( LENGTH_MEASURE( 0.02539999999999999897 ), #252 );
#4 = CYLINDRICAL_SURFACE ( 'NONE', #38, 0.1874999999999999722 ) ;
#5 = EDGE_CURVE ( 'NONE', #14, #8, #270, .T. ) ;
#6 = ORIENTED_EDGE ( 'NONE', *, *, #165, .F. ) ;
#7 = PRESENTATION_STYLE_ASSIGNMENT (( #177 ) ) ;
#8 = VERTEX_POINT ( 'NONE', #288 ) ;
#9 = VECTOR ( 'NONE', #338, 39.37007874015748854 ) ;
#10 = ORIENTED_EDGE ( 'NONE', *, *, #95, .F. ) ;
#11 =( CONVERSION_BASED_UNIT ( 'INCH', #309 ) LENGTH_UNIT ( ) NAMED_UNIT ( #221 ) );
#12 = ORIENTED_EDGE ( 'NONE', *, *, #56, .T. ) ;
#13 = CARTESIAN_POINT ( 'NONE',  ( 0.1874999999999999722, 2.500000000000000000, 2.296212748401287109E-17 ) ) ;
#14 = VERTEX_POINT ( 'NONE', #312 ) ;
#15 = MECHANICAL_DESIGN_GEOMETRIC_PRESENTATION_REPRESENTATION (  '', ( #115 ), #311 ) ;
#16 =( GEOMETRIC_REPRESENTATION_CONTEXT ( 3 ) GLOBAL_UNCERTAINTY_ASSIGNED_CONTEXT ( ( #281 ) ) GLOBAL_UNIT_ASSIGNED_CONTEXT ( ( #106, #76, #294 ) ) REPRESENTATION_CONTEXT ( 'NONE', 'WORKASPACE' ) );
#17 =( NAMED_UNIT ( * ) PLANE_ANGLE_UNIT ( ) SI_UNIT ( $, .RADIAN. ) );
#18 = CARTESIAN_POINT ( 'NONE',  ( 2.296212748401286801E-17, 0.000000000000000000, 0.1874999999999999722 ) ) ;
#19 = ADVANCED_FACE ( 'NONE', ( #293 ), #245, .T. ) ;
#20 = DIRECTION ( 'NONE',  ( -0.000000000000000000, -1.000000000000000000, -0.000000000000000000 ) ) ;
#21 = DIRECTION ( 'NONE',  ( 1.000000000000000000, 0.000000000000000000, 0.000000000000000000 ) ) ;
#22 = DIRECTION ( 'NONE',  ( -1.585131781550686470E-16, 1.000000000000000000, -0.000000000000000000 ) ) ;
#23 = FILL_AREA_STYLE ('',( #348 ) ) ;
#24 = FACE_OUTER_BOUND ( 'NONE', #119, .T. ) ;
#25 = SURFACE_SIDE_STYLE ('',( #164 ) ) ;
#26 = CIRCLE ( 'NONE', #148, 0.1874999999999997780 ) ;
#27 = PRESENTATION_LAYER_ASSIGNMENT (  '', '', ( #323 ) ) ;
#28 = CARTESIAN_POINT ( 'NONE',  ( 0.000000000000000000, 0.8750000000000000000, 0.000000000000000000 ) ) ;
#29 = DIRECTION ( 'NONE',  ( -1.585131781550686470E-16, 1.000000000000000000, -0.000000000000000000 ) ) ;
#30 =( NAMED_UNIT ( * ) SI_UNIT ( $, .STERADIAN. ) SOLID_ANGLE_UNIT ( ) );
#31 = AXIS2_PLACEMENT_3D ( 'NONE', #97, #39, #21 ) ;
#32 = PRESENTATION_STYLE_ASSIGNMENT (( #349 ) ) ;
#33 = PRESENTATION_LAYER_ASSIGNMENT (  '', '', ( #332 ) ) ;
#34 = ORIENTED_EDGE ( 'NONE', *, *, #307, .F. ) ;
#35 = ORIENTED_EDGE ( 'NONE', *, *, #173, .T. ) ;
#36 = UNCERTAINTY_MEASURE_WITH_UNIT (LENGTH_MEASURE( 1.000000000000000082E-05 ), #159, 'distance_accuracy_value', 'NONE');
#37 = CARTESIAN_POINT ( 'NONE',  ( -6.123233995736764803E-17, 2.500000000000000000, 0.000000000000000000 ) ) ;
#38 = AXIS2_PLACEMENT_3D ( 'NONE', #321, #324, #175 ) ;
#39 = DIRECTION ( 'NONE',  ( 0.000000000000000000, 0.000000000000000000, 1.000000000000000000 ) ) ;
#40 = ORIENTED_EDGE ( 'NONE', *, *, #303, .T. ) ;
#41 = AXIS2_PLACEMENT_3D ( 'NONE', #220, #29, #277 ) ;
#42 =( CONVERSION_BASED_UNIT ( 'INCH', #202 ) LENGTH_UNIT ( ) NAMED_UNIT ( #196 ) );
#43 = DIRECTION ( 'NONE',  ( -1.585131781550686470E-16, 1.000000000000000000, 0.000000000000000000 ) ) ;
#44 = APPLICATION_CONTEXT ( 'automotive_design' ) ;
#45 = LENGTH_MEASURE_WITH_UNIT ( LENGTH_MEASURE( 0.02539999999999999897 ), #158 );
#46 = PRESENTATION_STYLE_ASSIGNMENT (( #287 ) ) ;
#47 = CIRCLE ( 'NONE', #236, 0.1875000000000000555 ) ;
#48 = VERTEX_POINT ( 'NONE', #70 ) ;
#49 = CARTESIAN_POINT ( 'NONE',  ( 1.963515745446189373E-16, 0.8749999999999997780, 0.000000000000000000 ) ) ;
#50 = DIRECTION ( 'NONE',  ( -1.000000000000000000, 0.000000000000000000, 0.000000000000000000 ) ) ;
#51 = CARTESIAN_POINT ( 'NONE',  ( 0.000000000000000000, 0.1874999999999993339, 0.000000000000000000 ) ) ;
#52 = FACE_OUTER_BOUND ( 'NONE', #257, .T. ) ;
#53 = COLOUR_RGB ( '',1.000000000000000000, 0.000000000000000000, 0.000000000000000000 ) ;
#54 = CIRCLE ( 'NONE', #184, 0.1875000000000000555 ) ;
#55 =( NAMED_UNIT ( * ) PLANE_ANGLE_UNIT ( ) SI_UNIT ( $, .RADIAN. ) );
#56 = EDGE_CURVE ( 'NONE', #125, #8, #108, .T. ) ;
#57 = SURFACE_STYLE_USAGE ( .BOTH. , #145 ) ;
#58 = DIMENSIONAL_EXPONENTS ( 1.000000000000000000, 0.000000000000000000, 0.000000000000000000, 0.000000000000000000, 0.000000000000000000, 0.000000000000000000, 0.000000000000000000 ) ;
#59 = STYLED_ITEM ( 'NONE', ( #296 ), #240 ) ;
#60 = CARTESIAN_POINT ( 'NONE',  ( 0.000000000000000000, 0.000000000000000000, 0.000000000000000000 ) ) ;
#61 = MECHANICAL_DESIGN_GEOMETRIC_PRESENTATION_REPRESENTATION (  '', ( #161 ), #129 ) ;
#62 = PRESENTATION_LAYER_ASSIGNMENT (  '', '', ( #162 ) ) ;
#63 = LINE ( 'NONE', #18, #153 ) ;
#64 = ADVANCED_FACE ( 'NONE', ( #238 ), #272, .T. ) ;
#65 = DIRECTION ( 'NONE',  ( -1.585131781550686470E-16, 1.000000000000000000, -0.000000000000000000 ) ) ;
#66 = ORIENTED_EDGE ( 'NONE', *, *, #5, .T. ) ;
#67 = COLOUR_RGB ( '',1.000000000000000000, 0.000000000000000000, 0.000000000000000000 ) ;
#68 =( LENGTH_UNIT ( ) NAMED_UNIT ( * ) SI_UNIT ( $, .METRE. ) );
#69 =( NAMED_UNIT ( * ) SI_UNIT ( $, .STERADIAN. ) SOLID_ANGLE_UNIT ( ) );
#70 = CARTESIAN_POINT ( 'NONE',  ( -0.1875000000000001110, 2.500000000000000000, 0.000000000000000000 ) ) ;
#71 = DIRECTION ( 'NONE',  ( -1.000000000000000000, 0.000000000000000000, 0.000000000000000000 ) ) ;
#72 = AXIS2_PLACEMENT_3D ( 'NONE', #170, #20, #237 ) ;
#73 = PRESENTATION_STYLE_ASSIGNMENT (( #139 ) ) ;
#74 = CYLINDRICAL_SURFACE ( 'NONE', #109, 0.1874999999999999722 ) ;
#75 = ORIENTED_EDGE ( 'NONE', *, *, #103, .F. ) ;
#76 =( NAMED_UNIT ( * ) PLANE_ANGLE_UNIT ( ) SI_UNIT ( $, .RADIAN. ) );
#77 = DIRECTION ( 'NONE',  ( -0.000000000000000000, -1.000000000000000000, -0.000000000000000000 ) ) ;
#78 = EDGE_CURVE ( 'NONE', #213, #125, #86, .T. ) ;
#79 = FACE_OUTER_BOUND ( 'NONE', #205, .T. ) ;
#80 = FILL_AREA_STYLE ('',( #350 ) ) ;
#81 = EDGE_CURVE ( 'NONE', #333, #125, #63, .T. ) ;
#82 =( CONVERSION_BASED_UNIT ( 'INCH', #3 ) LENGTH_UNIT ( ) NAMED_UNIT ( #85 ) );
#83 = CIRCLE ( 'NONE', #72, 0.1874999999999999722 ) ;
#84 = SURFACE_STYLE_FILL_AREA ( #80 ) ;
#85 = DIMENSIONAL_EXPONENTS ( 1.000000000000000000, 0.000000000000000000, 0.000000000000000000, 0.000000000000000000, 0.000000000000000000, 0.000000000000000000, 0.000000000000000000 ) ;
#86 = LINE ( 'NONE', #278, #9 ) ;
#87 = ORIENTED_EDGE ( 'NONE', *, *, #180, .F. ) ;
#88 = ORIENTED_EDGE ( 'NONE', *, *, #5, .F. ) ;
#89 = VECTOR ( 'NONE', #275, 39.37007874015748854 ) ;
#90 = DIRECTION ( 'NONE',  ( -1.585131781550686470E-16, 1.000000000000000000, -0.000000000000000000 ) ) ;
#91 = ADVANCED_FACE ( 'NONE', ( #24 ), #169, .T. ) ;
#92 = EDGE_LOOP ( 'NONE', ( #208, #228, #66, #199 ) ) ;
#93 = ORIENTED_EDGE ( 'NONE', *, *, #173, .F. ) ;
#94 = EDGE_LOOP ( 'NONE', ( #345, #302, #182, #6 ) ) ;
#95 = EDGE_CURVE ( 'NONE', #48, #155, #47, .T. ) ;
#96 = PRESENTATION_LAYER_ASSIGNMENT (  '', '', ( #59 ) ) ;
#97 = CARTESIAN_POINT ( 'NONE',  ( 0.000000000000000000, 0.000000000000000000, 0.000000000000000000 ) ) ;
#98 = LENGTH_MEASURE_WITH_UNIT ( LENGTH_MEASURE( 0.02539999999999999897 ), #187 );
#99 = SURFACE_STYLE_USAGE ( .BOTH. , #290 ) ;
#100 = DIRECTION ( 'NONE',  ( -1.585131781550686470E-16, 1.000000000000000000, -0.000000000000000000 ) ) ;
#101 = FILL_AREA_STYLE_COLOUR ( '', #260 ) ;
#102 = SURFACE_STYLE_FILL_AREA ( #344 ) ;
#103 = EDGE_CURVE ( 'NONE', #232, #48, #336, .T. ) ;
#104 = COLOUR_RGB ( '',1.000000000000000000, 0.000000000000000000, 0.000000000000000000 ) ;
#105 = DIRECTION ( 'NONE',  ( -0.000000000000000000, -1.000000000000000000, -0.000000000000000000 ) ) ;
#106 =( CONVERSION_BASED_UNIT ( 'INCH', #98 ) LENGTH_UNIT ( ) NAMED_UNIT ( #327 ) );
#107 =( NAMED_UNIT ( * ) PLANE_ANGLE_UNIT ( ) SI_UNIT ( $, .RADIAN. ) );
#108 = CIRCLE ( 'NONE', #209, 0.1874999999999999722 ) ;
#109 = AXIS2_PLACEMENT_3D ( 'NONE', #60, #250, #280 ) ;
#110 = LENGTH_MEASURE_WITH_UNIT ( LENGTH_MEASURE( 0.02539999999999999897 ), #141 );
#111 = ADVANCED_FACE ( 'NONE', ( #265 ), #206, .F. ) ;
#112 = FILL_AREA_STYLE_COLOUR ( '', #104 ) ;
#113 = CARTESIAN_POINT ( 'NONE',  ( 0.000000000000000000, 0.8750000000000000000, 0.000000000000000000 ) ) ;
#114 = PRODUCT_DEFINITION_CONTEXT ( 'detailed design', #297, 'design' ) ;
#115 = STYLED_ITEM ( 'NONE', ( #73 ), #64 ) ;
#116 = FACE_OUTER_BOUND ( 'NONE', #94, .T. ) ;
#117 = STYLED_ITEM ( 'NONE', ( #46 ), #253 ) ;
#118 = PRODUCT_DEFINITION_FORMATION_WITH_SPECIFIED_SOURCE ( 'ANY', '', #273, .NOT_KNOWN. ) ;
#119 = EDGE_LOOP ( 'NONE', ( #151, #35, #147 ) ) ;
#120 = ORIENTED_EDGE ( 'NONE', *, *, #247, .T. ) ;
#121 = PRODUCT_RELATED_PRODUCT_CATEGORY ( 'part', '', ( #273 ) ) ;
#122 = DIRECTION ( 'NONE',  ( 0.000000000000000000, 1.000000000000000000, 0.000000000000000000 ) ) ;
#123 = ORIENTED_EDGE ( 'NONE', *, *, #95, .T. ) ;
#124 =( NAMED_UNIT ( * ) PLANE_ANGLE_UNIT ( ) SI_UNIT ( $, .RADIAN. ) );
#125 = VERTEX_POINT ( 'NONE', #154 ) ;
#126 =( NAMED_UNIT ( * ) SI_UNIT ( $, .STERADIAN. ) SOLID_ANGLE_UNIT ( ) );
#127 =( NAMED_UNIT ( * ) PLANE_ANGLE_UNIT ( ) SI_UNIT ( $, .RADIAN. ) );
#128 = CARTESIAN_POINT ( 'NONE',  ( 0.1874999999999999722, 2.500000000000000000, 0.000000000000000000 ) ) ;
#129 =( GEOMETRIC_REPRESENTATION_CONTEXT ( 3 ) GLOBAL_UNCERTAINTY_ASSIGNED_CONTEXT ( ( #156 ) ) GLOBAL_UNIT_ASSIGNED_CONTEXT ( ( #167, #127, #168 ) ) REPRESENTATION_CONTEXT ( 'NONE', 'WORKASPACE' ) );
#130 = AXIS2_PLACEMENT_3D ( 'NONE', #128, #347, #133 ) ;
#131 =( NAMED_UNIT ( * ) PLANE_ANGLE_UNIT ( ) SI_UNIT ( $, .RADIAN. ) );
#132 = COLOUR_RGB ( '',1.000000000000000000, 0.000000000000000000, 0.000000000000000000 ) ;
#133 = DIRECTION ( 'NONE',  ( 1.000000000000000000, 1.585131781550686470E-16, 0.000000000000000000 ) ) ;
#134 =( NAMED_UNIT ( * ) PLANE_ANGLE_UNIT ( ) SI_UNIT ( $, .RADIAN. ) );
#135 = DIRECTION ( 'NONE',  ( 0.000000000000000000, 0.000000000000000000, -1.000000000000000000 ) ) ;
#136 = LENGTH_MEASURE_WITH_UNIT ( LENGTH_MEASURE( 0.02539999999999999897 ), #337 );
#137 = CARTESIAN_POINT ( 'NONE',  ( 1.963515745446189373E-16, 0.8749999999999997780, 0.000000000000000000 ) ) ;
#138 = CIRCLE ( 'NONE', #283, 0.1874999999999999722 ) ;
#139 = SURFACE_STYLE_USAGE ( .BOTH. , #25 ) ;
#140 = AXIS2_PLACEMENT_3D ( 'NONE', #194, #212, #181 ) ;
#141 =( LENGTH_UNIT ( ) NAMED_UNIT ( * ) SI_UNIT ( $, .METRE. ) );
#142 = FILL_AREA_STYLE ('',( #112 ) ) ;
#143 =( GEOMETRIC_REPRESENTATION_CONTEXT ( 3 ) GLOBAL_UNCERTAINTY_ASSIGNED_CONTEXT ( ( #226 ) ) GLOBAL_UNIT_ASSIGNED_CONTEXT ( ( #219, #55, #171 ) ) REPRESENTATION_CONTEXT ( 'NONE', 'WORKASPACE' ) );
#144 = CYLINDRICAL_SURFACE ( 'NONE', #41, 0.1874999999999999167 ) ;
#145 = SURFACE_SIDE_STYLE ('',( #84 ) ) ;
#146 = UNCERTAINTY_MEASURE_WITH_UNIT (LENGTH_MEASURE( 1.000000000000000082E-05 ), #174, 'distance_accuracy_value', 'NONE');
#147 = ORIENTED_EDGE ( 'NONE', *, *, #234, .T. ) ;
#148 = AXIS2_PLACEMENT_3D ( 'NONE', #137, #22, #71 ) ;
#149 =( GEOMETRIC_REPRESENTATION_CONTEXT ( 3 ) GLOBAL_UNCERTAINTY_ASSIGNED_CONTEXT ( ( #301 ) ) GLOBAL_UNIT_ASSIGNED_CONTEXT ( ( #82, #17, #69 ) ) REPRESENTATION_CONTEXT ( 'NONE', 'WORKASPACE' ) );
#150 = ORIENTED_EDGE ( 'NONE', *, *, #234, .F. ) ;
#151 = ORIENTED_EDGE ( 'NONE', *, *, #78, .F. ) ;
#152 = SURFACE_STYLE_FILL_AREA ( #258 ) ;
#153 = VECTOR ( 'NONE', #271, 39.37007874015748143 ) ;
#154 = CARTESIAN_POINT ( 'NONE',  ( 2.296212748401286801E-17, 0.1874999999999993339, 0.1874999999999999722 ) ) ;
#155 = VERTEX_POINT ( 'NONE', #13 ) ;
#156 = UNCERTAINTY_MEASURE_WITH_UNIT (LENGTH_MEASURE( 1.000000000000000082E-05 ), #167, 'distance_accuracy_value', 'NONE');
#157 = DIRECTION ( 'NONE',  ( 0.000000000000000000, 1.000000000000000000, 0.000000000000000000 ) ) ;
#158 =( LENGTH_UNIT ( ) NAMED_UNIT ( * ) SI_UNIT ( $, .METRE. ) );
#159 =( CONVERSION_BASED_UNIT ( 'INCH', #45 ) LENGTH_UNIT ( ) NAMED_UNIT ( #300 ) );
#160 = CARTESIAN_POINT ( 'NONE',  ( 0.000000000000000000, 0.000000000000000000, 0.000000000000000000 ) ) ;
#161 = STYLED_ITEM ( 'NONE', ( #216 ), #1 ) ;
#162 = STYLED_ITEM ( 'NONE', ( #7 ), #91 ) ;
#163 =( NAMED_UNIT ( * ) SI_UNIT ( $, .STERADIAN. ) SOLID_ANGLE_UNIT ( ) );
#164 = SURFACE_STYLE_FILL_AREA ( #23 ) ;
#165 = EDGE_CURVE ( 'NONE', #155, #48, #54, .T. ) ;
#166 = DIRECTION ( 'NONE',  ( -1.000000000000000000, 0.000000000000000000, 0.000000000000000000 ) ) ;
#167 =( CONVERSION_BASED_UNIT ( 'INCH', #136 ) LENGTH_UNIT ( ) NAMED_UNIT ( #58 ) );
#168 =( NAMED_UNIT ( * ) SI_UNIT ( $, .STERADIAN. ) SOLID_ANGLE_UNIT ( ) );
#169 = CONICAL_SURFACE ( 'NONE', #346, 39.37007874015762354, 0.7853981633974500554 ) ;
#170 = CARTESIAN_POINT ( 'NONE',  ( 0.000000000000000000, 0.1874999999999993339, 0.000000000000000000 ) ) ;
#171 =( NAMED_UNIT ( * ) SI_UNIT ( $, .STERADIAN. ) SOLID_ANGLE_UNIT ( ) );
#172 = MECHANICAL_DESIGN_GEOMETRIC_PRESENTATION_REPRESENTATION (  '', ( #162 ), #322 ) ;
#173 = EDGE_CURVE ( 'NONE', #213, #8, #244, .T. ) ;
#174 =( CONVERSION_BASED_UNIT ( 'INCH', #110 ) LENGTH_UNIT ( ) NAMED_UNIT ( #251 ) );
#175 = DIRECTION ( 'NONE',  ( 0.000000000000000000, 0.000000000000000000, -1.000000000000000000 ) ) ;
#176 = MECHANICAL_DESIGN_GEOMETRIC_PRESENTATION_REPRESENTATION (  '', ( #117 ), #143 ) ;
#177 = SURFACE_STYLE_USAGE ( .BOTH. , #284 ) ;
#178 = MECHANICAL_DESIGN_GEOMETRIC_PRESENTATION_REPRESENTATION (  '', ( #323 ), #149 ) ;
#179 = FILL_AREA_STYLE_COLOUR ( '', #328 ) ;
#180 = EDGE_CURVE ( 'NONE', #310, #232, #26, .T. ) ;
#181 = DIRECTION ( 'NONE',  ( 0.000000000000000000, 0.000000000000000000, 1.000000000000000000 ) ) ;
#182 = ORIENTED_EDGE ( 'NONE', *, *, #103, .T. ) ;
#183 = VECTOR ( 'NONE', #190, 39.37007874015748143 ) ;
#184 = AXIS2_PLACEMENT_3D ( 'NONE', #263, #100, #50 ) ;
#185 = DIRECTION ( 'NONE',  ( -1.585131781550686470E-16, 1.000000000000000000, -0.000000000000000000 ) ) ;
#186 = EDGE_CURVE ( 'NONE', #232, #310, #305, .T. ) ;
#187 =( LENGTH_UNIT ( ) NAMED_UNIT ( * ) SI_UNIT ( $, .METRE. ) );
#188 = MECHANICAL_DESIGN_GEOMETRIC_PRESENTATION_REPRESENTATION (  '', ( #332 ), #316 ) ;
#189 =( LENGTH_UNIT ( ) NAMED_UNIT ( * ) SI_UNIT ( $, .METRE. ) );
#190 = DIRECTION ( 'NONE',  ( -0.000000000000000000, -1.000000000000000000, -0.000000000000000000 ) ) ;
#191 = PRODUCT_DEFINITION ( 'UNKNOWN', '', #118, #114 ) ;
#192 = DIRECTION ( 'NONE',  ( -1.585131781550686470E-16, 1.000000000000000000, -0.000000000000000000 ) ) ;
#193 = DIRECTION ( 'NONE',  ( -0.000000000000000000, -1.000000000000000000, -0.000000000000000000 ) ) ;
#194 = CARTESIAN_POINT ( 'NONE',  ( 0.000000000000000000, 39.37007874015748143, 0.000000000000000000 ) ) ;
#195 = CARTESIAN_POINT ( 'NONE',  ( -6.123233995736766036E-17, 2.500000000000000000, 0.000000000000000000 ) ) ;
#196 = DIMENSIONAL_EXPONENTS ( 1.000000000000000000, 0.000000000000000000, 0.000000000000000000, 0.000000000000000000, 0.000000000000000000, 0.000000000000000000, 0.000000000000000000 ) ;
#197 = PRESENTATION_STYLE_ASSIGNMENT (( #57 ) ) ;
#198 = DIRECTION ( 'NONE',  ( 0.000000000000000000, -0.000000000000000000, 1.000000000000000000 ) ) ;
#199 = ORIENTED_EDGE ( 'NONE', *, *, #56, .F. ) ;
#200 =( NAMED_UNIT ( * ) SI_UNIT ( $, .STERADIAN. ) SOLID_ANGLE_UNIT ( ) );
#201 = AXIS2_PLACEMENT_3D ( 'NONE', #285, #43, #330 ) ;
#202 = LENGTH_MEASURE_WITH_UNIT ( LENGTH_MEASURE( 0.02539999999999999897 ), #68 );
#203 = ORIENTED_EDGE ( 'NONE', *, *, #186, .F. ) ;
#204 = CARTESIAN_POINT ( 'NONE',  ( -0.1874999999999999722, 2.500000000000000000, 0.000000000000000000 ) ) ;
#205 = EDGE_LOOP ( 'NONE', ( #93, #266, #12 ) ) ;
#206 = PLANE ( 'NONE',  #201 ) ;
#207 =( LENGTH_UNIT ( ) NAMED_UNIT ( * ) SI_UNIT ( $, .METRE. ) );
#208 = ORIENTED_EDGE ( 'NONE', *, *, #81, .F. ) ;
#209 = AXIS2_PLACEMENT_3D ( 'NONE', #51, #105, #135 ) ;
#210 = AXIS2_PLACEMENT_3D ( 'NONE', #28, #193, #276 ) ;
#211 = APPLICATION_PROTOCOL_DEFINITION ( 'draft international standard', 'automotive_design', 1998, #44 ) ;
#212 = DIRECTION ( 'NONE',  ( 0.000000000000000000, 1.000000000000000000, 0.000000000000000000 ) ) ;
#213 = VERTEX_POINT ( 'NONE', #292 ) ;
#214 = SURFACE_STYLE_FILL_AREA ( #269 ) ;
#215 = PRODUCT_CONTEXT ( 'NONE', #44, 'mechanical' ) ;
#216 = PRESENTATION_STYLE_ASSIGNMENT (( #99 ) ) ;
#217 = CLOSED_SHELL ( 'NONE', ( #19, #111, #291, #231 ) ) ;
#218 = CARTESIAN_POINT ( 'NONE',  ( 0.1874999999999998335, 2.500000000000000000, 2.296212748401286185E-17 ) ) ;
#219 =( CONVERSION_BASED_UNIT ( 'INCH', #246 ) LENGTH_UNIT ( ) NAMED_UNIT ( #222 ) );
#220 = CARTESIAN_POINT ( 'NONE',  ( -6.123233995736766036E-17, 2.500000000000000000, 0.000000000000000000 ) ) ;
#221 = DIMENSIONAL_EXPONENTS ( 1.000000000000000000, 0.000000000000000000, 0.000000000000000000, 0.000000000000000000, 0.000000000000000000, 0.000000000000000000, 0.000000000000000000 ) ;
#222 = DIMENSIONAL_EXPONENTS ( 1.000000000000000000, 0.000000000000000000, 0.000000000000000000, 0.000000000000000000, 0.000000000000000000, 0.000000000000000000, 0.000000000000000000 ) ;
#223 = MECHANICAL_DESIGN_GEOMETRIC_PRESENTATION_REPRESENTATION (  '', ( #59 ), #16 ) ;
#224 = CARTESIAN_POINT ( 'NONE',  ( 0.000000000000000000, 0.8750000000000000000, 0.000000000000000000 ) ) ;
#225 =( GEOMETRIC_REPRESENTATION_CONTEXT ( 3 ) GLOBAL_UNCERTAINTY_ASSIGNED_CONTEXT ( ( #254 ) ) GLOBAL_UNIT_ASSIGNED_CONTEXT ( ( #11, #134, #163 ) ) REPRESENTATION_CONTEXT ( 'NONE', 'WORKASPACE' ) );
#226 = UNCERTAINTY_MEASURE_WITH_UNIT (LENGTH_MEASURE( 1.000000000000000082E-05 ), #219, 'distance_accuracy_value', 'NONE');
#227 = ORIENTED_EDGE ( 'NONE', *, *, #303, .F. ) ;
#228 = ORIENTED_EDGE ( 'NONE', *, *, #307, .T. ) ;
#229 = ORIENTED_EDGE ( 'NONE', *, *, #165, .T. ) ;
#230 = CARTESIAN_POINT ( 'NONE',  ( 0.000000000000000000, 39.37007874015748143, 0.000000000000000000 ) ) ;
#231 = ADVANCED_FACE ( 'NONE', ( #267 ), #317, .F. ) ;
#232 = VERTEX_POINT ( 'NONE', #239 ) ;
#233 = SURFACE_STYLE_FILL_AREA ( #268 ) ;
#234 = EDGE_CURVE ( 'NONE', #8, #125, #83, .T. ) ;
#235 = CLOSED_SHELL ( 'NONE', ( #91, #253, #64, #259, #326 ) ) ;
#236 = AXIS2_PLACEMENT_3D ( 'NONE', #37, #90, #334 ) ;
#237 = DIRECTION ( 'NONE',  ( 0.000000000000000000, 0.000000000000000000, -1.000000000000000000 ) ) ;
#238 = FACE_OUTER_BOUND ( 'NONE', #261, .T. ) ;
#239 = CARTESIAN_POINT ( 'NONE',  ( -0.1874999999999995837, 0.8749999999999997780, 0.000000000000000000 ) ) ;
#240 = MANIFOLD_SOLID_BREP ( 'Revolve - Cutting Edge', #235 ) ;
#241 = ORIENTED_EDGE ( 'NONE', *, *, #186, .T. ) ;
#242 = LINE ( 'NONE', #218, #279 ) ;
#243 = DIRECTION ( 'NONE',  ( -1.585131781550686470E-16, 1.000000000000000000, -0.000000000000000000 ) ) ;
#244 = LINE ( 'NONE', #160, #89 ) ;
#245 = CYLINDRICAL_SURFACE ( 'NONE', #320, 0.1874999999999999167 ) ;
#246 = LENGTH_MEASURE_WITH_UNIT ( LENGTH_MEASURE( 0.02539999999999999897 ), #189 );
#247 = EDGE_CURVE ( 'NONE', #310, #155, #242, .T. ) ;
#248 = COLOUR_RGB ( '',0.7921568627450980005, 0.8196078431372548767, 0.9333333333333333481 ) ;
#249 = ADVANCED_BREP_SHAPE_REPRESENTATION ( '83756', ( #240, #1, #31 ), #225 ) ;
#250 = DIRECTION ( 'NONE',  ( -0.000000000000000000, -1.000000000000000000, -0.000000000000000000 ) ) ;
#251 = DIMENSIONAL_EXPONENTS ( 1.000000000000000000, 0.000000000000000000, 0.000000000000000000, 0.000000000000000000, 0.000000000000000000, 0.000000000000000000, 0.000000000000000000 ) ;
#252 =( LENGTH_UNIT ( ) NAMED_UNIT ( * ) SI_UNIT ( $, .METRE. ) );
#253 = ADVANCED_FACE ( 'NONE', ( #52 ), #74, .T. ) ;
#254 = UNCERTAINTY_MEASURE_WITH_UNIT (LENGTH_MEASURE( 1.000000000000000082E-05 ), #11, 'distance_accuracy_value', 'NONE');
#255 = SURFACE_SIDE_STYLE ('',( #2 ) ) ;
#256 = EDGE_LOOP ( 'NONE', ( #203, #87 ) ) ;
#257 = EDGE_LOOP ( 'NONE', ( #40, #343, #150, #88 ) ) ;
#258 = FILL_AREA_STYLE ('',( #179 ) ) ;
#259 = ADVANCED_FACE ( 'NONE', ( #298 ), #4, .T. ) ;
#260 = COLOUR_RGB ( '',0.7921568627450980005, 0.8196078431372548767, 0.9333333333333333481 ) ;
#261 = EDGE_LOOP ( 'NONE', ( #227, #34 ) ) ;
#262 = UNCERTAINTY_MEASURE_WITH_UNIT (LENGTH_MEASURE( 1.000000000000000082E-05 ), #42, 'distance_accuracy_value', 'NONE');
#263 = CARTESIAN_POINT ( 'NONE',  ( -6.123233995736764803E-17, 2.500000000000000000, 0.000000000000000000 ) ) ;
#264 = CIRCLE ( 'NONE', #210, 0.1874999999999999722 ) ;
#265 = FACE_OUTER_BOUND ( 'NONE', #256, .T. ) ;
#266 = ORIENTED_EDGE ( 'NONE', *, *, #78, .T. ) ;
#267 = FACE_OUTER_BOUND ( 'NONE', #335, .T. ) ;
#268 = FILL_AREA_STYLE ('',( #101 ) ) ;
#269 = FILL_AREA_STYLE ('',( #341 ) ) ;
#270 = LINE ( 'NONE', #318, #183 ) ;
#271 = DIRECTION ( 'NONE',  ( -0.000000000000000000, -1.000000000000000000, -0.000000000000000000 ) ) ;
#272 = PLANE ( 'NONE',  #299 ) ;
#273 = PRODUCT ( '83756', '83756', '', ( #215 ) ) ;
#274 = SURFACE_SIDE_STYLE ('',( #102 ) ) ;
#275 = DIRECTION ( 'NONE',  ( 8.659560562354947649E-17, 0.7071067811865462405, -0.7071067811865486830 ) ) ;
#276 = DIRECTION ( 'NONE',  ( 0.000000000000000000, 0.000000000000000000, -1.000000000000000000 ) ) ;
#277 = DIRECTION ( 'NONE',  ( -1.000000000000000000, 0.000000000000000000, 0.000000000000000000 ) ) ;
#278 = CARTESIAN_POINT ( 'NONE',  ( 0.000000000000000000, 0.000000000000000000, 0.000000000000000000 ) ) ;
#279 = VECTOR ( 'NONE', #192, 39.37007874015748143 ) ;
#280 = DIRECTION ( 'NONE',  ( 0.000000000000000000, 0.000000000000000000, -1.000000000000000000 ) ) ;
#281 = UNCERTAINTY_MEASURE_WITH_UNIT (LENGTH_MEASURE( 1.000000000000000082E-05 ), #106, 'distance_accuracy_value', 'NONE');
#282 = AXIS2_PLACEMENT_3D ( 'NONE', #49, #185, #166 ) ;
#283 = AXIS2_PLACEMENT_3D ( 'NONE', #224, #77, #329 ) ;
#284 = SURFACE_SIDE_STYLE ('',( #152 ) ) ;
#285 = CARTESIAN_POINT ( 'NONE',  ( 1.963515745446189127E-16, 0.8750000000000000000, 0.000000000000000000 ) ) ;
#286 = CARTESIAN_POINT ( 'NONE',  ( 2.296212748401286801E-17, 0.8750000000000000000, 0.1874999999999999722 ) ) ;
#287 = SURFACE_STYLE_USAGE ( .BOTH. , #274 ) ;
#288 = CARTESIAN_POINT ( 'NONE',  ( 0.000000000000000000, 0.1874999999999993339, -0.1874999999999999722 ) ) ;
#289 = PRESENTATION_LAYER_ASSIGNMENT (  '', '', ( #117 ) ) ;
#290 = SURFACE_SIDE_STYLE ('',( #233 ) ) ;
#291 = ADVANCED_FACE ( 'NONE', ( #116 ), #144, .T. ) ;
#292 = CARTESIAN_POINT ( 'NONE',  ( 0.000000000000000000, 0.000000000000000000, 0.000000000000000000 ) ) ;
#293 = FACE_OUTER_BOUND ( 'NONE', #306, .T. ) ;
#294 =( NAMED_UNIT ( * ) SI_UNIT ( $, .STERADIAN. ) SOLID_ANGLE_UNIT ( ) );
#295 = PRODUCT_DEFINITION_SHAPE ( 'NONE', 'NONE',  #191 ) ;
#296 = PRESENTATION_STYLE_ASSIGNMENT (( #313 ) ) ;
#297 = APPLICATION_CONTEXT ( 'automotive_design' ) ;
#298 = FACE_OUTER_BOUND ( 'NONE', #92, .T. ) ;
#299 = AXIS2_PLACEMENT_3D ( 'NONE', #113, #122, #198 ) ;
#300 = DIMENSIONAL_EXPONENTS ( 1.000000000000000000, 0.000000000000000000, 0.000000000000000000, 0.000000000000000000, 0.000000000000000000, 0.000000000000000000, 0.000000000000000000 ) ;
#301 = UNCERTAINTY_MEASURE_WITH_UNIT (LENGTH_MEASURE( 1.000000000000000082E-05 ), #82, 'distance_accuracy_value', 'NONE');
#302 = ORIENTED_EDGE ( 'NONE', *, *, #180, .T. ) ;
#303 = EDGE_CURVE ( 'NONE', #14, #333, #138, .T. ) ;
#304 = PRESENTATION_LAYER_ASSIGNMENT (  '', '', ( #161 ) ) ;
#305 = CIRCLE ( 'NONE', #282, 0.1874999999999997780 ) ;
#306 = EDGE_LOOP ( 'NONE', ( #241, #120, #10, #75 ) ) ;
#307 = EDGE_CURVE ( 'NONE', #333, #14, #264, .T. ) ;
#308 = PRESENTATION_LAYER_ASSIGNMENT (  '', '', ( #115 ) ) ;
#309 = LENGTH_MEASURE_WITH_UNIT ( LENGTH_MEASURE( 0.02539999999999999897 ), #207 );
#310 = VERTEX_POINT ( 'NONE', #325 ) ;
#311 =( GEOMETRIC_REPRESENTATION_CONTEXT ( 3 ) GLOBAL_UNCERTAINTY_ASSIGNED_CONTEXT ( ( #36 ) ) GLOBAL_UNIT_ASSIGNED_CONTEXT ( ( #159, #131, #200 ) ) REPRESENTATION_CONTEXT ( 'NONE', 'WORKASPACE' ) );
#312 = CARTESIAN_POINT ( 'NONE',  ( 0.000000000000000000, 0.8750000000000000000, -0.1874999999999999722 ) ) ;
#313 = SURFACE_STYLE_USAGE ( .BOTH. , #339 ) ;
#314 = SHAPE_DEFINITION_REPRESENTATION ( #295, #249 ) ;
#315 = DIRECTION ( 'NONE',  ( -1.000000000000000000, 0.000000000000000000, 0.000000000000000000 ) ) ;
#316 =( GEOMETRIC_REPRESENTATION_CONTEXT ( 3 ) GLOBAL_UNCERTAINTY_ASSIGNED_CONTEXT ( ( #146 ) ) GLOBAL_UNIT_ASSIGNED_CONTEXT ( ( #174, #107, #30 ) ) REPRESENTATION_CONTEXT ( 'NONE', 'WORKASPACE' ) );
#317 = PLANE ( 'NONE',  #130 ) ;
#318 = CARTESIAN_POINT ( 'NONE',  ( 0.000000000000000000, 0.000000000000000000, -0.1874999999999999722 ) ) ;
#319 = FILL_AREA_STYLE_COLOUR ( '', #67 ) ;
#320 = AXIS2_PLACEMENT_3D ( 'NONE', #195, #243, #315 ) ;
#321 = CARTESIAN_POINT ( 'NONE',  ( 0.000000000000000000, 0.000000000000000000, 0.000000000000000000 ) ) ;
#322 =( GEOMETRIC_REPRESENTATION_CONTEXT ( 3 ) GLOBAL_UNCERTAINTY_ASSIGNED_CONTEXT ( ( #262 ) ) GLOBAL_UNIT_ASSIGNED_CONTEXT ( ( #42, #124, #126 ) ) REPRESENTATION_CONTEXT ( 'NONE', 'WORKASPACE' ) );
#323 = STYLED_ITEM ( 'NONE', ( #197 ), #326 ) ;
#324 = DIRECTION ( 'NONE',  ( -0.000000000000000000, -1.000000000000000000, -0.000000000000000000 ) ) ;
#325 = CARTESIAN_POINT ( 'NONE',  ( 0.1874999999999999722, 0.8749999999999997780, 2.296212748401287109E-17 ) ) ;
#326 = ADVANCED_FACE ( 'NONE', ( #79 ), #340, .T. ) ;
#327 = DIMENSIONAL_EXPONENTS ( 1.000000000000000000, 0.000000000000000000, 0.000000000000000000, 0.000000000000000000, 0.000000000000000000, 0.000000000000000000, 0.000000000000000000 ) ;
#328 = COLOUR_RGB ( '',1.000000000000000000, 0.000000000000000000, 0.000000000000000000 ) ;
#329 = DIRECTION ( 'NONE',  ( 0.000000000000000000, 0.000000000000000000, -1.000000000000000000 ) ) ;
#330 = DIRECTION ( 'NONE',  ( -1.000000000000000000, -1.585131781550686470E-16, 0.000000000000000000 ) ) ;
#331 = DIRECTION ( 'NONE',  ( 0.000000000000000000, 0.000000000000000000, 1.000000000000000000 ) ) ;
#332 = STYLED_ITEM ( 'NONE', ( #32 ), #259 ) ;
#333 = VERTEX_POINT ( 'NONE', #286 ) ;
#334 = DIRECTION ( 'NONE',  ( -1.000000000000000000, 0.000000000000000000, 0.000000000000000000 ) ) ;
#335 = EDGE_LOOP ( 'NONE', ( #123, #229 ) ) ;
#336 = LINE ( 'NONE', #204, #351 ) ;
#337 =( LENGTH_UNIT ( ) NAMED_UNIT ( * ) SI_UNIT ( $, .METRE. ) );
#338 = DIRECTION ( 'NONE',  ( 0.000000000000000000, 0.7071067811865462405, 0.7071067811865486830 ) ) ;
#339 = SURFACE_SIDE_STYLE ('',( #214 ) ) ;
#340 = CONICAL_SURFACE ( 'NONE', #140, 39.37007874015762354, 0.7853981633974500554 ) ;
#341 = FILL_AREA_STYLE_COLOUR ( '', #248 ) ;
#342 = APPLICATION_PROTOCOL_DEFINITION ( 'draft international standard', 'automotive_design', 1998, #297 ) ;
#343 = ORIENTED_EDGE ( 'NONE', *, *, #81, .T. ) ;
#344 = FILL_AREA_STYLE ('',( #319 ) ) ;
#345 = ORIENTED_EDGE ( 'NONE', *, *, #247, .F. ) ;
#346 = AXIS2_PLACEMENT_3D ( 'NONE', #230, #157, #331 ) ;
#347 = DIRECTION ( 'NONE',  ( 1.585131781550686470E-16, -1.000000000000000000, 0.000000000000000000 ) ) ;
#348 = FILL_AREA_STYLE_COLOUR ( '', #53 ) ;
#349 = SURFACE_STYLE_USAGE ( .BOTH. , #255 ) ;
#350 = FILL_AREA_STYLE_COLOUR ( '', #132 ) ;
#351 = VECTOR ( 'NONE', #65, 39.37007874015748143 ) ;
ENDSEC;
END-ISO-10303-21;
