ISO-10303-21;
HEADER;
FILE_DESCRIPTION (( 'STEP AP214' ),
    '1' );
FILE_NAME ('Micro_RSCM-040-2.STEP',
    '2021-09-03T17:56:46',
    ( '' ),
    ( '' ),
    'SwSTEP 2.0',
    'SolidWorks 2020',
    '' );
FILE_SCHEMA (( 'AUTOMOTIVE_DESIGN' ));
ENDSEC;

DATA;
#1 =( LENGTH_UNIT ( ) NAMED_UNIT ( * ) SI_UNIT ( $, .METRE. ) );
#2 = CONICAL_SURFACE ( 'NONE', #71, 0.003936999999999995191, 0.5235987755983005920 ) ;
#3 = EDGE_LOOP ( 'NONE', ( #238, #29, #158, #69 ) ) ;
#4 = ORIENTED_EDGE ( 'NONE', *, *, #121, .F. ) ;
#5 = ORIENTED_EDGE ( 'NONE', *, *, #68, .T. ) ;
#6 = EDGE_CURVE ( 'NONE', #128, #7, #166, .T. ) ;
#7 = VERTEX_POINT ( 'NONE', #164 ) ;
#8 = AXIS2_PLACEMENT_3D ( 'NONE', #40, #19, #213 ) ;
#9 = ORIENTED_EDGE ( 'NONE', *, *, #51, .F. ) ;
#10 = DIRECTION ( 'NONE',  ( -0.0000000000000000000, -0.0000000000000000000, -1.000000000000000000 ) ) ;
#11 = DIRECTION ( 'NONE',  ( 1.000000000000000000, 0.0000000000000000000, 0.0000000000000000000 ) ) ;
#12 = VECTOR ( 'NONE', #186, 39.37007874015748854 ) ;
#13 = AXIS2_PLACEMENT_3D ( 'NONE', #87, #139, #171 ) ;
#14 = CARTESIAN_POINT ( 'NONE',  ( -0.003936999999999995191, 5.062506170655285717E-18, 0.0000000000000000000 ) ) ;
#15 = CARTESIAN_POINT ( 'NONE',  ( 0.003936999999999995191, 0.0000000000000000000, 1.968503999999999809 ) ) ;
#16 = DIRECTION ( 'NONE',  ( -1.000000000000000000, 0.0000000000000000000, 0.0000000000000000000 ) ) ;
#17 = PRODUCT ( 'Micro_RSCM-040-2', 'Micro_RSCM-040-2', '', ( #105 ) ) ;
#18 = AXIS2_PLACEMENT_3D ( 'NONE', #224, #168, #16 ) ;
#19 = DIRECTION ( 'NONE',  ( 0.0000000000000000000, 0.0000000000000000000, -1.000000000000000000 ) ) ;
#20 = ADVANCED_FACE ( 'NONE', ( #187 ), #146, .T. ) ;
#21 = PRODUCT_DEFINITION_CONTEXT ( 'detailed design', #42, 'design' ) ;
#22 = CARTESIAN_POINT ( 'NONE',  ( 0.0000000000000000000, 0.0000000000000000000, 0.1295625965585742445 ) ) ;
#23 = CONICAL_SURFACE ( 'NONE', #147, 0.003936999999999995191, 0.5235987755983005920 ) ;
#24 = SURFACE_SIDE_STYLE ('',( #60 ) ) ;
#25 = ADVANCED_FACE ( 'NONE', ( #204 ), #33, .F. ) ;
#26 = CIRCLE ( 'NONE', #163, 0.07874000000000000443 ) ;
#27 = ORIENTED_EDGE ( 'NONE', *, *, #170, .F. ) ;
#28 = FILL_AREA_STYLE_COLOUR ( '', #106 ) ;
#29 = ORIENTED_EDGE ( 'NONE', *, *, #30, .T. ) ;
#30 = EDGE_CURVE ( 'NONE', #181, #159, #169, .T. ) ;
#31 = DIRECTION ( 'NONE',  ( 0.0000000000000000000, 0.0000000000000000000, 1.000000000000000000 ) ) ;
#32 = CARTESIAN_POINT ( 'NONE',  ( 0.0000000000000000000, 0.0000000000000000000, 0.0000000000000000000 ) ) ;
#33 = PLANE ( 'NONE',  #85 ) ;
#34 = PRODUCT_DEFINITION ( 'UNKNOWN', '', #62, #21 ) ;
#35 = DIRECTION ( 'NONE',  ( -0.0000000000000000000, -0.0000000000000000000, -1.000000000000000000 ) ) ;
#36 = DIRECTION ( 'NONE',  ( 0.0000000000000000000, 0.0000000000000000000, -1.000000000000000000 ) ) ;
#37 = CARTESIAN_POINT ( 'NONE',  ( -0.003936999999999995191, -5.062506170655283406E-18, 1.968503999999999809 ) ) ;
#38 = VECTOR ( 'NONE', #53, 39.37007874015748143 ) ;
#39 =( GEOMETRIC_REPRESENTATION_CONTEXT ( 3 ) GLOBAL_UNCERTAINTY_ASSIGNED_CONTEXT ( ( #237 ) ) GLOBAL_UNIT_ASSIGNED_CONTEXT ( ( #86, #98, #59 ) ) REPRESENTATION_CONTEXT ( 'NONE', 'WORKASPACE' ) );
#40 = CARTESIAN_POINT ( 'NONE',  ( 0.0000000000000000000, 0.0000000000000000000, 1.838941403441425759 ) ) ;
#41 =( NAMED_UNIT ( * ) SI_UNIT ( $, .STERADIAN. ) SOLID_ANGLE_UNIT ( ) );
#42 = APPLICATION_CONTEXT ( 'automotive_design' ) ;
#43 = PLANE ( 'NONE',  #191 ) ;
#44 = PRESENTATION_STYLE_ASSIGNMENT (( #193 ) ) ;
#45 = EDGE_LOOP ( 'NONE', ( #52, #215, #178, #9 ) ) ;
#46 = EDGE_CURVE ( 'NONE', #181, #128, #188, .T. ) ;
#47 = CARTESIAN_POINT ( 'NONE',  ( 0.0000000000000000000, 0.0000000000000000000, 0.0000000000000000000 ) ) ;
#48 =( NAMED_UNIT ( * ) SI_UNIT ( $, .STERADIAN. ) SOLID_ANGLE_UNIT ( ) );
#49 = VERTEX_POINT ( 'NONE', #14 ) ;
#50 = APPLICATION_PROTOCOL_DEFINITION ( 'draft international standard', 'automotive_design', 1998, #42 ) ;
#51 = EDGE_CURVE ( 'NONE', #159, #236, #112, .T. ) ;
#52 = ORIENTED_EDGE ( 'NONE', *, *, #121, .T. ) ;
#53 = DIRECTION ( 'NONE',  ( -0.0000000000000000000, -0.0000000000000000000, -1.000000000000000000 ) ) ;
#54 = CARTESIAN_POINT ( 'NONE',  ( 0.0000000000000000000, 0.0000000000000000000, 1.968503999999999809 ) ) ;
#55 = DIRECTION ( 'NONE',  ( -1.000000000000000000, 0.0000000000000000000, 0.0000000000000000000 ) ) ;
#56 = CARTESIAN_POINT ( 'NONE',  ( -0.07874000000000000443, 0.0000000000000000000, 1.838941403441425759 ) ) ;
#57 = CIRCLE ( 'NONE', #13, 0.003936999999999995191 ) ;
#58 = DIRECTION ( 'NONE',  ( 0.0000000000000000000, 0.0000000000000000000, 1.000000000000000000 ) ) ;
#59 =( NAMED_UNIT ( * ) SI_UNIT ( $, .STERADIAN. ) SOLID_ANGLE_UNIT ( ) );
#60 = SURFACE_STYLE_FILL_AREA ( #194 ) ;
#61 = PRODUCT_DEFINITION_SHAPE ( 'NONE', 'NONE',  #34 ) ;
#62 = PRODUCT_DEFINITION_FORMATION_WITH_SPECIFIED_SOURCE ( 'ANY', '', #17, .NOT_KNOWN. ) ;
#63 = LINE ( 'NONE', #101, #110 ) ;
#64 = CONICAL_SURFACE ( 'NONE', #124, 0.003936999999999995191, 0.5235987755983005920 ) ;
#65 = EDGE_LOOP ( 'NONE', ( #145, #126, #130, #143 ) ) ;
#66 =( CONVERSION_BASED_UNIT ( 'INCH', #108 ) LENGTH_UNIT ( ) NAMED_UNIT ( #76 ) );
#67 = ORIENTED_EDGE ( 'NONE', *, *, #176, .T. ) ;
#68 = EDGE_CURVE ( 'NONE', #7, #107, #231, .T. ) ;
#69 = ORIENTED_EDGE ( 'NONE', *, *, #176, .F. ) ;
#70 = APPLICATION_PROTOCOL_DEFINITION ( 'draft international standard', 'automotive_design', 1998, #220 ) ;
#71 = AXIS2_PLACEMENT_3D ( 'NONE', #79, #152, #229 ) ;
#72 = ORIENTED_EDGE ( 'NONE', *, *, #68, .F. ) ;
#73 = CARTESIAN_POINT ( 'NONE',  ( 0.07874000000000000443, 9.642868896486258509E-18, 1.968503999999999809 ) ) ;
#74 = EDGE_LOOP ( 'NONE', ( #92, #125 ) ) ;
#75 = CIRCLE ( 'NONE', #244, 0.003936999999999995191 ) ;
#76 = DIMENSIONAL_EXPONENTS ( 1.000000000000000000, 0.0000000000000000000, 0.0000000000000000000, 0.0000000000000000000, 0.0000000000000000000, 0.0000000000000000000, 0.0000000000000000000 ) ;
#77 = DIRECTION ( 'NONE',  ( -0.0000000000000000000, -0.0000000000000000000, -1.000000000000000000 ) ) ;
#78 = DIRECTION ( 'NONE',  ( 1.000000000000000000, 0.0000000000000000000, 0.0000000000000000000 ) ) ;
#79 = CARTESIAN_POINT ( 'NONE',  ( 0.0000000000000000000, 0.0000000000000000000, 0.0000000000000000000 ) ) ;
#80 = CONICAL_SURFACE ( 'NONE', #160, 0.003936999999999995191, 0.5235987755983005920 ) ;
#81 = MECHANICAL_DESIGN_GEOMETRIC_PRESENTATION_REPRESENTATION (  '', ( #214 ), #114 ) ;
#82 = ADVANCED_FACE ( 'NONE', ( #97 ), #64, .T. ) ;
#83 = DIRECTION ( 'NONE',  ( 1.000000000000000000, 0.0000000000000000000, -0.0000000000000000000 ) ) ;
#84 = DIRECTION ( 'NONE',  ( 1.000000000000000000, 0.0000000000000000000, 0.0000000000000000000 ) ) ;
#85 = AXIS2_PLACEMENT_3D ( 'NONE', #148, #31, #149 ) ;
#86 =( CONVERSION_BASED_UNIT ( 'INCH', #196 ) LENGTH_UNIT ( ) NAMED_UNIT ( #184 ) );
#87 = CARTESIAN_POINT ( 'NONE',  ( 0.0000000000000000000, 0.0000000000000000000, 0.0000000000000000000 ) ) ;
#88 = COLOUR_RGB ( '',0.7921568627450980005, 0.8196078431372548767, 0.9333333333333333481 ) ;
#89 = ORIENTED_EDGE ( 'NONE', *, *, #170, .T. ) ;
#90 = ORIENTED_EDGE ( 'NONE', *, *, #94, .T. ) ;
#91 = ORIENTED_EDGE ( 'NONE', *, *, #233, .T. ) ;
#92 = ORIENTED_EDGE ( 'NONE', *, *, #216, .T. ) ;
#93 = DIRECTION ( 'NONE',  ( 0.0000000000000000000, 0.0000000000000000000, -1.000000000000000000 ) ) ;
#94 = EDGE_CURVE ( 'NONE', #236, #128, #144, .T. ) ;
#95 = EDGE_LOOP ( 'NONE', ( #67, #89, #72, #142 ) ) ;
#96 = CARTESIAN_POINT ( 'NONE',  ( 0.0000000000000000000, 0.0000000000000000000, 1.968503999999999809 ) ) ;
#97 = FACE_OUTER_BOUND ( 'NONE', #3, .T. ) ;
#98 =( NAMED_UNIT ( * ) PLANE_ANGLE_UNIT ( ) SI_UNIT ( $, .RADIAN. ) );
#99 = CIRCLE ( 'NONE', #219, 0.003936999999999995191 ) ;
#100 = FACE_OUTER_BOUND ( 'NONE', #116, .T. ) ;
#101 = CARTESIAN_POINT ( 'NONE',  ( -0.003936999999999995191, 4.821434448243123477E-19, 0.0000000000000000000 ) ) ;
#102 = VECTOR ( 'NONE', #150, 39.37007874015748854 ) ;
#103 = SURFACE_STYLE_FILL_AREA ( #174 ) ;
#104 = EDGE_CURVE ( 'NONE', #49, #123, #75, .T. ) ;
#105 = PRODUCT_CONTEXT ( 'NONE', #220, 'mechanical' ) ;
#106 = COLOUR_RGB ( '',0.7921568627450980005, 0.8196078431372548767, 0.9333333333333333481 ) ;
#107 = VERTEX_POINT ( 'NONE', #113 ) ;
#108 = LENGTH_MEASURE_WITH_UNIT ( LENGTH_MEASURE( 0.02539999999999999897 ), #199 );
#109 = EDGE_LOOP ( 'NONE', ( #4, #239 ) ) ;
#110 = VECTOR ( 'NONE', #208, 39.37007874015748854 ) ;
#111 = AXIS2_PLACEMENT_3D ( 'NONE', #47, #197, #222 ) ;
#112 = LINE ( 'NONE', #15, #102 ) ;
#113 = CARTESIAN_POINT ( 'NONE',  ( 0.07874000000000000443, 9.642868896486258509E-18, 0.1295625965585742445 ) ) ;
#114 =( GEOMETRIC_REPRESENTATION_CONTEXT ( 3 ) GLOBAL_UNCERTAINTY_ASSIGNED_CONTEXT ( ( #119 ) ) GLOBAL_UNIT_ASSIGNED_CONTEXT ( ( #66, #217, #48 ) ) REPRESENTATION_CONTEXT ( 'NONE', 'WORKASPACE' ) );
#115 = DIRECTION ( 'NONE',  ( 0.5000000000000013323, 0.0000000000000000000, 0.8660254037844377084 ) ) ;
#116 = EDGE_LOOP ( 'NONE', ( #27, #90, #221, #177 ) ) ;
#117 = CYLINDRICAL_SURFACE ( 'NONE', #134, 0.07874000000000000443 ) ;
#118 = DIRECTION ( 'NONE',  ( -0.0000000000000000000, -0.0000000000000000000, -1.000000000000000000 ) ) ;
#119 = UNCERTAINTY_MEASURE_WITH_UNIT (LENGTH_MEASURE( 1.000000000000000082E-05 ), #66, 'distance_accuracy_value', 'NONE');
#120 = CARTESIAN_POINT ( 'NONE',  ( 0.0000000000000000000, 0.0000000000000000000, 1.968503999999999809 ) ) ;
#121 = EDGE_CURVE ( 'NONE', #159, #181, #99, .T. ) ;
#122 = ORIENTED_EDGE ( 'NONE', *, *, #136, .F. ) ;
#123 = VERTEX_POINT ( 'NONE', #245 ) ;
#124 = AXIS2_PLACEMENT_3D ( 'NONE', #96, #225, #78 ) ;
#125 = ORIENTED_EDGE ( 'NONE', *, *, #104, .T. ) ;
#126 = ORIENTED_EDGE ( 'NONE', *, *, #216, .F. ) ;
#127 = SHAPE_DEFINITION_REPRESENTATION ( #61, #209 ) ;
#128 = VERTEX_POINT ( 'NONE', #56 ) ;
#129 = AXIS2_PLACEMENT_3D ( 'NONE', #205, #36, #55 ) ;
#130 = ORIENTED_EDGE ( 'NONE', *, *, #136, .T. ) ;
#131 = CARTESIAN_POINT ( 'NONE',  ( 0.003936999999999995191, 0.0000000000000000000, 1.968503999999999809 ) ) ;
#132 = CARTESIAN_POINT ( 'NONE',  ( 0.0000000000000000000, 0.0000000000000000000, 1.968503999999999809 ) ) ;
#133 = CARTESIAN_POINT ( 'NONE',  ( 0.003936999999999995191, 0.0000000000000000000, 0.0000000000000000000 ) ) ;
#134 = AXIS2_PLACEMENT_3D ( 'NONE', #192, #190, #173 ) ;
#135 = LENGTH_MEASURE_WITH_UNIT ( LENGTH_MEASURE( 0.02539999999999999897 ), #1 );
#136 = EDGE_CURVE ( 'NONE', #123, #107, #162, .T. ) ;
#137 = DIRECTION ( 'NONE',  ( -1.000000000000000000, 0.0000000000000000000, 0.0000000000000000000 ) ) ;
#138 = DIRECTION ( 'NONE',  ( 0.0000000000000000000, 0.0000000000000000000, -1.000000000000000000 ) ) ;
#139 = DIRECTION ( 'NONE',  ( -0.0000000000000000000, -0.0000000000000000000, -1.000000000000000000 ) ) ;
#140 = VECTOR ( 'NONE', #77, 39.37007874015748143 ) ;
#141 = SURFACE_STYLE_USAGE ( .BOTH. , #234 ) ;
#142 = ORIENTED_EDGE ( 'NONE', *, *, #6, .F. ) ;
#143 = ORIENTED_EDGE ( 'NONE', *, *, #242, .T. ) ;
#144 = CIRCLE ( 'NONE', #18, 0.07874000000000000443 ) ;
#145 = ORIENTED_EDGE ( 'NONE', *, *, #233, .F. ) ;
#146 = CYLINDRICAL_SURFACE ( 'NONE', #157, 0.07874000000000000443 ) ;
#147 = AXIS2_PLACEMENT_3D ( 'NONE', #210, #138, #84 ) ;
#148 = CARTESIAN_POINT ( 'NONE',  ( 0.0000000000000000000, 0.0000000000000000000, 0.0000000000000000000 ) ) ;
#149 = DIRECTION ( 'NONE',  ( 1.000000000000000000, 0.0000000000000000000, -0.0000000000000000000 ) ) ;
#150 = DIRECTION ( 'NONE',  ( 0.5000000000000013323, 0.0000000000000000000, -0.8660254037844377084 ) ) ;
#151 = ADVANCED_FACE ( 'NONE', ( #247 ), #2, .T. ) ;
#152 = DIRECTION ( 'NONE',  ( 0.0000000000000000000, 0.0000000000000000000, 1.000000000000000000 ) ) ;
#153 = FACE_OUTER_BOUND ( 'NONE', #109, .T. ) ;
#154 =( CONVERSION_BASED_UNIT ( 'INCH', #135 ) LENGTH_UNIT ( ) NAMED_UNIT ( #165 ) );
#155 = CIRCLE ( 'NONE', #8, 0.07874000000000000443 ) ;
#156 =( LENGTH_UNIT ( ) NAMED_UNIT ( * ) SI_UNIT ( $, .METRE. ) );
#157 = AXIS2_PLACEMENT_3D ( 'NONE', #132, #202, #243 ) ;
#158 = ORIENTED_EDGE ( 'NONE', *, *, #51, .T. ) ;
#159 = VERTEX_POINT ( 'NONE', #131 ) ;
#160 = AXIS2_PLACEMENT_3D ( 'NONE', #32, #58, #11 ) ;
#161 = CARTESIAN_POINT ( 'NONE',  ( 0.0000000000000000000, 0.0000000000000000000, 0.0000000000000000000 ) ) ;
#162 = LINE ( 'NONE', #133, #179 ) ;
#163 = AXIS2_PLACEMENT_3D ( 'NONE', #22, #118, #137 ) ;
#164 = CARTESIAN_POINT ( 'NONE',  ( -0.07874000000000000443, 0.0000000000000000000, 0.1295625965585742445 ) ) ;
#165 = DIMENSIONAL_EXPONENTS ( 1.000000000000000000, 0.0000000000000000000, 0.0000000000000000000, 0.0000000000000000000, 0.0000000000000000000, 0.0000000000000000000, 0.0000000000000000000 ) ;
#166 = LINE ( 'NONE', #206, #140 ) ;
#167 = ADVANCED_FACE ( 'NONE', ( #203 ), #80, .T. ) ;
#168 = DIRECTION ( 'NONE',  ( 0.0000000000000000000, 0.0000000000000000000, -1.000000000000000000 ) ) ;
#169 = CIRCLE ( 'NONE', #129, 0.003936999999999995191 ) ;
#170 = EDGE_CURVE ( 'NONE', #236, #107, #241, .T. ) ;
#171 = DIRECTION ( 'NONE',  ( -1.000000000000000000, 0.0000000000000000000, 0.0000000000000000000 ) ) ;
#172 =( NAMED_UNIT ( * ) PLANE_ANGLE_UNIT ( ) SI_UNIT ( $, .RADIAN. ) );
#173 = DIRECTION ( 'NONE',  ( -1.000000000000000000, 0.0000000000000000000, 0.0000000000000000000 ) ) ;
#174 = FILL_AREA_STYLE ('',( #28 ) ) ;
#175 = MECHANICAL_DESIGN_GEOMETRIC_PRESENTATION_REPRESENTATION (  '', ( #211 ), #227 ) ;
#176 = EDGE_CURVE ( 'NONE', #128, #236, #155, .T. ) ;
#177 = ORIENTED_EDGE ( 'NONE', *, *, #242, .F. ) ;
#178 = ORIENTED_EDGE ( 'NONE', *, *, #94, .F. ) ;
#179 = VECTOR ( 'NONE', #115, 39.37007874015748854 ) ;
#180 = PRESENTATION_LAYER_ASSIGNMENT (  '', '', ( #214 ) ) ;
#181 = VERTEX_POINT ( 'NONE', #37 ) ;
#182 = CARTESIAN_POINT ( 'NONE',  ( 0.0000000000000000000, 0.0000000000000000000, 0.1295625965585742445 ) ) ;
#183 = DIRECTION ( 'NONE',  ( -1.000000000000000000, 0.0000000000000000000, 0.0000000000000000000 ) ) ;
#184 = DIMENSIONAL_EXPONENTS ( 1.000000000000000000, 0.0000000000000000000, 0.0000000000000000000, 0.0000000000000000000, 0.0000000000000000000, 0.0000000000000000000, 0.0000000000000000000 ) ;
#185 = AXIS2_PLACEMENT_3D ( 'NONE', #182, #35, #223 ) ;
#186 = DIRECTION ( 'NONE',  ( -0.5000000000000013323, -6.123233995736782060E-17, -0.8660254037844377084 ) ) ;
#187 = FACE_OUTER_BOUND ( 'NONE', #95, .T. ) ;
#188 = LINE ( 'NONE', #246, #12 ) ;
#189 = ADVANCED_FACE ( 'NONE', ( #100 ), #117, .T. ) ;
#190 = DIRECTION ( 'NONE',  ( -0.0000000000000000000, -0.0000000000000000000, -1.000000000000000000 ) ) ;
#191 = AXIS2_PLACEMENT_3D ( 'NONE', #120, #230, #83 ) ;
#192 = CARTESIAN_POINT ( 'NONE',  ( 0.0000000000000000000, 0.0000000000000000000, 1.968503999999999809 ) ) ;
#193 = SURFACE_STYLE_USAGE ( .BOTH. , #24 ) ;
#194 = FILL_AREA_STYLE ('',( #212 ) ) ;
#195 = PRESENTATION_LAYER_ASSIGNMENT (  '', '', ( #211 ) ) ;
#196 = LENGTH_MEASURE_WITH_UNIT ( LENGTH_MEASURE( 0.02539999999999999897 ), #156 );
#197 = DIRECTION ( 'NONE',  ( 0.0000000000000000000, 0.0000000000000000000, 1.000000000000000000 ) ) ;
#198 = ADVANCED_FACE ( 'NONE', ( #153 ), #43, .T. ) ;
#199 =( LENGTH_UNIT ( ) NAMED_UNIT ( * ) SI_UNIT ( $, .METRE. ) );
#200 = ORIENTED_EDGE ( 'NONE', *, *, #104, .F. ) ;
#201 = EDGE_LOOP ( 'NONE', ( #200, #91, #5, #122 ) ) ;
#202 = DIRECTION ( 'NONE',  ( -0.0000000000000000000, -0.0000000000000000000, -1.000000000000000000 ) ) ;
#203 = FACE_OUTER_BOUND ( 'NONE', #201, .T. ) ;
#204 = FACE_OUTER_BOUND ( 'NONE', #74, .T. ) ;
#205 = CARTESIAN_POINT ( 'NONE',  ( 0.0000000000000000000, 0.0000000000000000000, 1.968503999999999809 ) ) ;
#206 = CARTESIAN_POINT ( 'NONE',  ( -0.07874000000000000443, 0.0000000000000000000, 1.968503999999999809 ) ) ;
#207 = ADVANCED_FACE ( 'NONE', ( #248 ), #23, .T. ) ;
#208 = DIRECTION ( 'NONE',  ( -0.5000000000000013323, 6.123233995736782060E-17, 0.8660254037844377084 ) ) ;
#209 = ADVANCED_BREP_SHAPE_REPRESENTATION ( 'Micro_RSCM-040-2', ( #240, #111 ), #39 ) ;
#210 = CARTESIAN_POINT ( 'NONE',  ( 0.0000000000000000000, 0.0000000000000000000, 1.968503999999999809 ) ) ;
#211 = STYLED_ITEM ( 'NONE', ( #44 ), #240 ) ;
#212 = FILL_AREA_STYLE_COLOUR ( '', #88 ) ;
#213 = DIRECTION ( 'NONE',  ( -1.000000000000000000, 0.0000000000000000000, 0.0000000000000000000 ) ) ;
#214 = STYLED_ITEM ( 'NONE', ( #218 ), #209 ) ;
#215 = ORIENTED_EDGE ( 'NONE', *, *, #46, .T. ) ;
#216 = EDGE_CURVE ( 'NONE', #123, #49, #57, .T. ) ;
#217 =( NAMED_UNIT ( * ) PLANE_ANGLE_UNIT ( ) SI_UNIT ( $, .RADIAN. ) );
#218 = PRESENTATION_STYLE_ASSIGNMENT (( #141 ) ) ;
#219 = AXIS2_PLACEMENT_3D ( 'NONE', #54, #93, #226 ) ;
#220 = APPLICATION_CONTEXT ( 'automotive_design' ) ;
#221 = ORIENTED_EDGE ( 'NONE', *, *, #6, .T. ) ;
#222 = DIRECTION ( 'NONE',  ( 1.000000000000000000, 0.0000000000000000000, 0.0000000000000000000 ) ) ;
#223 = DIRECTION ( 'NONE',  ( -1.000000000000000000, 0.0000000000000000000, 0.0000000000000000000 ) ) ;
#224 = CARTESIAN_POINT ( 'NONE',  ( 0.0000000000000000000, 0.0000000000000000000, 1.838941403441425759 ) ) ;
#225 = DIRECTION ( 'NONE',  ( 0.0000000000000000000, 0.0000000000000000000, -1.000000000000000000 ) ) ;
#226 = DIRECTION ( 'NONE',  ( -1.000000000000000000, 0.0000000000000000000, 0.0000000000000000000 ) ) ;
#227 =( GEOMETRIC_REPRESENTATION_CONTEXT ( 3 ) GLOBAL_UNCERTAINTY_ASSIGNED_CONTEXT ( ( #232 ) ) GLOBAL_UNIT_ASSIGNED_CONTEXT ( ( #154, #172, #41 ) ) REPRESENTATION_CONTEXT ( 'NONE', 'WORKASPACE' ) );
#228 = PRODUCT_RELATED_PRODUCT_CATEGORY ( 'part', '', ( #17 ) ) ;
#229 = DIRECTION ( 'NONE',  ( 1.000000000000000000, 0.0000000000000000000, 0.0000000000000000000 ) ) ;
#230 = DIRECTION ( 'NONE',  ( 0.0000000000000000000, 0.0000000000000000000, 1.000000000000000000 ) ) ;
#231 = CIRCLE ( 'NONE', #185, 0.07874000000000000443 ) ;
#232 = UNCERTAINTY_MEASURE_WITH_UNIT (LENGTH_MEASURE( 1.000000000000000082E-05 ), #154, 'distance_accuracy_value', 'NONE');
#233 = EDGE_CURVE ( 'NONE', #49, #7, #63, .T. ) ;
#234 = SURFACE_SIDE_STYLE ('',( #103 ) ) ;
#235 = CLOSED_SHELL ( 'NONE', ( #207, #167, #20, #189, #151, #25, #82, #198 ) ) ;
#236 = VERTEX_POINT ( 'NONE', #249 ) ;
#237 = UNCERTAINTY_MEASURE_WITH_UNIT (LENGTH_MEASURE( 1.000000000000000082E-05 ), #86, 'distance_accuracy_value', 'NONE');
#238 = ORIENTED_EDGE ( 'NONE', *, *, #46, .F. ) ;
#239 = ORIENTED_EDGE ( 'NONE', *, *, #30, .F. ) ;
#240 = MANIFOLD_SOLID_BREP ( 'Mirror1', #235 ) ;
#241 = LINE ( 'NONE', #73, #38 ) ;
#242 = EDGE_CURVE ( 'NONE', #107, #7, #26, .T. ) ;
#243 = DIRECTION ( 'NONE',  ( -1.000000000000000000, 0.0000000000000000000, 0.0000000000000000000 ) ) ;
#244 = AXIS2_PLACEMENT_3D ( 'NONE', #161, #10, #183 ) ;
#245 = CARTESIAN_POINT ( 'NONE',  ( 0.003936999999999995191, 0.0000000000000000000, 0.0000000000000000000 ) ) ;
#246 = CARTESIAN_POINT ( 'NONE',  ( -0.003936999999999995191, -4.821434448243123477E-19, 1.968503999999999809 ) ) ;
#247 = FACE_OUTER_BOUND ( 'NONE', #65, .T. ) ;
#248 = FACE_OUTER_BOUND ( 'NONE', #45, .T. ) ;
#249 = CARTESIAN_POINT ( 'NONE',  ( 0.07874000000000000443, 9.642868896486258509E-18, 1.838941403441425759 ) ) ;
ENDSEC;
END-ISO-10303-21;
