ISO-10303-21;
HEADER;
FILE_DESCRIPTION (( 'STEP AP214' ),
    '1' );
FILE_NAME ('17330.STEP',
    '2023-06-30T21:53:27',
    ( '' ),
    ( '' ),
    'SwSTEP 2.0',
    'SolidWorks 2023',
    '' );
FILE_SCHEMA (( 'AUTOMOTIVE_DESIGN' ));
ENDSEC;

DATA;
#1 = PRESENTATION_STYLE_ASSIGNMENT (( #245 ) ) ;
#2 = DIMENSIONAL_EXPONENTS ( 1.000000000000000000, 0.000000000000000000, 0.000000000000000000, 0.000000000000000000, 0.000000000000000000, 0.000000000000000000, 0.000000000000000000 ) ;
#3 = DIRECTION ( 'NONE',  ( 1.000000000000000000, 0.000000000000000000, 0.000000000000000000 ) ) ;
#4 = EDGE_CURVE ( 'NONE', #87, #59, #132, .T. ) ;
#5 = DIRECTION ( 'NONE',  ( 0.000000000000000000, 0.000000000000000000, -1.000000000000000000 ) ) ;
#6 =( NAMED_UNIT ( * ) SI_UNIT ( $, .STERADIAN. ) SOLID_ANGLE_UNIT ( ) );
#7 = AXIS2_PLACEMENT_3D ( 'NONE', #265, #125, #49 ) ;
#8 = COLOUR_RGB ( '',0.7921568627450980005, 0.8196078431372548767, 0.9333333333333333481 ) ;
#9 = DIRECTION ( 'NONE',  ( -1.215801698091266626E-16, 1.000000000000000000, -0.000000000000000000 ) ) ;
#10 = DIRECTION ( 'NONE',  ( 1.000000000000000000, 0.000000000000000000, -1.224646799147353207E-16 ) ) ;
#11 = EDGE_CURVE ( 'NONE', #338, #176, #324, .T. ) ;
#12 =( NAMED_UNIT ( * ) PLANE_ANGLE_UNIT ( ) SI_UNIT ( $, .RADIAN. ) );
#13 = FACE_OUTER_BOUND ( 'NONE', #20, .T. ) ;
#14 = AXIS2_PLACEMENT_3D ( 'NONE', #371, #316, #216 ) ;
#15 =( GEOMETRIC_REPRESENTATION_CONTEXT ( 3 ) GLOBAL_UNCERTAINTY_ASSIGNED_CONTEXT ( ( #233 ) ) GLOBAL_UNIT_ASSIGNED_CONTEXT ( ( #42, #351, #156 ) ) REPRESENTATION_CONTEXT ( 'NONE', 'WORKASPACE' ) );
#16 = LENGTH_MEASURE_WITH_UNIT ( LENGTH_MEASURE( 0.02539999999999999897 ), #107 );
#17 = DIRECTION ( 'NONE',  ( 0.000000000000000000, 0.000000000000000000, -1.000000000000000000 ) ) ;
#18 = ADVANCED_FACE ( 'NONE', ( #100 ), #101, .F. ) ;
#19 =( CONVERSION_BASED_UNIT ( 'INCH', #166 ) LENGTH_UNIT ( ) NAMED_UNIT ( #225 ) );
#20 = EDGE_LOOP ( 'NONE', ( #99, #343, #40, #369 ) ) ;
#21 = DIRECTION ( 'NONE',  ( 0.000000000000000000, 0.000000000000000000, -1.000000000000000000 ) ) ;
#22 = VERTEX_POINT ( 'NONE', #35 ) ;
#23 =( CONVERSION_BASED_UNIT ( 'INCH', #79 ) LENGTH_UNIT ( ) NAMED_UNIT ( #135 ) );
#24 = STYLED_ITEM ( 'NONE', ( #360 ), #50 ) ;
#25 = MECHANICAL_DESIGN_GEOMETRIC_PRESENTATION_REPRESENTATION (  '', ( #207 ), #335 ) ;
#26 = ADVANCED_FACE ( 'NONE', ( #69 ), #112, .F. ) ;
#27 = ORIENTED_EDGE ( 'NONE', *, *, #124, .F. ) ;
#28 = LINE ( 'NONE', #65, #39 ) ;
#29 = PRODUCT ( '17330', '17330', '', ( #111 ) ) ;
#30 = ORIENTED_EDGE ( 'NONE', *, *, #228, .F. ) ;
#31 = EDGE_CURVE ( 'NONE', #281, #268, #84, .T. ) ;
#32 = CARTESIAN_POINT ( 'NONE',  ( 2.296212748401286493E-17, 0.5000000000000000000, 0.1874999999999999445 ) ) ;
#33 = ORIENTED_EDGE ( 'NONE', *, *, #124, .T. ) ;
#34 = FILL_AREA_STYLE_COLOUR ( '', #191 ) ;
#35 = CARTESIAN_POINT ( 'NONE',  ( -1.148106374200643863E-17, 0.000000000000000000, 0.000000000000000000 ) ) ;
#36 = APPLICATION_CONTEXT ( 'automotive_design' ) ;
#37 = DIRECTION ( 'NONE',  ( 0.000000000000000000, 0.000000000000000000, -1.000000000000000000 ) ) ;
#38 = EDGE_CURVE ( 'NONE', #176, #268, #102, .T. ) ;
#39 = VECTOR ( 'NONE', #276, 39.37007874015748143 ) ;
#40 = ORIENTED_EDGE ( 'NONE', *, *, #76, .F. ) ;
#41 = DIRECTION ( 'NONE',  ( 1.000000000000000000, 0.000000000000000000, 0.000000000000000000 ) ) ;
#42 =( CONVERSION_BASED_UNIT ( 'INCH', #162 ) LENGTH_UNIT ( ) NAMED_UNIT ( #159 ) );
#43 = CARTESIAN_POINT ( 'NONE',  ( 2.436025946710576543E-16, 0.5000000000000001110, 0.000000000000000000 ) ) ;
#44 = VECTOR ( 'NONE', #143, 39.37007874015748143 ) ;
#45 = ADVANCED_FACE ( 'NONE', ( #337 ), #90, .T. ) ;
#46 = DIRECTION ( 'NONE',  ( -1.000000000000000000, 0.000000000000000000, 0.000000000000000000 ) ) ;
#47 = SURFACE_STYLE_USAGE ( .BOTH. , #269 ) ;
#48 = CARTESIAN_POINT ( 'NONE',  ( 2.436025946710576543E-16, 0.5000000000000001110, 0.000000000000000000 ) ) ;
#49 = DIRECTION ( 'NONE',  ( -1.000000000000000000, 0.000000000000000000, 0.000000000000000000 ) ) ;
#50 = ADVANCED_FACE ( 'NONE', ( #184 ), #308, .T. ) ;
#51 = UNCERTAINTY_MEASURE_WITH_UNIT (LENGTH_MEASURE( 1.000000000000000082E-05 ), #323, 'distance_accuracy_value', 'NONE');
#52 = DIRECTION ( 'NONE',  ( 0.000000000000000000, 0.000000000000000000, -1.000000000000000000 ) ) ;
#53 = CLOSED_SHELL ( 'NONE', ( #344, #231, #50, #83, #253 ) ) ;
#54 = DIRECTION ( 'NONE',  ( -1.000000000000000000, 0.000000000000000000, 0.000000000000000000 ) ) ;
#55 = SURFACE_STYLE_FILL_AREA ( #341 ) ;
#56 = CARTESIAN_POINT ( 'NONE',  ( 0.000000000000000000, 0.5000000000000000000, 0.000000000000000000 ) ) ;
#57 = ORIENTED_EDGE ( 'NONE', *, *, #228, .T. ) ;
#58 = DIRECTION ( 'NONE',  ( -1.000000000000000000, 0.000000000000000000, 0.000000000000000000 ) ) ;
#59 = VERTEX_POINT ( 'NONE', #277 ) ;
#60 = CYLINDRICAL_SURFACE ( 'NONE', #254, 0.1874999999999999722 ) ;
#61 =( GEOMETRIC_REPRESENTATION_CONTEXT ( 3 ) GLOBAL_UNCERTAINTY_ASSIGNED_CONTEXT ( ( #339 ) ) GLOBAL_UNIT_ASSIGNED_CONTEXT ( ( #19, #271, #122 ) ) REPRESENTATION_CONTEXT ( 'NONE', 'WORKASPACE' ) );
#62 = MANIFOLD_SOLID_BREP ( 'Revolve - Cutting Edge', #53 ) ;
#63 = CIRCLE ( 'NONE', #342, 0.1874999999999996947 ) ;
#64 = APPLICATION_CONTEXT ( 'automotive_design' ) ;
#65 = CARTESIAN_POINT ( 'NONE',  ( 0.000000000000000000, 0.000000000000000000, -0.1874999999999999722 ) ) ;
#66 = COLOUR_RGB ( '',1.000000000000000000, 0.000000000000000000, 0.000000000000000000 ) ;
#67 = CIRCLE ( 'NONE', #285, 0.1875000000000000278 ) ;
#68 = ORIENTED_EDGE ( 'NONE', *, *, #38, .F. ) ;
#69 = FACE_OUTER_BOUND ( 'NONE', #305, .T. ) ;
#70 = EDGE_CURVE ( 'NONE', #281, #364, #263, .T. ) ;
#71 = DIRECTION ( 'NONE',  ( -1.215801698091266626E-16, 1.000000000000000000, -0.000000000000000000 ) ) ;
#72 = SPHERICAL_SURFACE ( 'NONE', #275, 0.1875000000000000278 ) ;
#73 =( GEOMETRIC_REPRESENTATION_CONTEXT ( 3 ) GLOBAL_UNCERTAINTY_ASSIGNED_CONTEXT ( ( #264 ) ) GLOBAL_UNIT_ASSIGNED_CONTEXT ( ( #272, #292, #332 ) ) REPRESENTATION_CONTEXT ( 'NONE', 'WORKASPACE' ) );
#74 = COLOUR_RGB ( '',1.000000000000000000, 0.000000000000000000, 0.000000000000000000 ) ;
#75 = FILL_AREA_STYLE ('',( #229 ) ) ;
#76 = EDGE_CURVE ( 'NONE', #176, #22, #119, .T. ) ;
#77 = DIMENSIONAL_EXPONENTS ( 1.000000000000000000, 0.000000000000000000, 0.000000000000000000, 0.000000000000000000, 0.000000000000000000, 0.000000000000000000, 0.000000000000000000 ) ;
#78 = PRESENTATION_LAYER_ASSIGNMENT (  '', '', ( #298 ) ) ;
#79 = LENGTH_MEASURE_WITH_UNIT ( LENGTH_MEASURE( 0.02539999999999999897 ), #333 );
#80 = DIRECTION ( 'NONE',  ( -1.215801698091266626E-16, 1.000000000000000000, -0.000000000000000000 ) ) ;
#81 = FILL_AREA_STYLE ('',( #183 ) ) ;
#82 = FILL_AREA_STYLE ('',( #160 ) ) ;
#83 = ADVANCED_FACE ( 'NONE', ( #230 ), #232, .T. ) ;
#84 = LINE ( 'NONE', #296, #164 ) ;
#85 =( NAMED_UNIT ( * ) SI_UNIT ( $, .STERADIAN. ) SOLID_ANGLE_UNIT ( ) );
#86 = PRODUCT_DEFINITION_SHAPE ( 'NONE', 'NONE',  #177 ) ;
#87 = VERTEX_POINT ( 'NONE', #141 ) ;
#88 = CARTESIAN_POINT ( 'NONE',  ( 0.1874999999999999445, 0.5000000000000001110, 2.296212748401284952E-17 ) ) ;
#89 = ORIENTED_EDGE ( 'NONE', *, *, #373, .F. ) ;
#90 = CYLINDRICAL_SURFACE ( 'NONE', #251, 0.1874999999999997780 ) ;
#91 = ORIENTED_EDGE ( 'NONE', *, *, #273, .F. ) ;
#92 = CARTESIAN_POINT ( 'NONE',  ( -0.1874999999999996947, 2.000000000000000000, 0.000000000000000000 ) ) ;
#93 =( LENGTH_UNIT ( ) NAMED_UNIT ( * ) SI_UNIT ( $, .METRE. ) );
#94 = FILL_AREA_STYLE ('',( #315 ) ) ;
#95 = ORIENTED_EDGE ( 'NONE', *, *, #31, .T. ) ;
#96 = PRESENTATION_STYLE_ASSIGNMENT (( #244 ) ) ;
#97 = PRESENTATION_LAYER_ASSIGNMENT (  '', '', ( #24 ) ) ;
#98 = CIRCLE ( 'NONE', #136, 0.1874999999999999722 ) ;
#99 = ORIENTED_EDGE ( 'NONE', *, *, #287, .T. ) ;
#100 = FACE_OUTER_BOUND ( 'NONE', #256, .T. ) ;
#101 = PLANE ( 'NONE',  #14 ) ;
#102 = CIRCLE ( 'NONE', #140, 0.1874999999999999722 ) ;
#103 =( CONVERSION_BASED_UNIT ( 'INCH', #190 ) LENGTH_UNIT ( ) NAMED_UNIT ( #258 ) );
#104 = PRESENTATION_LAYER_ASSIGNMENT (  '', '', ( #350 ) ) ;
#105 = VERTEX_POINT ( 'NONE', #357 ) ;
#106 =( NAMED_UNIT ( * ) SI_UNIT ( $, .STERADIAN. ) SOLID_ANGLE_UNIT ( ) );
#107 =( LENGTH_UNIT ( ) NAMED_UNIT ( * ) SI_UNIT ( $, .METRE. ) );
#108 = LENGTH_MEASURE_WITH_UNIT ( LENGTH_MEASURE( 0.02539999999999999897 ), #226 );
#109 = DIMENSIONAL_EXPONENTS ( 1.000000000000000000, 0.000000000000000000, 0.000000000000000000, 0.000000000000000000, 0.000000000000000000, 0.000000000000000000, 0.000000000000000000 ) ;
#110 =( LENGTH_UNIT ( ) NAMED_UNIT ( * ) SI_UNIT ( $, .METRE. ) );
#111 = PRODUCT_CONTEXT ( 'NONE', #64, 'mechanical' ) ;
#112 = PLANE ( 'NONE',  #169 ) ;
#113 =( GEOMETRIC_REPRESENTATION_CONTEXT ( 3 ) GLOBAL_UNCERTAINTY_ASSIGNED_CONTEXT ( ( #358 ) ) GLOBAL_UNIT_ASSIGNED_CONTEXT ( ( #23, #12, #85 ) ) REPRESENTATION_CONTEXT ( 'NONE', 'WORKASPACE' ) );
#114 = VECTOR ( 'NONE', #306, 39.37007874015748143 ) ;
#115 = CARTESIAN_POINT ( 'NONE',  ( 0.000000000000000000, 0.5000000000000000000, -0.1874999999999999445 ) ) ;
#116 = UNCERTAINTY_MEASURE_WITH_UNIT (LENGTH_MEASURE( 1.000000000000000082E-05 ), #247, 'distance_accuracy_value', 'NONE');
#117 = LINE ( 'NONE', #201, #44 ) ;
#118 = ORIENTED_EDGE ( 'NONE', *, *, #312, .F. ) ;
#119 = CIRCLE ( 'NONE', #7, 0.1875000000000000278 ) ;
#120 = PRESENTATION_LAYER_ASSIGNMENT (  '', '', ( #130 ) ) ;
#121 = DIRECTION ( 'NONE',  ( 1.000000000000000000, 0.000000000000000000, 0.000000000000000000 ) ) ;
#122 =( NAMED_UNIT ( * ) SI_UNIT ( $, .STERADIAN. ) SOLID_ANGLE_UNIT ( ) );
#123 = ORIENTED_EDGE ( 'NONE', *, *, #340, .T. ) ;
#124 = EDGE_CURVE ( 'NONE', #154, #87, #117, .T. ) ;
#125 = DIRECTION ( 'NONE',  ( 0.000000000000000000, 0.000000000000000000, -1.000000000000000000 ) ) ;
#126 = ORIENTED_EDGE ( 'NONE', *, *, #287, .F. ) ;
#127 = SURFACE_SIDE_STYLE ('',( #220 ) ) ;
#128 = SURFACE_STYLE_USAGE ( .BOTH. , #304 ) ;
#129 = AXIS2_PLACEMENT_3D ( 'NONE', #294, #327, #52 ) ;
#130 = STYLED_ITEM ( 'NONE', ( #227 ), #303 ) ;
#131 = ORIENTED_EDGE ( 'NONE', *, *, #70, .T. ) ;
#132 = CIRCLE ( 'NONE', #205, 0.1874999999999998335 ) ;
#133 =( NAMED_UNIT ( * ) SI_UNIT ( $, .STERADIAN. ) SOLID_ANGLE_UNIT ( ) );
#134 = DIRECTION ( 'NONE',  ( -0.000000000000000000, -1.000000000000000000, -0.000000000000000000 ) ) ;
#135 = DIMENSIONAL_EXPONENTS ( 1.000000000000000000, 0.000000000000000000, 0.000000000000000000, 0.000000000000000000, 0.000000000000000000, 0.000000000000000000, 0.000000000000000000 ) ;
#136 = AXIS2_PLACEMENT_3D ( 'NONE', #372, #134, #353 ) ;
#137 = DIRECTION ( 'NONE',  ( -1.000000000000000000, 0.000000000000000000, 0.000000000000000000 ) ) ;
#138 = CARTESIAN_POINT ( 'NONE',  ( 0.000000000000000000, 0.000000000000000000, 0.000000000000000000 ) ) ;
#139 = CARTESIAN_POINT ( 'NONE',  ( 0.1874999999999999167, 2.000000000000000000, 0.000000000000000000 ) ) ;
#140 = AXIS2_PLACEMENT_3D ( 'NONE', #349, #240, #168 ) ;
#141 = CARTESIAN_POINT ( 'NONE',  ( 0.1874999999999999167, 2.000000000000000000, 2.296212748401284952E-17 ) ) ;
#142 = UNCERTAINTY_MEASURE_WITH_UNIT (LENGTH_MEASURE( 1.000000000000000082E-05 ), #158, 'distance_accuracy_value', 'NONE');
#143 = DIRECTION ( 'NONE',  ( -1.215801698091266626E-16, 1.000000000000000000, -0.000000000000000000 ) ) ;
#144 = CARTESIAN_POINT ( 'NONE',  ( 0.000000000000000000, 0.1875000000000000555, 0.000000000000000000 ) ) ;
#145 = APPLICATION_PROTOCOL_DEFINITION ( 'draft international standard', 'automotive_design', 1998, #36 ) ;
#146 = MECHANICAL_DESIGN_GEOMETRIC_PRESENTATION_REPRESENTATION (  '', ( #298 ), #73 ) ;
#147 = ORIENTED_EDGE ( 'NONE', *, *, #340, .F. ) ;
#148 = CARTESIAN_POINT ( 'NONE',  ( -2.296212748401287726E-17, 0.1875000000000000278, 0.000000000000000000 ) ) ;
#149 = PRESENTATION_STYLE_ASSIGNMENT (( #47 ) ) ;
#150 = ORIENTED_EDGE ( 'NONE', *, *, #11, .T. ) ;
#151 = CIRCLE ( 'NONE', #363, 0.1874999999999996947 ) ;
#152 = CIRCLE ( 'NONE', #355, 0.1874999999999999722 ) ;
#153 =( NAMED_UNIT ( * ) PLANE_ANGLE_UNIT ( ) SI_UNIT ( $, .RADIAN. ) );
#154 = VERTEX_POINT ( 'NONE', #88 ) ;
#155 = CARTESIAN_POINT ( 'NONE',  ( 6.123233995736766036E-17, 2.000000000000000000, 0.000000000000000000 ) ) ;
#156 =( NAMED_UNIT ( * ) SI_UNIT ( $, .STERADIAN. ) SOLID_ANGLE_UNIT ( ) );
#157 = SURFACE_STYLE_FILL_AREA ( #75 ) ;
#158 =( CONVERSION_BASED_UNIT ( 'INCH', #108 ) LENGTH_UNIT ( ) NAMED_UNIT ( #2 ) );
#159 = DIMENSIONAL_EXPONENTS ( 1.000000000000000000, 0.000000000000000000, 0.000000000000000000, 0.000000000000000000, 0.000000000000000000, 0.000000000000000000, 0.000000000000000000 ) ;
#160 = FILL_AREA_STYLE_COLOUR ( '', #74 ) ;
#161 = SURFACE_STYLE_USAGE ( .BOTH. , #186 ) ;
#162 = LENGTH_MEASURE_WITH_UNIT ( LENGTH_MEASURE( 0.02539999999999999897 ), #110 );
#163 = SURFACE_STYLE_FILL_AREA ( #82 ) ;
#164 = VECTOR ( 'NONE', #224, 39.37007874015748143 ) ;
#165 =( GEOMETRIC_REPRESENTATION_CONTEXT ( 3 ) GLOBAL_UNCERTAINTY_ASSIGNED_CONTEXT ( ( #116 ) ) GLOBAL_UNIT_ASSIGNED_CONTEXT ( ( #247, #317, #106 ) ) REPRESENTATION_CONTEXT ( 'NONE', 'WORKASPACE' ) );
#166 = LENGTH_MEASURE_WITH_UNIT ( LENGTH_MEASURE( 0.02539999999999999897 ), #93 );
#167 = CARTESIAN_POINT ( 'NONE',  ( 6.123233995736766036E-17, 2.000000000000000000, 0.000000000000000000 ) ) ;
#168 = DIRECTION ( 'NONE',  ( 0.000000000000000000, 0.000000000000000000, -1.000000000000000000 ) ) ;
#169 = AXIS2_PLACEMENT_3D ( 'NONE', #139, #200, #330 ) ;
#170 = CIRCLE ( 'NONE', #252, 0.1874999999999998335 ) ;
#171 = EDGE_LOOP ( 'NONE', ( #118, #310, #150, #289 ) ) ;
#172 =( LENGTH_UNIT ( ) NAMED_UNIT ( * ) SI_UNIT ( $, .METRE. ) );
#173 = DIRECTION ( 'NONE',  ( -1.215801698091266626E-16, 1.000000000000000000, -0.000000000000000000 ) ) ;
#174 = ORIENTED_EDGE ( 'NONE', *, *, #70, .F. ) ;
#175 = CARTESIAN_POINT ( 'NONE',  ( 0.000000000000000000, 0.1875000000000000555, 0.000000000000000000 ) ) ;
#176 = VERTEX_POINT ( 'NONE', #302 ) ;
#177 = PRODUCT_DEFINITION ( 'UNKNOWN', '', #187, #301 ) ;
#178 = DIRECTION ( 'NONE',  ( 0.000000000000000000, 0.000000000000000000, 1.000000000000000000 ) ) ;
#179 = AXIS2_PLACEMENT_3D ( 'NONE', #290, #80, #137 ) ;
#180 = SURFACE_SIDE_STYLE ('',( #157 ) ) ;
#181 = MECHANICAL_DESIGN_GEOMETRIC_PRESENTATION_REPRESENTATION (  '', ( #319 ), #113 ) ;
#182 = CARTESIAN_POINT ( 'NONE',  ( -0.1874999999999994726, 0.5000000000000001110, 0.000000000000000000 ) ) ;
#183 = FILL_AREA_STYLE_COLOUR ( '', #246 ) ;
#184 = FACE_OUTER_BOUND ( 'NONE', #236, .T. ) ;
#185 = EDGE_CURVE ( 'NONE', #364, #281, #235, .T. ) ;
#186 = SURFACE_SIDE_STYLE ('',( #203 ) ) ;
#187 = PRODUCT_DEFINITION_FORMATION_WITH_SPECIFIED_SOURCE ( 'ANY', '', #29, .NOT_KNOWN. ) ;
#188 = FILL_AREA_STYLE_COLOUR ( '', #66 ) ;
#189 = DIRECTION ( 'NONE',  ( 0.000000000000000000, -0.000000000000000000, 1.000000000000000000 ) ) ;
#190 = LENGTH_MEASURE_WITH_UNIT ( LENGTH_MEASURE( 0.02539999999999999897 ), #345 );
#191 = COLOUR_RGB ( '',1.000000000000000000, 0.000000000000000000, 0.000000000000000000 ) ;
#192 = ORIENTED_EDGE ( 'NONE', *, *, #336, .T. ) ;
#193 = MECHANICAL_DESIGN_GEOMETRIC_PRESENTATION_REPRESENTATION (  '', ( #350 ), #197 ) ;
#194 = FACE_OUTER_BOUND ( 'NONE', #171, .T. ) ;
#195 = DIRECTION ( 'NONE',  ( -1.000000000000000000, 0.000000000000000000, 0.000000000000000000 ) ) ;
#196 = CARTESIAN_POINT ( 'NONE',  ( 0.000000000000000000, 0.000000000000000000, 0.000000000000000000 ) ) ;
#197 =( GEOMETRIC_REPRESENTATION_CONTEXT ( 3 ) GLOBAL_UNCERTAINTY_ASSIGNED_CONTEXT ( ( #51 ) ) GLOBAL_UNIT_ASSIGNED_CONTEXT ( ( #323, #257, #6 ) ) REPRESENTATION_CONTEXT ( 'NONE', 'WORKASPACE' ) );
#198 = SURFACE_SIDE_STYLE ('',( #163 ) ) ;
#199 = COLOUR_RGB ( '',1.000000000000000000, 0.000000000000000000, 0.000000000000000000 ) ;
#200 = DIRECTION ( 'NONE',  ( 1.215801698091266626E-16, -1.000000000000000000, 0.000000000000000000 ) ) ;
#201 = CARTESIAN_POINT ( 'NONE',  ( 0.1874999999999998335, 2.000000000000000000, 2.296212748401284644E-17 ) ) ;
#202 = SURFACE_STYLE_FILL_AREA ( #367 ) ;
#203 = SURFACE_STYLE_FILL_AREA ( #81 ) ;
#204 = SHAPE_DEFINITION_REPRESENTATION ( #86, #291 ) ;
#205 = AXIS2_PLACEMENT_3D ( 'NONE', #155, #71, #195 ) ;
#206 = DIRECTION ( 'NONE',  ( -1.215801698091266626E-16, 1.000000000000000000, -0.000000000000000000 ) ) ;
#207 = STYLED_ITEM ( 'NONE', ( #1 ), #253 ) ;
#208 = CARTESIAN_POINT ( 'NONE',  ( 0.000000000000000000, 0.5000000000000000000, 0.000000000000000000 ) ) ;
#209 = DIRECTION ( 'NONE',  ( 0.000000000000000000, 0.000000000000000000, -1.000000000000000000 ) ) ;
#210 = ORIENTED_EDGE ( 'NONE', *, *, #11, .F. ) ;
#211 = DIRECTION ( 'NONE',  ( 0.000000000000000000, 1.000000000000000000, 0.000000000000000000 ) ) ;
#212 = ORIENTED_EDGE ( 'NONE', *, *, #185, .T. ) ;
#213 = COLOUR_RGB ( '',0.7921568627450980005, 0.8196078431372548767, 0.9333333333333333481 ) ;
#214 = ORIENTED_EDGE ( 'NONE', *, *, #31, .F. ) ;
#215 = EDGE_CURVE ( 'NONE', #105, #338, #152, .T. ) ;
#216 = DIRECTION ( 'NONE',  ( -1.000000000000000000, -1.215801698091266626E-16, 0.000000000000000000 ) ) ;
#217 = DIRECTION ( 'NONE',  ( -0.000000000000000000, -1.000000000000000000, -0.000000000000000000 ) ) ;
#218 = AXIS2_PLACEMENT_3D ( 'NONE', #56, #270, #21 ) ;
#219 = PRESENTATION_LAYER_ASSIGNMENT (  '', '', ( #356 ) ) ;
#220 = SURFACE_STYLE_FILL_AREA ( #286 ) ;
#221 = SURFACE_STYLE_FILL_AREA ( #94 ) ;
#222 = APPLICATION_PROTOCOL_DEFINITION ( 'draft international standard', 'automotive_design', 1998, #64 ) ;
#223 = CYLINDRICAL_SURFACE ( 'NONE', #179, 0.1874999999999997780 ) ;
#224 = DIRECTION ( 'NONE',  ( -0.000000000000000000, -1.000000000000000000, -0.000000000000000000 ) ) ;
#225 = DIMENSIONAL_EXPONENTS ( 1.000000000000000000, 0.000000000000000000, 0.000000000000000000, 0.000000000000000000, 0.000000000000000000, 0.000000000000000000, 0.000000000000000000 ) ;
#226 =( LENGTH_UNIT ( ) NAMED_UNIT ( * ) SI_UNIT ( $, .METRE. ) );
#227 = PRESENTATION_STYLE_ASSIGNMENT (( #322 ) ) ;
#228 = EDGE_CURVE ( 'NONE', #59, #87, #170, .T. ) ;
#229 = FILL_AREA_STYLE_COLOUR ( '', #8 ) ;
#230 = FACE_OUTER_BOUND ( 'NONE', #241, .T. ) ;
#231 = ADVANCED_FACE ( 'NONE', ( #283 ), #60, .T. ) ;
#232 = CYLINDRICAL_SURFACE ( 'NONE', #284, 0.1874999999999999722 ) ;
#233 = UNCERTAINTY_MEASURE_WITH_UNIT (LENGTH_MEASURE( 1.000000000000000082E-05 ), #42, 'distance_accuracy_value', 'NONE');
#234 = DIRECTION ( 'NONE',  ( -0.000000000000000000, -1.000000000000000000, -0.000000000000000000 ) ) ;
#235 = CIRCLE ( 'NONE', #218, 0.1874999999999999445 ) ;
#236 = EDGE_LOOP ( 'NONE', ( #346, #174 ) ) ;
#237 = MECHANICAL_DESIGN_GEOMETRIC_PRESENTATION_REPRESENTATION (  '', ( #130 ), #15 ) ;
#238 = LENGTH_MEASURE_WITH_UNIT ( LENGTH_MEASURE( 0.02539999999999999897 ), #359 );
#239 = FILL_AREA_STYLE_COLOUR ( '', #213 ) ;
#240 = DIRECTION ( 'NONE',  ( -0.000000000000000000, -1.000000000000000000, -0.000000000000000000 ) ) ;
#241 = EDGE_LOOP ( 'NONE', ( #214, #131, #243, #278, #126 ) ) ;
#242 = AXIS2_PLACEMENT_3D ( 'NONE', #175, #250, #5 ) ;
#243 = ORIENTED_EDGE ( 'NONE', *, *, #273, .T. ) ;
#244 = SURFACE_STYLE_USAGE ( .BOTH. , #280 ) ;
#245 = SURFACE_STYLE_USAGE ( .BOTH. , #127 ) ;
#246 = COLOUR_RGB ( '',1.000000000000000000, 0.000000000000000000, 0.000000000000000000 ) ;
#247 =( CONVERSION_BASED_UNIT ( 'INCH', #311 ) LENGTH_UNIT ( ) NAMED_UNIT ( #77 ) );
#248 = DIRECTION ( 'NONE',  ( 0.000000000000000000, 0.000000000000000000, 1.000000000000000000 ) ) ;
#249 = CARTESIAN_POINT ( 'NONE',  ( 2.296212748401286801E-17, 0.1875000000000000555, 0.1874999999999999722 ) ) ;
#250 = DIRECTION ( 'NONE',  ( -0.000000000000000000, -1.000000000000000000, -0.000000000000000000 ) ) ;
#251 = AXIS2_PLACEMENT_3D ( 'NONE', #267, #173, #54 ) ;
#252 = AXIS2_PLACEMENT_3D ( 'NONE', #167, #206, #58 ) ;
#253 = ADVANCED_FACE ( 'NONE', ( #194 ), #72, .T. ) ;
#254 = AXIS2_PLACEMENT_3D ( 'NONE', #196, #217, #37 ) ;
#255 =( NAMED_UNIT ( * ) SI_UNIT ( $, .STERADIAN. ) SOLID_ANGLE_UNIT ( ) );
#256 = EDGE_LOOP ( 'NONE', ( #147, #274 ) ) ;
#257 =( NAMED_UNIT ( * ) PLANE_ANGLE_UNIT ( ) SI_UNIT ( $, .RADIAN. ) );
#258 = DIMENSIONAL_EXPONENTS ( 1.000000000000000000, 0.000000000000000000, 0.000000000000000000, 0.000000000000000000, 0.000000000000000000, 0.000000000000000000, 0.000000000000000000 ) ;
#259 = DIRECTION ( 'NONE',  ( -1.000000000000000000, 0.000000000000000000, 0.000000000000000000 ) ) ;
#260 = DIMENSIONAL_EXPONENTS ( 1.000000000000000000, 0.000000000000000000, 0.000000000000000000, 0.000000000000000000, 0.000000000000000000, 0.000000000000000000, 0.000000000000000000 ) ;
#261 = PRODUCT_RELATED_PRODUCT_CATEGORY ( 'part', '', ( #29 ) ) ;
#262 = SURFACE_STYLE_USAGE ( .BOTH. , #198 ) ;
#263 = CIRCLE ( 'NONE', #129, 0.1874999999999999445 ) ;
#264 = UNCERTAINTY_MEASURE_WITH_UNIT (LENGTH_MEASURE( 1.000000000000000082E-05 ), #272, 'distance_accuracy_value', 'NONE');
#265 = CARTESIAN_POINT ( 'NONE',  ( -2.296212748401287726E-17, 0.1875000000000000278, 0.000000000000000000 ) ) ;
#266 = CARTESIAN_POINT ( 'NONE',  ( -2.296212748401287726E-17, 0.1875000000000000278, 0.000000000000000000 ) ) ;
#267 = CARTESIAN_POINT ( 'NONE',  ( 6.123233995736766036E-17, 2.000000000000000000, 0.000000000000000000 ) ) ;
#268 = VERTEX_POINT ( 'NONE', #249 ) ;
#269 = SURFACE_SIDE_STYLE ('',( #55 ) ) ;
#270 = DIRECTION ( 'NONE',  ( -0.000000000000000000, -1.000000000000000000, -0.000000000000000000 ) ) ;
#271 =( NAMED_UNIT ( * ) PLANE_ANGLE_UNIT ( ) SI_UNIT ( $, .RADIAN. ) );
#272 =( CONVERSION_BASED_UNIT ( 'INCH', #238 ) LENGTH_UNIT ( ) NAMED_UNIT ( #109 ) );
#273 = EDGE_CURVE ( 'NONE', #364, #338, #28, .T. ) ;
#274 = ORIENTED_EDGE ( 'NONE', *, *, #336, .F. ) ;
#275 = AXIS2_PLACEMENT_3D ( 'NONE', #148, #178, #41 ) ;
#276 = DIRECTION ( 'NONE',  ( -0.000000000000000000, -1.000000000000000000, -0.000000000000000000 ) ) ;
#277 = CARTESIAN_POINT ( 'NONE',  ( -0.1874999999999997780, 2.000000000000000000, 0.000000000000000000 ) ) ;
#278 = ORIENTED_EDGE ( 'NONE', *, *, #215, .F. ) ;
#279 = AXIS2_PLACEMENT_3D ( 'NONE', #208, #211, #189 ) ;
#280 = SURFACE_SIDE_STYLE ('',( #221 ) ) ;
#281 = VERTEX_POINT ( 'NONE', #32 ) ;
#282 = CARTESIAN_POINT ( 'NONE',  ( 0.000000000000000000, 0.000000000000000000, 0.000000000000000000 ) ) ;
#283 = FACE_OUTER_BOUND ( 'NONE', #328, .T. ) ;
#284 = AXIS2_PLACEMENT_3D ( 'NONE', #138, #297, #17 ) ;
#285 = AXIS2_PLACEMENT_3D ( 'NONE', #329, #352, #10 ) ;
#286 = FILL_AREA_STYLE ('',( #34 ) ) ;
#287 = EDGE_CURVE ( 'NONE', #268, #105, #98, .T. ) ;
#288 = DIRECTION ( 'NONE',  ( -1.215801698091266626E-16, 1.000000000000000000, -0.000000000000000000 ) ) ;
#289 = ORIENTED_EDGE ( 'NONE', *, *, #76, .T. ) ;
#290 = CARTESIAN_POINT ( 'NONE',  ( 6.123233995736766036E-17, 2.000000000000000000, 0.000000000000000000 ) ) ;
#291 = ADVANCED_BREP_SHAPE_REPRESENTATION ( '17330', ( #62, #303, #299 ), #370 ) ;
#292 =( NAMED_UNIT ( * ) PLANE_ANGLE_UNIT ( ) SI_UNIT ( $, .RADIAN. ) );
#293 = FACE_OUTER_BOUND ( 'NONE', #318, .T. ) ;
#294 = CARTESIAN_POINT ( 'NONE',  ( 0.000000000000000000, 0.5000000000000000000, 0.000000000000000000 ) ) ;
#295 = PRESENTATION_STYLE_ASSIGNMENT (( #262 ) ) ;
#296 = CARTESIAN_POINT ( 'NONE',  ( 2.296212748401286801E-17, 0.000000000000000000, 0.1874999999999999722 ) ) ;
#297 = DIRECTION ( 'NONE',  ( -0.000000000000000000, -1.000000000000000000, -0.000000000000000000 ) ) ;
#298 = STYLED_ITEM ( 'NONE', ( #149 ), #62 ) ;
#299 = AXIS2_PLACEMENT_3D ( 'NONE', #282, #248, #3 ) ;
#300 = ORIENTED_EDGE ( 'NONE', *, *, #4, .F. ) ;
#301 = PRODUCT_DEFINITION_CONTEXT ( 'detailed design', #36, 'design' ) ;
#302 = CARTESIAN_POINT ( 'NONE',  ( 0.1874999999999999722, 0.1875000000000000555, 0.000000000000000000 ) ) ;
#303 = MANIFOLD_SOLID_BREP ( 'Revolve - Tool Body (Straight Shanked)', #361 ) ;
#304 = SURFACE_SIDE_STYLE ('',( #202 ) ) ;
#305 = EDGE_LOOP ( 'NONE', ( #57, #347 ) ) ;
#306 = DIRECTION ( 'NONE',  ( -1.215801698091266626E-16, 1.000000000000000000, -0.000000000000000000 ) ) ;
#307 = VERTEX_POINT ( 'NONE', #182 ) ;
#308 = PLANE ( 'NONE',  #279 ) ;
#309 = PRESENTATION_LAYER_ASSIGNMENT (  '', '', ( #319 ) ) ;
#310 = ORIENTED_EDGE ( 'NONE', *, *, #215, .T. ) ;
#311 = LENGTH_MEASURE_WITH_UNIT ( LENGTH_MEASURE( 0.02539999999999999897 ), #172 );
#312 = EDGE_CURVE ( 'NONE', #105, #22, #67, .T. ) ;
#313 = ORIENTED_EDGE ( 'NONE', *, *, #373, .T. ) ;
#314 = PRESENTATION_LAYER_ASSIGNMENT (  '', '', ( #207 ) ) ;
#315 = FILL_AREA_STYLE_COLOUR ( '', #199 ) ;
#316 = DIRECTION ( 'NONE',  ( -1.215801698091266626E-16, 1.000000000000000000, 0.000000000000000000 ) ) ;
#317 =( NAMED_UNIT ( * ) PLANE_ANGLE_UNIT ( ) SI_UNIT ( $, .RADIAN. ) );
#318 = EDGE_LOOP ( 'NONE', ( #123, #33, #30, #89 ) ) ;
#319 = STYLED_ITEM ( 'NONE', ( #354 ), #83 ) ;
#320 = AXIS2_PLACEMENT_3D ( 'NONE', #266, #334, #121 ) ;
#321 =( NAMED_UNIT ( * ) PLANE_ANGLE_UNIT ( ) SI_UNIT ( $, .RADIAN. ) );
#322 = SURFACE_STYLE_USAGE ( .BOTH. , #180 ) ;
#323 =( CONVERSION_BASED_UNIT ( 'INCH', #16 ) LENGTH_UNIT ( ) NAMED_UNIT ( #260 ) );
#324 = CIRCLE ( 'NONE', #242, 0.1874999999999999722 ) ;
#325 = ADVANCED_FACE ( 'NONE', ( #293 ), #223, .T. ) ;
#326 = MECHANICAL_DESIGN_GEOMETRIC_PRESENTATION_REPRESENTATION (  '', ( #356 ), #165 ) ;
#327 = DIRECTION ( 'NONE',  ( -0.000000000000000000, -1.000000000000000000, -0.000000000000000000 ) ) ;
#328 = EDGE_LOOP ( 'NONE', ( #212, #95, #68, #210, #91 ) ) ;
#329 = CARTESIAN_POINT ( 'NONE',  ( -2.296212748401287726E-17, 0.1875000000000000278, 0.000000000000000000 ) ) ;
#330 = DIRECTION ( 'NONE',  ( 1.000000000000000000, 1.215801698091266626E-16, 0.000000000000000000 ) ) ;
#331 = UNCERTAINTY_MEASURE_WITH_UNIT (LENGTH_MEASURE( 1.000000000000000082E-05 ), #103, 'distance_accuracy_value', 'NONE');
#332 =( NAMED_UNIT ( * ) SI_UNIT ( $, .STERADIAN. ) SOLID_ANGLE_UNIT ( ) );
#333 =( LENGTH_UNIT ( ) NAMED_UNIT ( * ) SI_UNIT ( $, .METRE. ) );
#334 = DIRECTION ( 'NONE',  ( 0.000000000000000000, 0.000000000000000000, 1.000000000000000000 ) ) ;
#335 =( GEOMETRIC_REPRESENTATION_CONTEXT ( 3 ) GLOBAL_UNCERTAINTY_ASSIGNED_CONTEXT ( ( #331 ) ) GLOBAL_UNIT_ASSIGNED_CONTEXT ( ( #103, #153, #133 ) ) REPRESENTATION_CONTEXT ( 'NONE', 'WORKASPACE' ) );
#336 = EDGE_CURVE ( 'NONE', #154, #307, #63, .T. ) ;
#337 = FACE_OUTER_BOUND ( 'NONE', #365, .T. ) ;
#338 = VERTEX_POINT ( 'NONE', #348 ) ;
#339 = UNCERTAINTY_MEASURE_WITH_UNIT (LENGTH_MEASURE( 1.000000000000000082E-05 ), #19, 'distance_accuracy_value', 'NONE');
#340 = EDGE_CURVE ( 'NONE', #307, #154, #151, .T. ) ;
#341 = FILL_AREA_STYLE ('',( #239 ) ) ;
#342 = AXIS2_PLACEMENT_3D ( 'NONE', #48, #9, #259 ) ;
#343 = ORIENTED_EDGE ( 'NONE', *, *, #312, .T. ) ;
#344 = ADVANCED_FACE ( 'NONE', ( #13 ), #362, .T. ) ;
#345 =( LENGTH_UNIT ( ) NAMED_UNIT ( * ) SI_UNIT ( $, .METRE. ) );
#346 = ORIENTED_EDGE ( 'NONE', *, *, #185, .F. ) ;
#347 = ORIENTED_EDGE ( 'NONE', *, *, #4, .T. ) ;
#348 = CARTESIAN_POINT ( 'NONE',  ( 0.000000000000000000, 0.1875000000000000555, -0.1874999999999999722 ) ) ;
#349 = CARTESIAN_POINT ( 'NONE',  ( 0.000000000000000000, 0.1875000000000000555, 0.000000000000000000 ) ) ;
#350 = STYLED_ITEM ( 'NONE', ( #295 ), #344 ) ;
#351 =( NAMED_UNIT ( * ) PLANE_ANGLE_UNIT ( ) SI_UNIT ( $, .RADIAN. ) );
#352 = DIRECTION ( 'NONE',  ( 1.224646799147353207E-16, -0.000000000000000000, 1.000000000000000000 ) ) ;
#353 = DIRECTION ( 'NONE',  ( 0.000000000000000000, 0.000000000000000000, -1.000000000000000000 ) ) ;
#354 = PRESENTATION_STYLE_ASSIGNMENT (( #161 ) ) ;
#355 = AXIS2_PLACEMENT_3D ( 'NONE', #144, #234, #209 ) ;
#356 = STYLED_ITEM ( 'NONE', ( #96 ), #231 ) ;
#357 = CARTESIAN_POINT ( 'NONE',  ( -0.1875000000000000278, 0.1875000000000000555, 2.296212748401287109E-17 ) ) ;
#358 = UNCERTAINTY_MEASURE_WITH_UNIT (LENGTH_MEASURE( 1.000000000000000082E-05 ), #23, 'distance_accuracy_value', 'NONE');
#359 =( LENGTH_UNIT ( ) NAMED_UNIT ( * ) SI_UNIT ( $, .METRE. ) );
#360 = PRESENTATION_STYLE_ASSIGNMENT (( #128 ) ) ;
#361 = CLOSED_SHELL ( 'NONE', ( #325, #18, #45, #26 ) ) ;
#362 = SPHERICAL_SURFACE ( 'NONE', #320, 0.1875000000000000278 ) ;
#363 = AXIS2_PLACEMENT_3D ( 'NONE', #43, #288, #46 ) ;
#364 = VERTEX_POINT ( 'NONE', #115 ) ;
#365 = EDGE_LOOP ( 'NONE', ( #27, #192, #313, #300 ) ) ;
#366 = LINE ( 'NONE', #92, #114 ) ;
#367 = FILL_AREA_STYLE ('',( #188 ) ) ;
#368 = MECHANICAL_DESIGN_GEOMETRIC_PRESENTATION_REPRESENTATION (  '', ( #24 ), #61 ) ;
#369 = ORIENTED_EDGE ( 'NONE', *, *, #38, .T. ) ;
#370 =( GEOMETRIC_REPRESENTATION_CONTEXT ( 3 ) GLOBAL_UNCERTAINTY_ASSIGNED_CONTEXT ( ( #142 ) ) GLOBAL_UNIT_ASSIGNED_CONTEXT ( ( #158, #321, #255 ) ) REPRESENTATION_CONTEXT ( 'NONE', 'WORKASPACE' ) );
#371 = CARTESIAN_POINT ( 'NONE',  ( 2.436025946710576543E-16, 0.5000000000000000000, 0.000000000000000000 ) ) ;
#372 = CARTESIAN_POINT ( 'NONE',  ( 0.000000000000000000, 0.1875000000000000555, 0.000000000000000000 ) ) ;
#373 = EDGE_CURVE ( 'NONE', #307, #59, #366, .T. ) ;
ENDSEC;
END-ISO-10303-21;
