ISO-10303-21;
HEADER;
FILE_DESCRIPTION (( 'STEP AP214' ),
    '1' );
FILE_NAME ('84686.STEP',
    '2023-06-23T14:31:55',
    ( '' ),
    ( '' ),
    'SwSTEP 2.0',
    'SolidWorks 2023',
    '' );
FILE_SCHEMA (( 'AUTOMOTIVE_DESIGN' ));
ENDSEC;

DATA;
#1 = CIRCLE ( 'NONE', #334, 0.09375000000000001388 ) ;
#2 =( CONVERSION_BASED_UNIT ( 'INCH', #127 ) LENGTH_UNIT ( ) NAMED_UNIT ( #28 ) );
#3 =( GEOMETRIC_REPRESENTATION_CONTEXT ( 3 ) GLOBAL_UNCERTAINTY_ASSIGNED_CONTEXT ( ( #297 ) ) GLOBAL_UNIT_ASSIGNED_CONTEXT ( ( #181, #26, #72 ) ) REPRESENTATION_CONTEXT ( 'NONE', 'WORKASPACE' ) );
#4 = PRESENTATION_STYLE_ASSIGNMENT (( #242 ) ) ;
#5 = UNCERTAINTY_MEASURE_WITH_UNIT (LENGTH_MEASURE( 1.000000000000000082E-05 ), #344, 'distance_accuracy_value', 'NONE');
#6 = ORIENTED_EDGE ( 'NONE', *, *, #86, .F. ) ;
#7 = CARTESIAN_POINT ( 'NONE',  ( 0.09375000000000006939, 0.3554980216144650873, 1.148106374200644633E-17 ) ) ;
#8 = ORIENTED_EDGE ( 'NONE', *, *, #316, .F. ) ;
#9 = AXIS2_PLACEMENT_3D ( 'NONE', #49, #27, #78 ) ;
#10 = APPLICATION_CONTEXT ( 'automotive_design' ) ;
#11 = DIRECTION ( 'NONE',  ( 0.000000000000000000, 0.000000000000000000, -1.000000000000000000 ) ) ;
#12 = ORIENTED_EDGE ( 'NONE', *, *, #176, .F. ) ;
#13 = ADVANCED_FACE ( 'NONE', ( #90 ), #332, .T. ) ;
#14 = SURFACE_STYLE_USAGE ( .BOTH. , #250 ) ;
#15 =( NAMED_UNIT ( * ) SI_UNIT ( $, .STERADIAN. ) SOLID_ANGLE_UNIT ( ) );
#16 = DIRECTION ( 'NONE',  ( -0.000000000000000000, -1.000000000000000000, -0.000000000000000000 ) ) ;
#17 = ORIENTED_EDGE ( 'NONE', *, *, #73, .T. ) ;
#18 = FACE_OUTER_BOUND ( 'NONE', #290, .T. ) ;
#19 = ORIENTED_EDGE ( 'NONE', *, *, #179, .T. ) ;
#20 = ORIENTED_EDGE ( 'NONE', *, *, #302, .T. ) ;
#21 = AXIS2_PLACEMENT_3D ( 'NONE', #209, #238, #98 ) ;
#22 = CARTESIAN_POINT ( 'NONE',  ( 0.000000000000000000, 0.000000000000000000, 0.000000000000000000 ) ) ;
#23 = AXIS2_PLACEMENT_3D ( 'NONE', #22, #336, #232 ) ;
#24 = PLANE ( 'NONE',  #69 ) ;
#25 = PRODUCT ( '84686', '84686', '', ( #153 ) ) ;
#26 =( NAMED_UNIT ( * ) PLANE_ANGLE_UNIT ( ) SI_UNIT ( $, .RADIAN. ) );
#27 = DIRECTION ( 'NONE',  ( -0.000000000000000000, -1.000000000000000000, -0.000000000000000000 ) ) ;
#28 = DIMENSIONAL_EXPONENTS ( 1.000000000000000000, 0.000000000000000000, 0.000000000000000000, 0.000000000000000000, 0.000000000000000000, 0.000000000000000000, 0.000000000000000000 ) ;
#29 = AXIS2_PLACEMENT_3D ( 'NONE', #267, #173, #293 ) ;
#30 = EDGE_CURVE ( 'NONE', #271, #215, #170, .T. ) ;
#31 = DIRECTION ( 'NONE',  ( -1.000000000000000000, 0.000000000000000000, 0.000000000000000000 ) ) ;
#32 = FILL_AREA_STYLE_COLOUR ( '', #40 ) ;
#33 = MECHANICAL_DESIGN_GEOMETRIC_PRESENTATION_REPRESENTATION (  '', ( #325 ), #39 ) ;
#34 = PLANE ( 'NONE',  #92 ) ;
#35 = EDGE_LOOP ( 'NONE', ( #134, #251 ) ) ;
#36 =( NAMED_UNIT ( * ) PLANE_ANGLE_UNIT ( ) SI_UNIT ( $, .RADIAN. ) );
#37 = EDGE_LOOP ( 'NONE', ( #218, #17, #188, #160 ) ) ;
#38 = VECTOR ( 'NONE', #53, 39.37007874015748143 ) ;
#39 =( GEOMETRIC_REPRESENTATION_CONTEXT ( 3 ) GLOBAL_UNCERTAINTY_ASSIGNED_CONTEXT ( ( #5 ) ) GLOBAL_UNIT_ASSIGNED_CONTEXT ( ( #344, #36, #277 ) ) REPRESENTATION_CONTEXT ( 'NONE', 'WORKASPACE' ) );
#40 = COLOUR_RGB ( '',1.000000000000000000, 0.000000000000000000, 0.000000000000000000 ) ;
#41 =( NAMED_UNIT ( * ) SI_UNIT ( $, .STERADIAN. ) SOLID_ANGLE_UNIT ( ) );
#42 = ORIENTED_EDGE ( 'NONE', *, *, #117, .F. ) ;
#43 = MANIFOLD_SOLID_BREP ( 'Revolve - Tool Body (Reduced Cut Diameter)', #343 ) ;
#44 = CYLINDRICAL_SURFACE ( 'NONE', #129, 0.07810000000000000275 ) ;
#45 = CIRCLE ( 'NONE', #216, 0.07810000000000000275 ) ;
#46 = CARTESIAN_POINT ( 'NONE',  ( 6.123233995736766036E-17, 2.000000000000000000, 0.000000000000000000 ) ) ;
#47 = FILL_AREA_STYLE ('',( #221 ) ) ;
#48 = ORIENTED_EDGE ( 'NONE', *, *, #141, .F. ) ;
#49 = CARTESIAN_POINT ( 'NONE',  ( 0.000000000000000000, 0.000000000000000000, 0.000000000000000000 ) ) ;
#50 = COLOUR_RGB ( '',0.7921568627450980005, 0.8196078431372548767, 0.9333333333333333481 ) ;
#51 = CARTESIAN_POINT ( 'NONE',  ( 9.564491501340828324E-18, 0.000000000000000000, 0.07810000000000000275 ) ) ;
#52 = UNCERTAINTY_MEASURE_WITH_UNIT (LENGTH_MEASURE( 1.000000000000000082E-05 ), #341, 'distance_accuracy_value', 'NONE');
#53 = DIRECTION ( 'NONE',  ( 3.628583108584750472E-17, 1.000000000000000000, -0.000000000000000000 ) ) ;
#54 = DIMENSIONAL_EXPONENTS ( 1.000000000000000000, 0.000000000000000000, 0.000000000000000000, 0.000000000000000000, 0.000000000000000000, 0.000000000000000000, 0.000000000000000000 ) ;
#55 = DIRECTION ( 'NONE',  ( 0.000000000000000000, 0.000000000000000000, -1.000000000000000000 ) ) ;
#56 = DIRECTION ( 'NONE',  ( 0.000000000000000000, 1.000000000000000000, 0.000000000000000000 ) ) ;
#57 = APPLICATION_PROTOCOL_DEFINITION ( 'draft international standard', 'automotive_design', 1998, #329 ) ;
#58 = CARTESIAN_POINT ( 'NONE',  ( 0.000000000000000000, 0.3125000000000000000, 0.000000000000000000 ) ) ;
#59 =( GEOMETRIC_REPRESENTATION_CONTEXT ( 3 ) GLOBAL_UNCERTAINTY_ASSIGNED_CONTEXT ( ( #357 ) ) GLOBAL_UNIT_ASSIGNED_CONTEXT ( ( #2, #154, #130 ) ) REPRESENTATION_CONTEXT ( 'NONE', 'WORKASPACE' ) );
#60 = SURFACE_SIDE_STYLE ('',( #80 ) ) ;
#61 = ADVANCED_FACE ( 'NONE', ( #315 ), #319, .T. ) ;
#62 =( LENGTH_UNIT ( ) NAMED_UNIT ( * ) SI_UNIT ( $, .METRE. ) );
#63 = FILL_AREA_STYLE ('',( #252 ) ) ;
#64 =( NAMED_UNIT ( * ) PLANE_ANGLE_UNIT ( ) SI_UNIT ( $, .RADIAN. ) );
#65 = LENGTH_MEASURE_WITH_UNIT ( LENGTH_MEASURE( 0.02539999999999999897 ), #222 );
#66 = CARTESIAN_POINT ( 'NONE',  ( 0.000000000000000000, 0.3125000000000000000, 0.000000000000000000 ) ) ;
#67 = LINE ( 'NONE', #167, #306 ) ;
#68 = CARTESIAN_POINT ( 'NONE',  ( 6.123233995736766036E-17, 2.000000000000000000, 0.000000000000000000 ) ) ;
#69 = AXIS2_PLACEMENT_3D ( 'NONE', #76, #291, #262 ) ;
#70 = SURFACE_STYLE_USAGE ( .BOTH. , #95 ) ;
#71 = EDGE_CURVE ( 'NONE', #345, #190, #265, .T. ) ;
#72 =( NAMED_UNIT ( * ) SI_UNIT ( $, .STERADIAN. ) SOLID_ANGLE_UNIT ( ) );
#73 = EDGE_CURVE ( 'NONE', #254, #132, #194, .T. ) ;
#74 = DIRECTION ( 'NONE',  ( 0.000000000000000000, 0.000000000000000000, -1.000000000000000000 ) ) ;
#75 = MECHANICAL_DESIGN_GEOMETRIC_PRESENTATION_REPRESENTATION (  '', ( #156 ), #288 ) ;
#76 = CARTESIAN_POINT ( 'NONE',  ( 5.141563304291515616E-35, 0.3125000000000000000, 0.000000000000000000 ) ) ;
#77 = DIRECTION ( 'NONE',  ( -1.000000000000000000, 0.000000000000000000, 0.000000000000000000 ) ) ;
#78 = DIRECTION ( 'NONE',  ( 0.000000000000000000, 0.000000000000000000, -1.000000000000000000 ) ) ;
#79 = COLOUR_RGB ( '',1.000000000000000000, 0.000000000000000000, 0.000000000000000000 ) ;
#80 = SURFACE_STYLE_FILL_AREA ( #210 ) ;
#81 = LINE ( 'NONE', #211, #229 ) ;
#82 = ORIENTED_EDGE ( 'NONE', *, *, #141, .T. ) ;
#83 = DIRECTION ( 'NONE',  ( 0.000000000000000000, -0.000000000000000000, 1.000000000000000000 ) ) ;
#84 = VERTEX_POINT ( 'NONE', #151 ) ;
#85 = STYLED_ITEM ( 'NONE', ( #4 ), #241 ) ;
#86 = EDGE_CURVE ( 'NONE', #84, #158, #182, .T. ) ;
#87 =( CONVERSION_BASED_UNIT ( 'INCH', #186 ) LENGTH_UNIT ( ) NAMED_UNIT ( #328 ) );
#88 = DIRECTION ( 'NONE',  ( 3.628583108584750472E-17, 1.000000000000000000, -0.000000000000000000 ) ) ;
#89 = DIRECTION ( 'NONE',  ( 0.000000000000000000, 0.000000000000000000, -1.000000000000000000 ) ) ;
#90 = FACE_OUTER_BOUND ( 'NONE', #333, .T. ) ;
#91 = AXIS2_PLACEMENT_3D ( 'NONE', #207, #327, #77 ) ;
#92 = AXIS2_PLACEMENT_3D ( 'NONE', #58, #56, #83 ) ;
#93 = CARTESIAN_POINT ( 'NONE',  ( 0.000000000000000000, 0.000000000000000000, 0.000000000000000000 ) ) ;
#94 = DIRECTION ( 'NONE',  ( -1.000000000000000000, 0.000000000000000000, 0.000000000000000000 ) ) ;
#95 = SURFACE_SIDE_STYLE ('',( #346 ) ) ;
#96 = AXIS2_PLACEMENT_3D ( 'NONE', #353, #178, #55 ) ;
#97 = AXIS2_PLACEMENT_3D ( 'NONE', #193, #114, #227 ) ;
#98 = DIRECTION ( 'NONE',  ( -1.000000000000000000, 0.000000000000000000, 0.000000000000000000 ) ) ;
#99 = DIRECTION ( 'NONE',  ( -0.000000000000000000, -1.000000000000000000, -0.000000000000000000 ) ) ;
#100 = DIRECTION ( 'NONE',  ( 0.3420201433256688239, 0.9396926207859083169, 4.188538737676992998E-17 ) ) ;
#101 = LINE ( 'NONE', #235, #133 ) ;
#102 = DIRECTION ( 'NONE',  ( -0.3420201433256687129, 0.9396926207859083169, 0.000000000000000000 ) ) ;
#103 = MECHANICAL_DESIGN_GEOMETRIC_PRESENTATION_REPRESENTATION (  '', ( #348 ), #161 ) ;
#104 = FILL_AREA_STYLE ('',( #212 ) ) ;
#105 = ADVANCED_BREP_SHAPE_REPRESENTATION ( '84686', ( #272, #43, #23 ), #237 ) ;
#106 = DIRECTION ( 'NONE',  ( 3.628583108584750472E-17, 1.000000000000000000, -0.000000000000000000 ) ) ;
#107 = CYLINDRICAL_SURFACE ( 'NONE', #113, 0.09375000000000004163 ) ;
#108 = ORIENTED_EDGE ( 'NONE', *, *, #231, .T. ) ;
#109 = EDGE_CURVE ( 'NONE', #345, #159, #355, .T. ) ;
#110 = ORIENTED_EDGE ( 'NONE', *, *, #86, .T. ) ;
#111 = PRESENTATION_STYLE_ASSIGNMENT (( #14 ) ) ;
#112 = VECTOR ( 'NONE', #118, 39.37007874015748143 ) ;
#113 = AXIS2_PLACEMENT_3D ( 'NONE', #335, #106, #152 ) ;
#114 = DIRECTION ( 'NONE',  ( -0.000000000000000000, -1.000000000000000000, -0.000000000000000000 ) ) ;
#115 =( NAMED_UNIT ( * ) PLANE_ANGLE_UNIT ( ) SI_UNIT ( $, .RADIAN. ) );
#116 = VERTEX_POINT ( 'NONE', #299 ) ;
#117 = EDGE_CURVE ( 'NONE', #132, #215, #234, .T. ) ;
#118 = DIRECTION ( 'NONE',  ( -0.000000000000000000, -1.000000000000000000, -0.000000000000000000 ) ) ;
#119 =( NAMED_UNIT ( * ) SI_UNIT ( $, .STERADIAN. ) SOLID_ANGLE_UNIT ( ) );
#120 = LINE ( 'NONE', #359, #239 ) ;
#121 = ORIENTED_EDGE ( 'NONE', *, *, #109, .F. ) ;
#122 = PRODUCT_DEFINITION_FORMATION_WITH_SPECIFIED_SOURCE ( 'ANY', '', #25, .NOT_KNOWN. ) ;
#123 = CARTESIAN_POINT ( 'NONE',  ( -0.09374999999999994449, 2.000000000000000000, 0.000000000000000000 ) ) ;
#124 = DIRECTION ( 'NONE',  ( -1.000000000000000000, 0.000000000000000000, 0.000000000000000000 ) ) ;
#125 = EDGE_CURVE ( 'NONE', #190, #345, #45, .T. ) ;
#126 = EDGE_CURVE ( 'NONE', #190, #116, #101, .T. ) ;
#127 = LENGTH_MEASURE_WITH_UNIT ( LENGTH_MEASURE( 0.02539999999999999897 ), #187 );
#128 = AXIS2_PLACEMENT_3D ( 'NONE', #321, #99, #74 ) ;
#129 = AXIS2_PLACEMENT_3D ( 'NONE', #249, #16, #11 ) ;
#130 =( NAMED_UNIT ( * ) SI_UNIT ( $, .STERADIAN. ) SOLID_ANGLE_UNIT ( ) );
#131 = FACE_OUTER_BOUND ( 'NONE', #165, .T. ) ;
#132 = VERTEX_POINT ( 'NONE', #148 ) ;
#133 = VECTOR ( 'NONE', #230, 39.37007874015748143 ) ;
#134 = ORIENTED_EDGE ( 'NONE', *, *, #125, .F. ) ;
#135 = ORIENTED_EDGE ( 'NONE', *, *, #302, .F. ) ;
#136 = FILL_AREA_STYLE ('',( #164 ) ) ;
#137 = ORIENTED_EDGE ( 'NONE', *, *, #180, .T. ) ;
#138 = SURFACE_STYLE_FILL_AREA ( #136 ) ;
#139 = EDGE_LOOP ( 'NONE', ( #256, #20 ) ) ;
#140 = CLOSED_SHELL ( 'NONE', ( #301, #241, #61, #273 ) ) ;
#141 = EDGE_CURVE ( 'NONE', #132, #254, #224, .T. ) ;
#142 = EDGE_LOOP ( 'NONE', ( #226, #191 ) ) ;
#143 = DIRECTION ( 'NONE',  ( 3.628583108584750472E-17, 1.000000000000000000, -0.000000000000000000 ) ) ;
#144 = FACE_OUTER_BOUND ( 'NONE', #283, .T. ) ;
#145 = PRESENTATION_LAYER_ASSIGNMENT (  '', '', ( #280 ) ) ;
#146 = DIMENSIONAL_EXPONENTS ( 1.000000000000000000, 0.000000000000000000, 0.000000000000000000, 0.000000000000000000, 0.000000000000000000, 0.000000000000000000, 0.000000000000000000 ) ;
#147 = DIRECTION ( 'NONE',  ( 0.000000000000000000, 0.000000000000000000, -1.000000000000000000 ) ) ;
#148 = CARTESIAN_POINT ( 'NONE',  ( -0.09375000000000006939, 0.3554980216144650873, 0.000000000000000000 ) ) ;
#149 = CIRCLE ( 'NONE', #91, 0.07810000000000000275 ) ;
#150 =( GEOMETRIC_REPRESENTATION_CONTEXT ( 3 ) GLOBAL_UNCERTAINTY_ASSIGNED_CONTEXT ( ( #175 ) ) GLOBAL_UNIT_ASSIGNED_CONTEXT ( ( #87, #337, #304 ) ) REPRESENTATION_CONTEXT ( 'NONE', 'WORKASPACE' ) );
#151 = CARTESIAN_POINT ( 'NONE',  ( -0.07810000000000000275, 0.3125000000000000000, 0.000000000000000000 ) ) ;
#152 = DIRECTION ( 'NONE',  ( -1.000000000000000000, 0.000000000000000000, 0.000000000000000000 ) ) ;
#153 = PRODUCT_CONTEXT ( 'NONE', #329, 'mechanical' ) ;
#154 =( NAMED_UNIT ( * ) PLANE_ANGLE_UNIT ( ) SI_UNIT ( $, .RADIAN. ) );
#155 = AXIS2_PLACEMENT_3D ( 'NONE', #157, #305, #124 ) ;
#156 = STYLED_ITEM ( 'NONE', ( #311 ), #273 ) ;
#157 = CARTESIAN_POINT ( 'NONE',  ( 6.123233995736766036E-17, 2.000000000000000000, 0.000000000000000000 ) ) ;
#158 = VERTEX_POINT ( 'NONE', #205 ) ;
#159 = VERTEX_POINT ( 'NONE', #172 ) ;
#160 = ORIENTED_EDGE ( 'NONE', *, *, #30, .F. ) ;
#161 =( GEOMETRIC_REPRESENTATION_CONTEXT ( 3 ) GLOBAL_UNCERTAINTY_ASSIGNED_CONTEXT ( ( #351 ) ) GLOBAL_UNIT_ASSIGNED_CONTEXT ( ( #169, #115, #15 ) ) REPRESENTATION_CONTEXT ( 'NONE', 'WORKASPACE' ) );
#162 = PRESENTATION_STYLE_ASSIGNMENT (( #70 ) ) ;
#163 = ADVANCED_FACE ( 'NONE', ( #324 ), #24, .F. ) ;
#164 = FILL_AREA_STYLE_COLOUR ( '', #177 ) ;
#165 = EDGE_LOOP ( 'NONE', ( #82, #198, #8, #42 ) ) ;
#166 = SURFACE_STYLE_FILL_AREA ( #47 ) ;
#167 = CARTESIAN_POINT ( 'NONE',  ( 0.09375000000000011102, 2.000000000000000000, 1.148106374200644171E-17 ) ) ;
#168 = PRODUCT_DEFINITION_CONTEXT ( 'detailed design', #10, 'design' ) ;
#169 =( CONVERSION_BASED_UNIT ( 'INCH', #310 ) LENGTH_UNIT ( ) NAMED_UNIT ( #263 ) );
#170 = CIRCLE ( 'NONE', #236, 0.09375000000000001388 ) ;
#171 = ORIENTED_EDGE ( 'NONE', *, *, #126, .F. ) ;
#172 = CARTESIAN_POINT ( 'NONE',  ( 9.564491501340828324E-18, 0.000000000000000000, 0.07810000000000000275 ) ) ;
#173 = DIRECTION ( 'NONE',  ( 3.628583108584750472E-17, 1.000000000000000000, -0.000000000000000000 ) ) ;
#174 = DIMENSIONAL_EXPONENTS ( 1.000000000000000000, 0.000000000000000000, 0.000000000000000000, 0.000000000000000000, 0.000000000000000000, 0.000000000000000000, 0.000000000000000000 ) ;
#175 = UNCERTAINTY_MEASURE_WITH_UNIT (LENGTH_MEASURE( 1.000000000000000082E-05 ), #87, 'distance_accuracy_value', 'NONE');
#176 = EDGE_CURVE ( 'NONE', #116, #159, #257, .T. ) ;
#177 = COLOUR_RGB ( '',1.000000000000000000, 0.000000000000000000, 0.000000000000000000 ) ;
#178 = DIRECTION ( 'NONE',  ( -0.000000000000000000, -1.000000000000000000, -0.000000000000000000 ) ) ;
#179 = EDGE_CURVE ( 'NONE', #158, #254, #120, .T. ) ;
#180 = EDGE_CURVE ( 'NONE', #158, #84, #149, .T. ) ;
#181 =( CONVERSION_BASED_UNIT ( 'INCH', #350 ) LENGTH_UNIT ( ) NAMED_UNIT ( #298 ) );
#182 = CIRCLE ( 'NONE', #21, 0.07810000000000000275 ) ;
#183 = PRESENTATION_LAYER_ASSIGNMENT (  '', '', ( #325 ) ) ;
#184 = PRESENTATION_LAYER_ASSIGNMENT (  '', '', ( #85 ) ) ;
#185 = SURFACE_STYLE_USAGE ( .BOTH. , #60 ) ;
#186 = LENGTH_MEASURE_WITH_UNIT ( LENGTH_MEASURE( 0.02539999999999999897 ), #217 );
#187 =( LENGTH_UNIT ( ) NAMED_UNIT ( * ) SI_UNIT ( $, .METRE. ) );
#188 = ORIENTED_EDGE ( 'NONE', *, *, #117, .T. ) ;
#189 = SURFACE_SIDE_STYLE ('',( #308 ) ) ;
#190 = VERTEX_POINT ( 'NONE', #264 ) ;
#191 = ORIENTED_EDGE ( 'NONE', *, *, #30, .T. ) ;
#192 = ADVANCED_FACE ( 'NONE', ( #144 ), #323, .T. ) ;
#193 = CARTESIAN_POINT ( 'NONE',  ( 0.000000000000000000, 0.000000000000000000, 0.000000000000000000 ) ) ;
#194 = CIRCLE ( 'NONE', #29, 0.09375000000000005551 ) ;
#195 = AXIS2_PLACEMENT_3D ( 'NONE', #354, #322, #259 ) ;
#196 =( LENGTH_UNIT ( ) NAMED_UNIT ( * ) SI_UNIT ( $, .METRE. ) );
#197 = PRODUCT_DEFINITION_SHAPE ( 'NONE', 'NONE',  #208 ) ;
#198 = ORIENTED_EDGE ( 'NONE', *, *, #312, .T. ) ;
#199 = SURFACE_STYLE_USAGE ( .BOTH. , #285 ) ;
#200 = FACE_OUTER_BOUND ( 'NONE', #142, .T. ) ;
#201 = COLOUR_RGB ( '',0.7921568627450980005, 0.8196078431372548767, 0.9333333333333333481 ) ;
#202 = DIRECTION ( 'NONE',  ( 3.628583108584750472E-17, 1.000000000000000000, -0.000000000000000000 ) ) ;
#203 = CARTESIAN_POINT ( 'NONE',  ( 0.000000000000000000, 0.3125000000000000000, 0.000000000000000000 ) ) ;
#204 = CARTESIAN_POINT ( 'NONE',  ( 9.564491501340828324E-18, 0.3125000000000000000, 0.07810000000000000275 ) ) ;
#205 = CARTESIAN_POINT ( 'NONE',  ( 0.07810000000000000275, 0.3125000000000000000, 1.052277762167363810E-17 ) ) ;
#206 = LENGTH_MEASURE_WITH_UNIT ( LENGTH_MEASURE( 0.02539999999999999897 ), #295 );
#207 = CARTESIAN_POINT ( 'NONE',  ( 0.000000000000000000, 0.3125000000000000000, 0.000000000000000000 ) ) ;
#208 = PRODUCT_DEFINITION ( 'UNKNOWN', '', #122, #168 ) ;
#209 = CARTESIAN_POINT ( 'NONE',  ( 0.000000000000000000, 0.3125000000000000000, 0.000000000000000000 ) ) ;
#210 = FILL_AREA_STYLE ('',( #307 ) ) ;
#211 = CARTESIAN_POINT ( 'NONE',  ( -0.07810000000000000275, 0.3125000000000000000, 0.000000000000000000 ) ) ;
#212 = FILL_AREA_STYLE_COLOUR ( '', #79 ) ;
#213 = ORIENTED_EDGE ( 'NONE', *, *, #231, .F. ) ;
#214 = FACE_OUTER_BOUND ( 'NONE', #37, .T. ) ;
#215 = VERTEX_POINT ( 'NONE', #123 ) ;
#216 = AXIS2_PLACEMENT_3D ( 'NONE', #203, #300, #147 ) ;
#217 =( LENGTH_UNIT ( ) NAMED_UNIT ( * ) SI_UNIT ( $, .METRE. ) );
#218 = ORIENTED_EDGE ( 'NONE', *, *, #312, .F. ) ;
#219 = ADVANCED_FACE ( 'NONE', ( #214 ), #331, .T. ) ;
#220 = SURFACE_SIDE_STYLE ('',( #281 ) ) ;
#221 = FILL_AREA_STYLE_COLOUR ( '', #201 ) ;
#222 =( LENGTH_UNIT ( ) NAMED_UNIT ( * ) SI_UNIT ( $, .METRE. ) );
#223 = LENGTH_MEASURE_WITH_UNIT ( LENGTH_MEASURE( 0.02539999999999999897 ), #62 );
#224 = CIRCLE ( 'NONE', #279, 0.09375000000000005551 ) ;
#225 = PRESENTATION_LAYER_ASSIGNMENT (  '', '', ( #156 ) ) ;
#226 = ORIENTED_EDGE ( 'NONE', *, *, #316, .T. ) ;
#227 = DIRECTION ( 'NONE',  ( 0.000000000000000000, 0.000000000000000000, -1.000000000000000000 ) ) ;
#228 = ORIENTED_EDGE ( 'NONE', *, *, #180, .F. ) ;
#229 = VECTOR ( 'NONE', #102, 39.37007874015748854 ) ;
#230 = DIRECTION ( 'NONE',  ( -0.000000000000000000, -1.000000000000000000, -0.000000000000000000 ) ) ;
#231 = EDGE_CURVE ( 'NONE', #84, #132, #81, .T. ) ;
#232 = DIRECTION ( 'NONE',  ( 1.000000000000000000, 0.000000000000000000, 0.000000000000000000 ) ) ;
#233 = DIRECTION ( 'NONE',  ( 3.628583108584750472E-17, 1.000000000000000000, -0.000000000000000000 ) ) ;
#234 = LINE ( 'NONE', #296, #38 ) ;
#235 = CARTESIAN_POINT ( 'NONE',  ( 0.000000000000000000, 0.000000000000000000, -0.07810000000000000275 ) ) ;
#236 = AXIS2_PLACEMENT_3D ( 'NONE', #68, #88, #313 ) ;
#237 =( GEOMETRIC_REPRESENTATION_CONTEXT ( 3 ) GLOBAL_UNCERTAINTY_ASSIGNED_CONTEXT ( ( #352 ) ) GLOBAL_UNIT_ASSIGNED_CONTEXT ( ( #326, #261, #119 ) ) REPRESENTATION_CONTEXT ( 'NONE', 'WORKASPACE' ) );
#238 = DIRECTION ( 'NONE',  ( 3.628583108584750472E-17, 1.000000000000000000, -0.000000000000000000 ) ) ;
#239 = VECTOR ( 'NONE', #100, 39.37007874015748854 ) ;
#240 = APPLICATION_PROTOCOL_DEFINITION ( 'draft international standard', 'automotive_design', 1998, #10 ) ;
#241 = ADVANCED_FACE ( 'NONE', ( #243 ), #34, .T. ) ;
#242 = SURFACE_STYLE_USAGE ( .BOTH. , #189 ) ;
#243 = FACE_OUTER_BOUND ( 'NONE', #35, .T. ) ;
#244 = ORIENTED_EDGE ( 'NONE', *, *, #71, .T. ) ;
#245 = PRODUCT_RELATED_PRODUCT_CATEGORY ( 'part', '', ( #25 ) ) ;
#246 = ORIENTED_EDGE ( 'NONE', *, *, #179, .F. ) ;
#247 = AXIS2_PLACEMENT_3D ( 'NONE', #258, #233, #31 ) ;
#248 = DIRECTION ( 'NONE',  ( 0.000000000000000000, -1.000000000000000000, -0.000000000000000000 ) ) ;
#249 = CARTESIAN_POINT ( 'NONE',  ( 0.000000000000000000, 0.000000000000000000, 0.000000000000000000 ) ) ;
#250 = SURFACE_SIDE_STYLE ('',( #138 ) ) ;
#251 = ORIENTED_EDGE ( 'NONE', *, *, #71, .F. ) ;
#252 = FILL_AREA_STYLE_COLOUR ( '', #349 ) ;
#253 = DIRECTION ( 'NONE',  ( 3.628583108584750472E-17, 1.000000000000000000, -0.000000000000000000 ) ) ;
#254 = VERTEX_POINT ( 'NONE', #7 ) ;
#255 = PLANE ( 'NONE',  #195 ) ;
#256 = ORIENTED_EDGE ( 'NONE', *, *, #176, .T. ) ;
#257 = CIRCLE ( 'NONE', #9, 0.07810000000000000275 ) ;
#258 = CARTESIAN_POINT ( 'NONE',  ( 0.000000000000000000, 0.3125000000000000000, 0.000000000000000000 ) ) ;
#259 = DIRECTION ( 'NONE',  ( 1.000000000000000000, -3.628583108584750472E-17, 0.000000000000000000 ) ) ;
#260 = CARTESIAN_POINT ( 'NONE',  ( 1.560218949328098644E-18, 0.3554980216144650873, 0.000000000000000000 ) ) ;
#261 =( NAMED_UNIT ( * ) PLANE_ANGLE_UNIT ( ) SI_UNIT ( $, .RADIAN. ) );
#262 = DIRECTION ( 'NONE',  ( -1.000000000000000000, 3.628583108584750472E-17, 0.000000000000000000 ) ) ;
#263 = DIMENSIONAL_EXPONENTS ( 1.000000000000000000, 0.000000000000000000, 0.000000000000000000, 0.000000000000000000, 0.000000000000000000, 0.000000000000000000, 0.000000000000000000 ) ;
#264 = CARTESIAN_POINT ( 'NONE',  ( 0.000000000000000000, 0.3125000000000000000, -0.07810000000000000275 ) ) ;
#265 = CIRCLE ( 'NONE', #96, 0.07810000000000000275 ) ;
#266 = MECHANICAL_DESIGN_GEOMETRIC_PRESENTATION_REPRESENTATION (  '', ( #85 ), #59 ) ;
#267 = CARTESIAN_POINT ( 'NONE',  ( 1.560218949328098644E-18, 0.3554980216144650873, 0.000000000000000000 ) ) ;
#268 = ADVANCED_FACE ( 'NONE', ( #131 ), #107, .T. ) ;
#269 = PRESENTATION_LAYER_ASSIGNMENT (  '', '', ( #317 ) ) ;
#270 = AXIS2_PLACEMENT_3D ( 'NONE', #93, #248, #89 ) ;
#271 = VERTEX_POINT ( 'NONE', #339 ) ;
#272 = MANIFOLD_SOLID_BREP ( 'Revolve - Cutting Edge', #140 ) ;
#273 = ADVANCED_FACE ( 'NONE', ( #314 ), #309, .T. ) ;
#274 = PRESENTATION_STYLE_ASSIGNMENT (( #185 ) ) ;
#275 = ORIENTED_EDGE ( 'NONE', *, *, #73, .F. ) ;
#276 = SHAPE_DEFINITION_REPRESENTATION ( #197, #105 ) ;
#277 =( NAMED_UNIT ( * ) SI_UNIT ( $, .STERADIAN. ) SOLID_ANGLE_UNIT ( ) );
#278 = ORIENTED_EDGE ( 'NONE', *, *, #126, .T. ) ;
#279 = AXIS2_PLACEMENT_3D ( 'NONE', #260, #202, #320 ) ;
#280 = STYLED_ITEM ( 'NONE', ( #274 ), #272 ) ;
#281 = SURFACE_STYLE_FILL_AREA ( #282 ) ;
#282 = FILL_AREA_STYLE ('',( #32 ) ) ;
#283 = EDGE_LOOP ( 'NONE', ( #110, #19, #48, #213 ) ) ;
#284 = SURFACE_STYLE_USAGE ( .BOTH. , #220 ) ;
#285 = SURFACE_SIDE_STYLE ('',( #166 ) ) ;
#286 = DIRECTION ( 'NONE',  ( 3.628583108584750472E-17, 1.000000000000000000, -0.000000000000000000 ) ) ;
#287 = PRESENTATION_LAYER_ASSIGNMENT (  '', '', ( #348 ) ) ;
#288 =( GEOMETRIC_REPRESENTATION_CONTEXT ( 3 ) GLOBAL_UNCERTAINTY_ASSIGNED_CONTEXT ( ( #52 ) ) GLOBAL_UNIT_ASSIGNED_CONTEXT ( ( #341, #64, #41 ) ) REPRESENTATION_CONTEXT ( 'NONE', 'WORKASPACE' ) );
#289 = EDGE_LOOP ( 'NONE', ( #6, #228 ) ) ;
#290 = EDGE_LOOP ( 'NONE', ( #356, #303, #12, #171 ) ) ;
#291 = DIRECTION ( 'NONE',  ( 3.628583108584750472E-17, 1.000000000000000000, -0.000000000000000000 ) ) ;
#292 = MECHANICAL_DESIGN_GEOMETRIC_PRESENTATION_REPRESENTATION (  '', ( #317 ), #3 ) ;
#293 = DIRECTION ( 'NONE',  ( -1.000000000000000000, 0.000000000000000000, 0.000000000000000000 ) ) ;
#294 = CIRCLE ( 'NONE', #97, 0.07810000000000000275 ) ;
#295 =( LENGTH_UNIT ( ) NAMED_UNIT ( * ) SI_UNIT ( $, .METRE. ) );
#296 = CARTESIAN_POINT ( 'NONE',  ( -0.09374999999999997224, 2.000000000000000000, 0.000000000000000000 ) ) ;
#297 = UNCERTAINTY_MEASURE_WITH_UNIT (LENGTH_MEASURE( 1.000000000000000082E-05 ), #181, 'distance_accuracy_value', 'NONE');
#298 = DIMENSIONAL_EXPONENTS ( 1.000000000000000000, 0.000000000000000000, 0.000000000000000000, 0.000000000000000000, 0.000000000000000000, 0.000000000000000000, 0.000000000000000000 ) ;
#299 = CARTESIAN_POINT ( 'NONE',  ( 0.000000000000000000, 0.000000000000000000, -0.07810000000000000275 ) ) ;
#300 = DIRECTION ( 'NONE',  ( -0.000000000000000000, -1.000000000000000000, -0.000000000000000000 ) ) ;
#301 = ADVANCED_FACE ( 'NONE', ( #18 ), #44, .T. ) ;
#302 = EDGE_CURVE ( 'NONE', #159, #116, #294, .T. ) ;
#303 = ORIENTED_EDGE ( 'NONE', *, *, #109, .T. ) ;
#304 =( NAMED_UNIT ( * ) SI_UNIT ( $, .STERADIAN. ) SOLID_ANGLE_UNIT ( ) );
#305 = DIRECTION ( 'NONE',  ( 3.628583108584750472E-17, 1.000000000000000000, -0.000000000000000000 ) ) ;
#306 = VECTOR ( 'NONE', #286, 39.37007874015748143 ) ;
#307 = FILL_AREA_STYLE_COLOUR ( '', #50 ) ;
#308 = SURFACE_STYLE_FILL_AREA ( #104 ) ;
#309 = PLANE ( 'NONE',  #270 ) ;
#310 = LENGTH_MEASURE_WITH_UNIT ( LENGTH_MEASURE( 0.02539999999999999897 ), #196 );
#311 = PRESENTATION_STYLE_ASSIGNMENT (( #284 ) ) ;
#312 = EDGE_CURVE ( 'NONE', #254, #271, #67, .T. ) ;
#313 = DIRECTION ( 'NONE',  ( -1.000000000000000000, 0.000000000000000000, 0.000000000000000000 ) ) ;
#314 = FACE_OUTER_BOUND ( 'NONE', #139, .T. ) ;
#315 = FACE_OUTER_BOUND ( 'NONE', #338, .T. ) ;
#316 = EDGE_CURVE ( 'NONE', #215, #271, #1, .T. ) ;
#317 = STYLED_ITEM ( 'NONE', ( #162 ), #61 ) ;
#318 = MECHANICAL_DESIGN_GEOMETRIC_PRESENTATION_REPRESENTATION (  '', ( #280 ), #150 ) ;
#319 = CYLINDRICAL_SURFACE ( 'NONE', #128, 0.07810000000000000275 ) ;
#320 = DIRECTION ( 'NONE',  ( -1.000000000000000000, 0.000000000000000000, 0.000000000000000000 ) ) ;
#321 = CARTESIAN_POINT ( 'NONE',  ( 0.000000000000000000, 0.000000000000000000, 0.000000000000000000 ) ) ;
#322 = DIRECTION ( 'NONE',  ( -3.628583108584750472E-17, -1.000000000000000000, 0.000000000000000000 ) ) ;
#323 = CONICAL_SURFACE ( 'NONE', #247, 0.07810000000000000275, 0.3490658503988659511 ) ;
#324 = FACE_OUTER_BOUND ( 'NONE', #289, .T. ) ;
#325 = STYLED_ITEM ( 'NONE', ( #111 ), #301 ) ;
#326 =( CONVERSION_BASED_UNIT ( 'INCH', #206 ) LENGTH_UNIT ( ) NAMED_UNIT ( #174 ) );
#327 = DIRECTION ( 'NONE',  ( 3.628583108584750472E-17, 1.000000000000000000, -0.000000000000000000 ) ) ;
#328 = DIMENSIONAL_EXPONENTS ( 1.000000000000000000, 0.000000000000000000, 0.000000000000000000, 0.000000000000000000, 0.000000000000000000, 0.000000000000000000, 0.000000000000000000 ) ;
#329 = APPLICATION_CONTEXT ( 'automotive_design' ) ;
#330 = ADVANCED_FACE ( 'NONE', ( #200 ), #255, .F. ) ;
#331 = CYLINDRICAL_SURFACE ( 'NONE', #155, 0.09375000000000004163 ) ;
#332 = CONICAL_SURFACE ( 'NONE', #358, 0.07810000000000000275, 0.3490658503988659511 ) ;
#333 = EDGE_LOOP ( 'NONE', ( #246, #137, #108, #275 ) ) ;
#334 = AXIS2_PLACEMENT_3D ( 'NONE', #46, #253, #347 ) ;
#335 = CARTESIAN_POINT ( 'NONE',  ( 6.123233995736766036E-17, 2.000000000000000000, 0.000000000000000000 ) ) ;
#336 = DIRECTION ( 'NONE',  ( 0.000000000000000000, 0.000000000000000000, 1.000000000000000000 ) ) ;
#337 =( NAMED_UNIT ( * ) PLANE_ANGLE_UNIT ( ) SI_UNIT ( $, .RADIAN. ) );
#338 = EDGE_LOOP ( 'NONE', ( #121, #244, #278, #135 ) ) ;
#339 = CARTESIAN_POINT ( 'NONE',  ( 0.09375000000000006939, 2.000000000000000000, 1.148106374200644325E-17 ) ) ;
#340 = PRESENTATION_STYLE_ASSIGNMENT (( #199 ) ) ;
#341 =( CONVERSION_BASED_UNIT ( 'INCH', #65 ) LENGTH_UNIT ( ) NAMED_UNIT ( #54 ) );
#342 =( LENGTH_UNIT ( ) NAMED_UNIT ( * ) SI_UNIT ( $, .METRE. ) );
#343 = CLOSED_SHELL ( 'NONE', ( #268, #192, #163, #13, #219, #330 ) ) ;
#344 =( CONVERSION_BASED_UNIT ( 'INCH', #223 ) LENGTH_UNIT ( ) NAMED_UNIT ( #146 ) );
#345 = VERTEX_POINT ( 'NONE', #204 ) ;
#346 = SURFACE_STYLE_FILL_AREA ( #63 ) ;
#347 = DIRECTION ( 'NONE',  ( -1.000000000000000000, 0.000000000000000000, 0.000000000000000000 ) ) ;
#348 = STYLED_ITEM ( 'NONE', ( #340 ), #43 ) ;
#349 = COLOUR_RGB ( '',1.000000000000000000, 0.000000000000000000, 0.000000000000000000 ) ;
#350 = LENGTH_MEASURE_WITH_UNIT ( LENGTH_MEASURE( 0.02539999999999999897 ), #342 );
#351 = UNCERTAINTY_MEASURE_WITH_UNIT (LENGTH_MEASURE( 1.000000000000000082E-05 ), #169, 'distance_accuracy_value', 'NONE');
#352 = UNCERTAINTY_MEASURE_WITH_UNIT (LENGTH_MEASURE( 1.000000000000000082E-05 ), #326, 'distance_accuracy_value', 'NONE');
#353 = CARTESIAN_POINT ( 'NONE',  ( 0.000000000000000000, 0.3125000000000000000, 0.000000000000000000 ) ) ;
#354 = CARTESIAN_POINT ( 'NONE',  ( 0.09375000000000006939, 2.000000000000000000, 0.000000000000000000 ) ) ;
#355 = LINE ( 'NONE', #51, #112 ) ;
#356 = ORIENTED_EDGE ( 'NONE', *, *, #125, .T. ) ;
#357 = UNCERTAINTY_MEASURE_WITH_UNIT (LENGTH_MEASURE( 1.000000000000000082E-05 ), #2, 'distance_accuracy_value', 'NONE');
#358 = AXIS2_PLACEMENT_3D ( 'NONE', #66, #143, #94 ) ;
#359 = CARTESIAN_POINT ( 'NONE',  ( 0.07810000000000000275, 0.3125000000000000000, 9.564491501340828324E-18 ) ) ;
ENDSEC;
END-ISO-10303-21;
