ISO-10303-21;
HEADER;
FILE_DESCRIPTION (( 'STEP AP214' ),
    '1' );
FILE_NAME ('59794.STEP',
    '2023-07-24T15:58:20',
    ( '' ),
    ( '' ),
    'SwSTEP 2.0',
    'SolidWorks 2023',
    '' );
FILE_SCHEMA (( 'AUTOMOTIVE_DESIGN' ));
ENDSEC;

DATA;
#1 = AXIS2_PLACEMENT_3D ( 'NONE', #88, #178, #262 ) ;
#2 = DIRECTION ( 'NONE',  ( -0.000000000000000000, -1.000000000000000000, -0.000000000000000000 ) ) ;
#3 = ORIENTED_EDGE ( 'NONE', *, *, #215, .T. ) ;
#4 = PLANE ( 'NONE',  #54 ) ;
#5 = DIRECTION ( 'NONE',  ( 0.000000000000000000, 0.000000000000000000, -1.000000000000000000 ) ) ;
#6 = DIRECTION ( 'NONE',  ( 0.000000000000000000, -0.000000000000000000, 1.000000000000000000 ) ) ;
#7 = PRESENTATION_STYLE_ASSIGNMENT (( #212 ) ) ;
#8 = PRESENTATION_LAYER_ASSIGNMENT (  '', '', ( #53 ) ) ;
#9 = FILL_AREA_STYLE ('',( #49 ) ) ;
#10 = UNCERTAINTY_MEASURE_WITH_UNIT (LENGTH_MEASURE( 1.000000000000000082E-05 ), #217, 'distance_accuracy_value', 'NONE');
#11 =( LENGTH_UNIT ( ) NAMED_UNIT ( * ) SI_UNIT ( .MILLI., .METRE. ) );
#12 =( GEOMETRIC_REPRESENTATION_CONTEXT ( 3 ) GLOBAL_UNCERTAINTY_ASSIGNED_CONTEXT ( ( #10 ) ) GLOBAL_UNIT_ASSIGNED_CONTEXT ( ( #217, #104, #198 ) ) REPRESENTATION_CONTEXT ( 'NONE', 'WORKASPACE' ) );
#13 = AXIS2_PLACEMENT_3D ( 'NONE', #159, #75, #42 ) ;
#14 =( NAMED_UNIT ( * ) PLANE_ANGLE_UNIT ( ) SI_UNIT ( $, .RADIAN. ) );
#15 = SURFACE_STYLE_USAGE ( .BOTH. , #17 ) ;
#16 = ADVANCED_FACE ( 'NONE', ( #116 ), #134, .T. ) ;
#17 = SURFACE_SIDE_STYLE ('',( #195 ) ) ;
#18 = CIRCLE ( 'NONE', #188, 2.999999999999999112 ) ;
#19 = EDGE_CURVE ( 'NONE', #90, #184, #206, .T. ) ;
#20 = PLANE ( 'NONE',  #196 ) ;
#21 = VERTEX_POINT ( 'NONE', #40 ) ;
#22 = SURFACE_STYLE_USAGE ( .BOTH. , #38 ) ;
#23 = EDGE_LOOP ( 'NONE', ( #245, #43 ) ) ;
#24 = PLANE ( 'NONE',  #157 ) ;
#25 =( NAMED_UNIT ( * ) SI_UNIT ( $, .STERADIAN. ) SOLID_ANGLE_UNIT ( ) );
#26 = VECTOR ( 'NONE', #190, 1000.000000000000000 ) ;
#27 = CARTESIAN_POINT ( 'NONE',  ( 3.000000000000003109, 63.00000000000000000, 3.673940397442053952E-16 ) ) ;
#28 = CARTESIAN_POINT ( 'NONE',  ( 0.000000000000000000, 0.000000000000000000, 0.000000000000000000 ) ) ;
#29 = PRODUCT_DEFINITION ( 'UNKNOWN', '', #32, #129 ) ;
#30 =( NAMED_UNIT ( * ) PLANE_ANGLE_UNIT ( ) SI_UNIT ( $, .RADIAN. ) );
#31 = FACE_OUTER_BOUND ( 'NONE', #62, .T. ) ;
#32 = PRODUCT_DEFINITION_FORMATION_WITH_SPECIFIED_SOURCE ( 'ANY', '', #187, .NOT_KNOWN. ) ;
#33 = DIRECTION ( 'NONE',  ( 0.000000000000000000, 0.000000000000000000, 1.000000000000000000 ) ) ;
#34 = EDGE_LOOP ( 'NONE', ( #3, #124, #69, #202 ) ) ;
#35 =( NAMED_UNIT ( * ) PLANE_ANGLE_UNIT ( ) SI_UNIT ( $, .RADIAN. ) );
#36 = APPLICATION_CONTEXT ( 'automotive_design' ) ;
#37 = ORIENTED_EDGE ( 'NONE', *, *, #19, .T. ) ;
#38 = SURFACE_SIDE_STYLE ('',( #218 ) ) ;
#39 = SURFACE_SIDE_STYLE ('',( #261 ) ) ;
#40 = CARTESIAN_POINT ( 'NONE',  ( 3.673940397442058882E-16, 0.000000000000000000, 2.999999999999999112 ) ) ;
#41 = ADVANCED_FACE ( 'NONE', ( #160 ), #24, .F. ) ;
#42 = DIRECTION ( 'NONE',  ( 0.000000000000000000, 0.000000000000000000, -1.000000000000000000 ) ) ;
#43 = ORIENTED_EDGE ( 'NONE', *, *, #113, .T. ) ;
#44 = VERTEX_POINT ( 'NONE', #221 ) ;
#45 =( LENGTH_UNIT ( ) NAMED_UNIT ( * ) SI_UNIT ( .MILLI., .METRE. ) );
#46 = PRESENTATION_LAYER_ASSIGNMENT (  '', '', ( #81 ) ) ;
#47 = SURFACE_STYLE_USAGE ( .BOTH. , #250 ) ;
#48 = EDGE_CURVE ( 'NONE', #184, #90, #194, .T. ) ;
#49 = FILL_AREA_STYLE_COLOUR ( '', #227 ) ;
#50 =( NAMED_UNIT ( * ) SI_UNIT ( $, .STERADIAN. ) SOLID_ANGLE_UNIT ( ) );
#51 = CARTESIAN_POINT ( 'NONE',  ( 0.000000000000000000, 18.00000000000000355, -2.999999999999999112 ) ) ;
#52 = CYLINDRICAL_SURFACE ( 'NONE', #181, 2.999999999999999112 ) ;
#53 = STYLED_ITEM ( 'NONE', ( #164 ), #152 ) ;
#54 = AXIS2_PLACEMENT_3D ( 'NONE', #209, #204, #6 ) ;
#55 = EDGE_CURVE ( 'NONE', #288, #44, #175, .T. ) ;
#56 = DIRECTION ( 'NONE',  ( 1.000000000000000000, 0.000000000000000000, 0.000000000000000000 ) ) ;
#57 = CARTESIAN_POINT ( 'NONE',  ( 0.000000000000000000, 0.000000000000000000, -2.999999999999999112 ) ) ;
#58 = PRODUCT_CONTEXT ( 'NONE', #282, 'mechanical' ) ;
#59 = CARTESIAN_POINT ( 'NONE',  ( 0.000000000000000000, 0.000000000000000000, 0.000000000000000000 ) ) ;
#60 = AXIS2_PLACEMENT_3D ( 'NONE', #70, #186, #142 ) ;
#61 = MECHANICAL_DESIGN_GEOMETRIC_PRESENTATION_REPRESENTATION (  '', ( #103 ), #74 ) ;
#62 = EDGE_LOOP ( 'NONE', ( #37, #176, #208, #197 ) ) ;
#63 = VECTOR ( 'NONE', #149, 1000.000000000000000 ) ;
#64 = MECHANICAL_DESIGN_GEOMETRIC_PRESENTATION_REPRESENTATION (  '', ( #192 ), #228 ) ;
#65 = VERTEX_POINT ( 'NONE', #229 ) ;
#66 = ORIENTED_EDGE ( 'NONE', *, *, #215, .F. ) ;
#67 = SURFACE_STYLE_USAGE ( .BOTH. , #39 ) ;
#68 = COLOUR_RGB ( '',1.000000000000000000, 0.000000000000000000, 0.000000000000000000 ) ;
#69 = ORIENTED_EDGE ( 'NONE', *, *, #91, .F. ) ;
#70 = CARTESIAN_POINT ( 'NONE',  ( 7.592810154713587074E-15, 63.00000000000000000, 0.000000000000000000 ) ) ;
#71 = ORIENTED_EDGE ( 'NONE', *, *, #19, .F. ) ;
#72 = PRODUCT_DEFINITION_SHAPE ( 'NONE', 'NONE',  #29 ) ;
#73 = SURFACE_STYLE_FILL_AREA ( #97 ) ;
#74 =( GEOMETRIC_REPRESENTATION_CONTEXT ( 3 ) GLOBAL_UNCERTAINTY_ASSIGNED_CONTEXT ( ( #151 ) ) GLOBAL_UNIT_ASSIGNED_CONTEXT ( ( #226, #30, #25 ) ) REPRESENTATION_CONTEXT ( 'NONE', 'WORKASPACE' ) );
#75 = DIRECTION ( 'NONE',  ( 0.000000000000000000, -1.000000000000000000, -0.000000000000000000 ) ) ;
#76 = LINE ( 'NONE', #123, #26 ) ;
#77 = AXIS2_PLACEMENT_3D ( 'NONE', #132, #155, #86 ) ;
#78 = UNCERTAINTY_MEASURE_WITH_UNIT (LENGTH_MEASURE( 1.000000000000000082E-05 ), #251, 'distance_accuracy_value', 'NONE');
#79 =( NAMED_UNIT ( * ) SI_UNIT ( $, .STERADIAN. ) SOLID_ANGLE_UNIT ( ) );
#80 = EDGE_CURVE ( 'NONE', #288, #203, #18, .T. ) ;
#81 = STYLED_ITEM ( 'NONE', ( #201 ), #200 ) ;
#82 = DIRECTION ( 'NONE',  ( -1.000000000000000000, 0.000000000000000000, 0.000000000000000000 ) ) ;
#83 = DIRECTION ( 'NONE',  ( 1.687291145491908606E-16, 1.000000000000000000, -0.000000000000000000 ) ) ;
#84 = FACE_OUTER_BOUND ( 'NONE', #23, .T. ) ;
#85 = CLOSED_SHELL ( 'NONE', ( #152, #280, #105, #270 ) ) ;
#86 = DIRECTION ( 'NONE',  ( 0.000000000000000000, 0.000000000000000000, -1.000000000000000000 ) ) ;
#87 = ORIENTED_EDGE ( 'NONE', *, *, #100, .F. ) ;
#88 = CARTESIAN_POINT ( 'NONE',  ( 7.592810154713587074E-15, 63.00000000000000000, 0.000000000000000000 ) ) ;
#89 = CARTESIAN_POINT ( 'NONE',  ( -2.999999999999999112, 18.00000000000000355, 0.000000000000000000 ) ) ;
#90 = VERTEX_POINT ( 'NONE', #51 ) ;
#91 = EDGE_CURVE ( 'NONE', #65, #44, #102, .T. ) ;
#92 = FACE_OUTER_BOUND ( 'NONE', #281, .T. ) ;
#93 = CARTESIAN_POINT ( 'NONE',  ( 0.000000000000000000, 0.000000000000000000, -2.999999999999999112 ) ) ;
#94 = CIRCLE ( 'NONE', #173, 2.999999999999999112 ) ;
#95 = FILL_AREA_STYLE ('',( #119 ) ) ;
#96 = UNCERTAINTY_MEASURE_WITH_UNIT (LENGTH_MEASURE( 1.000000000000000082E-05 ), #225, 'distance_accuracy_value', 'NONE');
#97 = FILL_AREA_STYLE ('',( #271 ) ) ;
#98 = AXIS2_PLACEMENT_3D ( 'NONE', #286, #107, #264 ) ;
#99 = AXIS2_PLACEMENT_3D ( 'NONE', #127, #235, #130 ) ;
#100 = EDGE_CURVE ( 'NONE', #184, #21, #76, .T. ) ;
#101 = CARTESIAN_POINT ( 'NONE',  ( 3.673940397442058882E-16, 18.00000000000000355, 2.999999999999999112 ) ) ;
#102 = CIRCLE ( 'NONE', #60, 2.999999999999991562 ) ;
#103 = STYLED_ITEM ( 'NONE', ( #141 ), #280 ) ;
#104 =( NAMED_UNIT ( * ) PLANE_ANGLE_UNIT ( ) SI_UNIT ( $, .RADIAN. ) );
#105 = ADVANCED_FACE ( 'NONE', ( #207 ), #52, .T. ) ;
#106 = CARTESIAN_POINT ( 'NONE',  ( 2.999999999999999112, 63.00000000000000000, 0.000000000000000000 ) ) ;
#107 = DIRECTION ( 'NONE',  ( -0.000000000000000000, -1.000000000000000000, -0.000000000000000000 ) ) ;
#108 = DIRECTION ( 'NONE',  ( 0.000000000000000000, 0.000000000000000000, -1.000000000000000000 ) ) ;
#109 = PLANE ( 'NONE',  #13 ) ;
#110 = ORIENTED_EDGE ( 'NONE', *, *, #48, .F. ) ;
#111 = AXIS2_PLACEMENT_3D ( 'NONE', #59, #167, #277 ) ;
#112 = ORIENTED_EDGE ( 'NONE', *, *, #55, .F. ) ;
#113 = EDGE_CURVE ( 'NONE', #21, #135, #233, .T. ) ;
#114 = PRESENTATION_STYLE_ASSIGNMENT (( #22 ) ) ;
#115 = DIRECTION ( 'NONE',  ( 1.687291145491908606E-16, 1.000000000000000000, -0.000000000000000000 ) ) ;
#116 = FACE_OUTER_BOUND ( 'NONE', #260, .T. ) ;
#117 = ORIENTED_EDGE ( 'NONE', *, *, #113, .F. ) ;
#118 = MECHANICAL_DESIGN_GEOMETRIC_PRESENTATION_REPRESENTATION (  '', ( #237 ), #144 ) ;
#119 = FILL_AREA_STYLE_COLOUR ( '', #279 ) ;
#120 = DIRECTION ( 'NONE',  ( 1.687291145491908606E-16, 1.000000000000000000, -0.000000000000000000 ) ) ;
#121 = CIRCLE ( 'NONE', #98, 2.999999999999999112 ) ;
#122 = CARTESIAN_POINT ( 'NONE',  ( -1.540743955509788682E-30, 18.00000000000000355, 0.000000000000000000 ) ) ;
#123 = CARTESIAN_POINT ( 'NONE',  ( 3.673940397442058882E-16, 0.000000000000000000, 2.999999999999999112 ) ) ;
#124 = ORIENTED_EDGE ( 'NONE', *, *, #55, .T. ) ;
#125 = UNCERTAINTY_MEASURE_WITH_UNIT (LENGTH_MEASURE( 1.000000000000000082E-05 ), #11, 'distance_accuracy_value', 'NONE');
#126 = CLOSED_SHELL ( 'NONE', ( #171, #41, #16, #236 ) ) ;
#127 = CARTESIAN_POINT ( 'NONE',  ( 7.592810154713587074E-15, 63.00000000000000000, 0.000000000000000000 ) ) ;
#128 = APPLICATION_PROTOCOL_DEFINITION ( 'draft international standard', 'automotive_design', 1998, #36 ) ;
#129 = PRODUCT_DEFINITION_CONTEXT ( 'detailed design', #36, 'design' ) ;
#130 = DIRECTION ( 'NONE',  ( -1.000000000000000000, 0.000000000000000000, 0.000000000000000000 ) ) ;
#131 = DIRECTION ( 'NONE',  ( -1.000000000000000000, 0.000000000000000000, 0.000000000000000000 ) ) ;
#132 = CARTESIAN_POINT ( 'NONE',  ( 0.000000000000000000, 18.00000000000000355, 0.000000000000000000 ) ) ;
#133 =( LENGTH_UNIT ( ) NAMED_UNIT ( * ) SI_UNIT ( .MILLI., .METRE. ) );
#134 = CYLINDRICAL_SURFACE ( 'NONE', #1, 2.999999999999995115 ) ;
#135 = VERTEX_POINT ( 'NONE', #93 ) ;
#136 =( NAMED_UNIT ( * ) PLANE_ANGLE_UNIT ( ) SI_UNIT ( $, .RADIAN. ) );
#137 = DIRECTION ( 'NONE',  ( 0.000000000000000000, 0.000000000000000000, -1.000000000000000000 ) ) ;
#138 = MECHANICAL_DESIGN_GEOMETRIC_PRESENTATION_REPRESENTATION (  '', ( #81 ), #12 ) ;
#139 = PRESENTATION_LAYER_ASSIGNMENT (  '', '', ( #213 ) ) ;
#140 = PRESENTATION_STYLE_ASSIGNMENT (( #47 ) ) ;
#141 = PRESENTATION_STYLE_ASSIGNMENT (( #267 ) ) ;
#142 = DIRECTION ( 'NONE',  ( -1.000000000000000000, 0.000000000000000000, 0.000000000000000000 ) ) ;
#143 = ORIENTED_EDGE ( 'NONE', *, *, #80, .F. ) ;
#144 =( GEOMETRIC_REPRESENTATION_CONTEXT ( 3 ) GLOBAL_UNCERTAINTY_ASSIGNED_CONTEXT ( ( #96 ) ) GLOBAL_UNIT_ASSIGNED_CONTEXT ( ( #225, #268, #50 ) ) REPRESENTATION_CONTEXT ( 'NONE', 'WORKASPACE' ) );
#145 = ADVANCED_BREP_SHAPE_REPRESENTATION ( '59794', ( #283, #200, #174 ), #146 ) ;
#146 =( GEOMETRIC_REPRESENTATION_CONTEXT ( 3 ) GLOBAL_UNCERTAINTY_ASSIGNED_CONTEXT ( ( #78 ) ) GLOBAL_UNIT_ASSIGNED_CONTEXT ( ( #251, #150, #79 ) ) REPRESENTATION_CONTEXT ( 'NONE', 'WORKASPACE' ) );
#147 = DIRECTION ( 'NONE',  ( 1.687291145491908606E-16, 1.000000000000000000, -0.000000000000000000 ) ) ;
#148 = SHAPE_DEFINITION_REPRESENTATION ( #72, #145 ) ;
#149 = DIRECTION ( 'NONE',  ( -0.000000000000000000, -1.000000000000000000, -0.000000000000000000 ) ) ;
#150 =( NAMED_UNIT ( * ) PLANE_ANGLE_UNIT ( ) SI_UNIT ( $, .RADIAN. ) );
#151 = UNCERTAINTY_MEASURE_WITH_UNIT (LENGTH_MEASURE( 1.000000000000000082E-05 ), #226, 'distance_accuracy_value', 'NONE');
#152 = ADVANCED_FACE ( 'NONE', ( #31 ), #210, .T. ) ;
#153 = DIRECTION ( 'NONE',  ( 1.687291145491908606E-16, 1.000000000000000000, -0.000000000000000000 ) ) ;
#154 = FACE_OUTER_BOUND ( 'NONE', #242, .T. ) ;
#155 = DIRECTION ( 'NONE',  ( -0.000000000000000000, -1.000000000000000000, -0.000000000000000000 ) ) ;
#156 = ORIENTED_EDGE ( 'NONE', *, *, #191, .T. ) ;
#157 = AXIS2_PLACEMENT_3D ( 'NONE', #216, #115, #248 ) ;
#158 = COLOUR_RGB ( '',1.000000000000000000, 0.000000000000000000, 0.000000000000000000 ) ;
#159 = CARTESIAN_POINT ( 'NONE',  ( 0.000000000000000000, 0.000000000000000000, 0.000000000000000000 ) ) ;
#160 = FACE_OUTER_BOUND ( 'NONE', #179, .T. ) ;
#161 = DIRECTION ( 'NONE',  ( -0.000000000000000000, -1.000000000000000000, -0.000000000000000000 ) ) ;
#162 = SURFACE_STYLE_FILL_AREA ( #9 ) ;
#163 =( NAMED_UNIT ( * ) SI_UNIT ( $, .STERADIAN. ) SOLID_ANGLE_UNIT ( ) );
#164 = PRESENTATION_STYLE_ASSIGNMENT (( #15 ) ) ;
#165 = EDGE_CURVE ( 'NONE', #90, #135, #253, .T. ) ;
#166 =( NAMED_UNIT ( * ) SI_UNIT ( $, .STERADIAN. ) SOLID_ANGLE_UNIT ( ) );
#167 = DIRECTION ( 'NONE',  ( -0.000000000000000000, -1.000000000000000000, -0.000000000000000000 ) ) ;
#168 = MECHANICAL_DESIGN_GEOMETRIC_PRESENTATION_REPRESENTATION (  '', ( #53 ), #244 ) ;
#169 = CYLINDRICAL_SURFACE ( 'NONE', #99, 2.999999999999995115 ) ;
#170 = FILL_AREA_STYLE ('',( #189 ) ) ;
#171 = ADVANCED_FACE ( 'NONE', ( #231 ), #169, .T. ) ;
#172 = FILL_AREA_STYLE_COLOUR ( '', #158 ) ;
#173 = AXIS2_PLACEMENT_3D ( 'NONE', #180, #243, #131 ) ;
#174 = AXIS2_PLACEMENT_3D ( 'NONE', #234, #33, #56 ) ;
#175 = LINE ( 'NONE', #27, #278 ) ;
#176 = ORIENTED_EDGE ( 'NONE', *, *, #100, .T. ) ;
#177 = FILL_AREA_STYLE_COLOUR ( '', #257 ) ;
#178 = DIRECTION ( 'NONE',  ( 1.687291145491908606E-16, 1.000000000000000000, -0.000000000000000000 ) ) ;
#179 = EDGE_LOOP ( 'NONE', ( #66, #143 ) ) ;
#180 = CARTESIAN_POINT ( 'NONE',  ( -1.540743955509788682E-30, 18.00000000000000355, 0.000000000000000000 ) ) ;
#181 = AXIS2_PLACEMENT_3D ( 'NONE', #272, #161, #137 ) ;
#182 =( GEOMETRIC_REPRESENTATION_CONTEXT ( 3 ) GLOBAL_UNCERTAINTY_ASSIGNED_CONTEXT ( ( #193 ) ) GLOBAL_UNIT_ASSIGNED_CONTEXT ( ( #133, #14, #163 ) ) REPRESENTATION_CONTEXT ( 'NONE', 'WORKASPACE' ) );
#183 = ORIENTED_EDGE ( 'NONE', *, *, #232, .T. ) ;
#184 = VERTEX_POINT ( 'NONE', #101 ) ;
#185 = SURFACE_SIDE_STYLE ('',( #73 ) ) ;
#186 = DIRECTION ( 'NONE',  ( 1.687291145491908606E-16, 1.000000000000000000, -0.000000000000000000 ) ) ;
#187 = PRODUCT ( '59794', '59794', '', ( #58 ) ) ;
#188 = AXIS2_PLACEMENT_3D ( 'NONE', #122, #147, #273 ) ;
#189 = FILL_AREA_STYLE_COLOUR ( '', #275 ) ;
#190 = DIRECTION ( 'NONE',  ( -0.000000000000000000, -1.000000000000000000, -0.000000000000000000 ) ) ;
#191 = EDGE_CURVE ( 'NONE', #203, #65, #256, .T. ) ;
#192 = STYLED_ITEM ( 'NONE', ( #114 ), #270 ) ;
#193 = UNCERTAINTY_MEASURE_WITH_UNIT (LENGTH_MEASURE( 1.000000000000000082E-05 ), #133, 'distance_accuracy_value', 'NONE');
#194 = CIRCLE ( 'NONE', #285, 2.999999999999999112 ) ;
#195 = SURFACE_STYLE_FILL_AREA ( #170 ) ;
#196 = AXIS2_PLACEMENT_3D ( 'NONE', #106, #238, #284 ) ;
#197 = ORIENTED_EDGE ( 'NONE', *, *, #165, .F. ) ;
#198 =( NAMED_UNIT ( * ) SI_UNIT ( $, .STERADIAN. ) SOLID_ANGLE_UNIT ( ) );
#199 = EDGE_CURVE ( 'NONE', #135, #21, #121, .T. ) ;
#200 = MANIFOLD_SOLID_BREP ( 'Revolve - Tool Body (Straight Shanked)', #126 ) ;
#201 = PRESENTATION_STYLE_ASSIGNMENT (( #67 ) ) ;
#202 = ORIENTED_EDGE ( 'NONE', *, *, #191, .F. ) ;
#203 = VERTEX_POINT ( 'NONE', #89 ) ;
#204 = DIRECTION ( 'NONE',  ( 0.000000000000000000, 1.000000000000000000, 0.000000000000000000 ) ) ;
#205 = CARTESIAN_POINT ( 'NONE',  ( 0.000000000000000000, 18.00000000000000355, 0.000000000000000000 ) ) ;
#206 = CIRCLE ( 'NONE', #77, 2.999999999999999112 ) ;
#207 = FACE_OUTER_BOUND ( 'NONE', #222, .T. ) ;
#208 = ORIENTED_EDGE ( 'NONE', *, *, #199, .F. ) ;
#209 = CARTESIAN_POINT ( 'NONE',  ( 0.000000000000000000, 18.00000000000000355, 0.000000000000000000 ) ) ;
#210 = CYLINDRICAL_SURFACE ( 'NONE', #111, 2.999999999999999112 ) ;
#211 = AXIS2_PLACEMENT_3D ( 'NONE', #28, #223, #5 ) ;
#212 = SURFACE_STYLE_USAGE ( .BOTH. , #274 ) ;
#213 = STYLED_ITEM ( 'NONE', ( #140 ), #283 ) ;
#214 = AXIS2_PLACEMENT_3D ( 'NONE', #265, #153, #82 ) ;
#215 = EDGE_CURVE ( 'NONE', #203, #288, #94, .T. ) ;
#216 = CARTESIAN_POINT ( 'NONE',  ( 4.270427114483094353E-32, 18.00000000000000355, 0.000000000000000000 ) ) ;
#217 =( LENGTH_UNIT ( ) NAMED_UNIT ( * ) SI_UNIT ( .MILLI., .METRE. ) );
#218 = SURFACE_STYLE_FILL_AREA ( #258 ) ;
#219 = PRESENTATION_LAYER_ASSIGNMENT (  '', '', ( #237 ) ) ;
#220 = ORIENTED_EDGE ( 'NONE', *, *, #48, .T. ) ;
#221 = CARTESIAN_POINT ( 'NONE',  ( 2.999999999999999556, 63.00000000000000000, 3.673940397442056417E-16 ) ) ;
#222 = EDGE_LOOP ( 'NONE', ( #87, #220, #287, #117 ) ) ;
#223 = DIRECTION ( 'NONE',  ( -0.000000000000000000, -1.000000000000000000, -0.000000000000000000 ) ) ;
#224 = VECTOR ( 'NONE', #83, 1000.000000000000000 ) ;
#225 =( LENGTH_UNIT ( ) NAMED_UNIT ( * ) SI_UNIT ( .MILLI., .METRE. ) );
#226 =( LENGTH_UNIT ( ) NAMED_UNIT ( * ) SI_UNIT ( .MILLI., .METRE. ) );
#227 = COLOUR_RGB ( '',1.000000000000000000, 0.000000000000000000, 0.000000000000000000 ) ;
#228 =( GEOMETRIC_REPRESENTATION_CONTEXT ( 3 ) GLOBAL_UNCERTAINTY_ASSIGNED_CONTEXT ( ( #255 ) ) GLOBAL_UNIT_ASSIGNED_CONTEXT ( ( #45, #136, #246 ) ) REPRESENTATION_CONTEXT ( 'NONE', 'WORKASPACE' ) );
#229 = CARTESIAN_POINT ( 'NONE',  ( -2.999999999999983569, 63.00000000000000000, 0.000000000000000000 ) ) ;
#230 = APPLICATION_PROTOCOL_DEFINITION ( 'draft international standard', 'automotive_design', 1998, #282 ) ;
#231 = FACE_OUTER_BOUND ( 'NONE', #34, .T. ) ;
#232 = EDGE_CURVE ( 'NONE', #44, #65, #254, .T. ) ;
#233 = CIRCLE ( 'NONE', #211, 2.999999999999999112 ) ;
#234 = CARTESIAN_POINT ( 'NONE',  ( 0.000000000000000000, 0.000000000000000000, 0.000000000000000000 ) ) ;
#235 = DIRECTION ( 'NONE',  ( 1.687291145491908606E-16, 1.000000000000000000, -0.000000000000000000 ) ) ;
#236 = ADVANCED_FACE ( 'NONE', ( #154 ), #20, .F. ) ;
#237 = STYLED_ITEM ( 'NONE', ( #7 ), #105 ) ;
#238 = DIRECTION ( 'NONE',  ( -1.687291145491908606E-16, -1.000000000000000000, 0.000000000000000000 ) ) ;
#239 = PRESENTATION_LAYER_ASSIGNMENT (  '', '', ( #192 ) ) ;
#240 = ORIENTED_EDGE ( 'NONE', *, *, #232, .F. ) ;
#241 = FILL_AREA_STYLE ('',( #177 ) ) ;
#242 = EDGE_LOOP ( 'NONE', ( #269, #183 ) ) ;
#243 = DIRECTION ( 'NONE',  ( 1.687291145491908606E-16, 1.000000000000000000, -0.000000000000000000 ) ) ;
#244 =( GEOMETRIC_REPRESENTATION_CONTEXT ( 3 ) GLOBAL_UNCERTAINTY_ASSIGNED_CONTEXT ( ( #125 ) ) GLOBAL_UNIT_ASSIGNED_CONTEXT ( ( #11, #35, #166 ) ) REPRESENTATION_CONTEXT ( 'NONE', 'WORKASPACE' ) );
#245 = ORIENTED_EDGE ( 'NONE', *, *, #199, .T. ) ;
#246 =( NAMED_UNIT ( * ) SI_UNIT ( $, .STERADIAN. ) SOLID_ANGLE_UNIT ( ) );
#247 = CARTESIAN_POINT ( 'NONE',  ( -2.999999999999987566, 63.00000000000000000, 0.000000000000000000 ) ) ;
#248 = DIRECTION ( 'NONE',  ( -1.000000000000000000, 1.687291145491908606E-16, 0.000000000000000000 ) ) ;
#249 = SURFACE_STYLE_FILL_AREA ( #95 ) ;
#250 = SURFACE_SIDE_STYLE ('',( #249 ) ) ;
#251 =( LENGTH_UNIT ( ) NAMED_UNIT ( * ) SI_UNIT ( .MILLI., .METRE. ) );
#252 = CARTESIAN_POINT ( 'NONE',  ( 2.999999999999999556, 18.00000000000000355, 3.673940397442056417E-16 ) ) ;
#253 = LINE ( 'NONE', #57, #63 ) ;
#254 = CIRCLE ( 'NONE', #214, 2.999999999999991562 ) ;
#255 = UNCERTAINTY_MEASURE_WITH_UNIT (LENGTH_MEASURE( 1.000000000000000082E-05 ), #45, 'distance_accuracy_value', 'NONE');
#256 = LINE ( 'NONE', #247, #224 ) ;
#257 = COLOUR_RGB ( '',0.7921568627450980005, 0.8196078431372548767, 0.9333333333333333481 ) ;
#258 = FILL_AREA_STYLE ('',( #172 ) ) ;
#259 = PRODUCT_RELATED_PRODUCT_CATEGORY ( 'part', '', ( #187 ) ) ;
#260 = EDGE_LOOP ( 'NONE', ( #112, #263, #156, #240 ) ) ;
#261 = SURFACE_STYLE_FILL_AREA ( #241 ) ;
#262 = DIRECTION ( 'NONE',  ( -1.000000000000000000, 0.000000000000000000, 0.000000000000000000 ) ) ;
#263 = ORIENTED_EDGE ( 'NONE', *, *, #80, .T. ) ;
#264 = DIRECTION ( 'NONE',  ( 0.000000000000000000, 0.000000000000000000, -1.000000000000000000 ) ) ;
#265 = CARTESIAN_POINT ( 'NONE',  ( 7.592810154713587074E-15, 63.00000000000000000, 0.000000000000000000 ) ) ;
#266 = PRESENTATION_LAYER_ASSIGNMENT (  '', '', ( #103 ) ) ;
#267 = SURFACE_STYLE_USAGE ( .BOTH. , #185 ) ;
#268 =( NAMED_UNIT ( * ) PLANE_ANGLE_UNIT ( ) SI_UNIT ( $, .RADIAN. ) );
#269 = ORIENTED_EDGE ( 'NONE', *, *, #91, .T. ) ;
#270 = ADVANCED_FACE ( 'NONE', ( #84 ), #109, .T. ) ;
#271 = FILL_AREA_STYLE_COLOUR ( '', #68 ) ;
#272 = CARTESIAN_POINT ( 'NONE',  ( 0.000000000000000000, 0.000000000000000000, 0.000000000000000000 ) ) ;
#273 = DIRECTION ( 'NONE',  ( -1.000000000000000000, 0.000000000000000000, 0.000000000000000000 ) ) ;
#274 = SURFACE_SIDE_STYLE ('',( #162 ) ) ;
#275 = COLOUR_RGB ( '',1.000000000000000000, 0.000000000000000000, 0.000000000000000000 ) ;
#276 = MECHANICAL_DESIGN_GEOMETRIC_PRESENTATION_REPRESENTATION (  '', ( #213 ), #182 ) ;
#277 = DIRECTION ( 'NONE',  ( 0.000000000000000000, 0.000000000000000000, -1.000000000000000000 ) ) ;
#278 = VECTOR ( 'NONE', #120, 1000.000000000000000 ) ;
#279 = COLOUR_RGB ( '',0.7921568627450980005, 0.8196078431372548767, 0.9333333333333333481 ) ;
#280 = ADVANCED_FACE ( 'NONE', ( #92 ), #4, .T. ) ;
#281 = EDGE_LOOP ( 'NONE', ( #71, #110 ) ) ;
#282 = APPLICATION_CONTEXT ( 'automotive_design' ) ;
#283 = MANIFOLD_SOLID_BREP ( 'Revolve - Cutting Edge', #85 ) ;
#284 = DIRECTION ( 'NONE',  ( 1.000000000000000000, -1.687291145491908606E-16, 0.000000000000000000 ) ) ;
#285 = AXIS2_PLACEMENT_3D ( 'NONE', #205, #2, #108 ) ;
#286 = CARTESIAN_POINT ( 'NONE',  ( 0.000000000000000000, 0.000000000000000000, 0.000000000000000000 ) ) ;
#287 = ORIENTED_EDGE ( 'NONE', *, *, #165, .T. ) ;
#288 = VERTEX_POINT ( 'NONE', #252 ) ;
ENDSEC;
END-ISO-10303-21;
