ISO-10303-21;
HEADER;
FILE_DESCRIPTION (( 'STEP AP214' ),
    '1' );
FILE_NAME ('Micro_RME-050-2.STEP',
    '2021-09-01T23:26:11',
    ( '' ),
    ( '' ),
    'SwSTEP 2.0',
    'SolidWorks 2020',
    '' );
FILE_SCHEMA (( 'AUTOMOTIVE_DESIGN' ));
ENDSEC;

DATA;
#1 = MECHANICAL_DESIGN_GEOMETRIC_PRESENTATION_REPRESENTATION (  '', ( #190 ), #78 ) ;
#2 = MANIFOLD_SOLID_BREP ( 'Cut-Revolve1', #217 ) ;
#3 = ORIENTED_EDGE ( 'NONE', *, *, #289, .T. ) ;
#4 = EDGE_LOOP ( 'NONE', ( #137, #149, #197, #237 ) ) ;
#5 = ORIENTED_EDGE ( 'NONE', *, *, #32, .F. ) ;
#6 = APPLICATION_PROTOCOL_DEFINITION ( 'draft international standard', 'automotive_design', 1998, #199 ) ;
#7 = EDGE_CURVE ( 'NONE', #142, #259, #26, .T. ) ;
#8 = STYLED_ITEM ( 'NONE', ( #221 ), #216 ) ;
#9 = VERTEX_POINT ( 'NONE', #243 ) ;
#10 = LINE ( 'NONE', #66, #198 ) ;
#11 = CARTESIAN_POINT ( 'NONE',  ( 0.0000000000000000000, 0.0000000000000000000, 1.500000000000000222 ) ) ;
#12 = PLANE ( 'NONE',  #215 ) ;
#13 = LINE ( 'NONE', #285, #275 ) ;
#14 = DIRECTION ( 'NONE',  ( 1.000000000000000000, 0.0000000000000000000, 0.0000000000000000000 ) ) ;
#15 = EDGE_LOOP ( 'NONE', ( #60, #62 ) ) ;
#16 = CIRCLE ( 'NONE', #203, 0.02497500000000000067 ) ;
#17 = ORIENTED_EDGE ( 'NONE', *, *, #87, .T. ) ;
#18 = CARTESIAN_POINT ( 'NONE',  ( 1.836970198721029749E-17, 0.0000000000000000000, 0.1499999999999999944 ) ) ;
#19 = EDGE_LOOP ( 'NONE', ( #196, #79, #287, #5 ) ) ;
#20 = DIRECTION ( 'NONE',  ( -1.224646799147353454E-16, -0.0000000000000000000, -1.000000000000000000 ) ) ;
#21 = AXIS2_PLACEMENT_3D ( 'NONE', #114, #298, #28 ) ;
#22 = DIRECTION ( 'NONE',  ( 1.000000000000000000, 0.0000000000000000000, 0.0000000000000000000 ) ) ;
#23 = LINE ( 'NONE', #292, #84 ) ;
#24 = DIRECTION ( 'NONE',  ( -1.000000000000000000, 0.0000000000000000000, 0.0000000000000000000 ) ) ;
#25 = DIRECTION ( 'NONE',  ( -1.224646799147353454E-16, -0.0000000000000000000, -1.000000000000000000 ) ) ;
#26 = CIRCLE ( 'NONE', #73, 0.04750000000000064587 ) ;
#27 = CYLINDRICAL_SURFACE ( 'NONE', #120, 0.02497500000000000067 ) ;
#28 = DIRECTION ( 'NONE',  ( 1.000000000000000000, 0.0000000000000000000, -0.0000000000000000000 ) ) ;
#29 = ORIENTED_EDGE ( 'NONE', *, *, #277, .F. ) ;
#30 = CIRCLE ( 'NONE', #244, 0.06250000000000002776 ) ;
#31 = VERTEX_POINT ( 'NONE', #207 ) ;
#32 = EDGE_CURVE ( 'NONE', #179, #105, #51, .T. ) ;
#33 =( NAMED_UNIT ( * ) SI_UNIT ( $, .STERADIAN. ) SOLID_ANGLE_UNIT ( ) );
#34 = EDGE_LOOP ( 'NONE', ( #278, #107, #154, #176 ) ) ;
#35 = EDGE_CURVE ( 'NONE', #236, #36, #246, .T. ) ;
#36 = VERTEX_POINT ( 'NONE', #40 ) ;
#37 = LINE ( 'NONE', #130, #168 ) ;
#38 = SHAPE_DEFINITION_REPRESENTATION ( #234, #216 ) ;
#39 = PRODUCT_RELATED_PRODUCT_CATEGORY ( 'part', '', ( #229 ) ) ;
#40 = CARTESIAN_POINT ( 'NONE',  ( 0.06250000000000006939, 7.654042494670963708E-18, 0.3628148502811535114 ) ) ;
#41 = FACE_OUTER_BOUND ( 'NONE', #34, .T. ) ;
#42 = DIRECTION ( 'NONE',  ( -1.224646799147353454E-16, -0.0000000000000000000, -1.000000000000000000 ) ) ;
#43 = VERTEX_POINT ( 'NONE', #112 ) ;
#44 = COLOUR_RGB ( '',0.7921568627450980005, 0.8196078431372548767, 0.9333333333333333481 ) ;
#45 = AXIS2_PLACEMENT_3D ( 'NONE', #115, #189, #75 ) ;
#46 = AXIS2_PLACEMENT_3D ( 'NONE', #180, #264, #80 ) ;
#47 = DIRECTION ( 'NONE',  ( 1.000000000000000000, 0.0000000000000000000, 0.0000000000000000000 ) ) ;
#48 = DIRECTION ( 'NONE',  ( 0.1736481776669313304, 0.0000000000000000000, 0.9848077530122077983 ) ) ;
#49 = DIRECTION ( 'NONE',  ( 0.0000000000000000000, 0.0000000000000000000, -1.000000000000000000 ) ) ;
#50 = AXIS2_PLACEMENT_3D ( 'NONE', #166, #103, #205 ) ;
#51 = CIRCLE ( 'NONE', #186, 0.06250000000000002776 ) ;
#52 = EDGE_CURVE ( 'NONE', #31, #9, #155, .T. ) ;
#53 = LINE ( 'NONE', #146, #171 ) ;
#54 = FILL_AREA_STYLE ('',( #148 ) ) ;
#55 = ORIENTED_EDGE ( 'NONE', *, *, #35, .T. ) ;
#56 = VECTOR ( 'NONE', #253, 39.37007874015748854 ) ;
#57 = EDGE_LOOP ( 'NONE', ( #280, #29, #55, #262 ) ) ;
#58 = CONICAL_SURFACE ( 'NONE', #212, 0.02497500000000000067, 0.1745329251994338360 ) ;
#59 =( CONVERSION_BASED_UNIT ( 'INCH', #178 ) LENGTH_UNIT ( ) NAMED_UNIT ( #213 ) );
#60 = ORIENTED_EDGE ( 'NONE', *, *, #242, .T. ) ;
#61 = ADVANCED_FACE ( 'NONE', ( #144 ), #27, .T. ) ;
#62 = ORIENTED_EDGE ( 'NONE', *, *, #7, .T. ) ;
#63 = AXIS2_PLACEMENT_3D ( 'NONE', #248, #25, #214 ) ;
#64 = DIRECTION ( 'NONE',  ( -0.0000000000000000000, -0.0000000000000000000, -1.000000000000000000 ) ) ;
#65 = ORIENTED_EDGE ( 'NONE', *, *, #52, .T. ) ;
#66 = CARTESIAN_POINT ( 'NONE',  ( 0.06250000000000002776, 7.654042494670959086E-18, 1.500000000000000222 ) ) ;
#67 = DIRECTION ( 'NONE',  ( 0.0000000000000000000, 0.0000000000000000000, 1.000000000000000000 ) ) ;
#68 = SURFACE_STYLE_FILL_AREA ( #54 ) ;
#69 = DIRECTION ( 'NONE',  ( 1.000000000000000000, 0.0000000000000000000, 0.0000000000000000000 ) ) ;
#70 = CONICAL_SURFACE ( 'NONE', #224, 0.04750000000000064587, 0.7853981633974466137 ) ;
#71 = DIRECTION ( 'NONE',  ( 1.224646799147353454E-16, 0.0000000000000000000, 1.000000000000000000 ) ) ;
#72 = DIRECTION ( 'NONE',  ( -1.000000000000000000, 0.0000000000000000000, 1.224646799147353454E-16 ) ) ;
#73 = AXIS2_PLACEMENT_3D ( 'NONE', #11, #158, #14 ) ;
#74 = PRESENTATION_LAYER_ASSIGNMENT (  '', '', ( #8 ) ) ;
#75 = DIRECTION ( 'NONE',  ( 1.000000000000000000, 0.0000000000000000000, 0.0000000000000000000 ) ) ;
#76 = LINE ( 'NONE', #167, #56 ) ;
#77 = ORIENTED_EDGE ( 'NONE', *, *, #279, .T. ) ;
#78 =( GEOMETRIC_REPRESENTATION_CONTEXT ( 3 ) GLOBAL_UNCERTAINTY_ASSIGNED_CONTEXT ( ( #100 ) ) GLOBAL_UNIT_ASSIGNED_CONTEXT ( ( #293, #225, #111 ) ) REPRESENTATION_CONTEXT ( 'NONE', 'WORKASPACE' ) );
#79 = ORIENTED_EDGE ( 'NONE', *, *, #242, .F. ) ;
#80 = DIRECTION ( 'NONE',  ( 1.000000000000000000, 0.0000000000000000000, 0.0000000000000000000 ) ) ;
#81 =( LENGTH_UNIT ( ) NAMED_UNIT ( * ) SI_UNIT ( $, .METRE. ) );
#82 = PLANE ( 'NONE',  #21 ) ;
#83 = SURFACE_STYLE_USAGE ( .BOTH. , #220 ) ;
#84 = VECTOR ( 'NONE', #299, 39.37007874015748854 ) ;
#85 = SURFACE_STYLE_FILL_AREA ( #288 ) ;
#86 = DIRECTION ( 'NONE',  ( -0.1736481776669311639, 2.126576849575782392E-17, 0.9848077530122080203 ) ) ;
#87 = EDGE_CURVE ( 'NONE', #43, #236, #195, .T. ) ;
#88 = CARTESIAN_POINT ( 'NONE',  ( 0.0000000000000000000, 0.0000000000000000000, 1.500000000000000222 ) ) ;
#89 = COLOUR_RGB ( '',0.7921568627450980005, 0.8196078431372548767, 0.9333333333333333481 ) ;
#90 = ORIENTED_EDGE ( 'NONE', *, *, #52, .F. ) ;
#91 = DIRECTION ( 'NONE',  ( -1.224646799147353454E-16, -0.0000000000000000000, -1.000000000000000000 ) ) ;
#92 = FACE_OUTER_BOUND ( 'NONE', #255, .T. ) ;
#93 = DIMENSIONAL_EXPONENTS ( 1.000000000000000000, 0.0000000000000000000, 0.0000000000000000000, 0.0000000000000000000, 0.0000000000000000000, 0.0000000000000000000, 0.0000000000000000000 ) ;
#94 = DIRECTION ( 'NONE',  ( -1.000000000000000000, 0.0000000000000000000, 0.0000000000000000000 ) ) ;
#95 = EDGE_CURVE ( 'NONE', #105, #179, #256, .T. ) ;
#96 = CYLINDRICAL_SURFACE ( 'NONE', #125, 0.06250000000000002776 ) ;
#97 = CARTESIAN_POINT ( 'NONE',  ( 0.0000000000000000000, 0.0000000000000000000, 1.485000000000000764 ) ) ;
#98 = DIMENSIONAL_EXPONENTS ( 1.000000000000000000, 0.0000000000000000000, 0.0000000000000000000, 0.0000000000000000000, 0.0000000000000000000, 0.0000000000000000000, 0.0000000000000000000 ) ;
#99 = LINE ( 'NONE', #193, #283 ) ;
#100 = UNCERTAINTY_MEASURE_WITH_UNIT (LENGTH_MEASURE( 1.000000000000000082E-05 ), #293, 'distance_accuracy_value', 'NONE');
#101 = EDGE_CURVE ( 'NONE', #36, #183, #150, .T. ) ;
#102 = ORIENTED_EDGE ( 'NONE', *, *, #177, .T. ) ;
#103 = DIRECTION ( 'NONE',  ( -0.0000000000000000000, -0.0000000000000000000, -1.000000000000000000 ) ) ;
#104 = ORIENTED_EDGE ( 'NONE', *, *, #138, .T. ) ;
#105 = VERTEX_POINT ( 'NONE', #118 ) ;
#106 = DIRECTION ( 'NONE',  ( 0.0000000000000000000, 0.0000000000000000000, -1.000000000000000000 ) ) ;
#107 = ORIENTED_EDGE ( 'NONE', *, *, #284, .T. ) ;
#108 = PRODUCT_DEFINITION_FORMATION_WITH_SPECIFIED_SOURCE ( 'ANY', '', #229, .NOT_KNOWN. ) ;
#109 = EDGE_CURVE ( 'NONE', #105, #183, #99, .T. ) ;
#110 = CYLINDRICAL_SURFACE ( 'NONE', #124, 0.02497500000000000067 ) ;
#111 =( NAMED_UNIT ( * ) SI_UNIT ( $, .STERADIAN. ) SOLID_ANGLE_UNIT ( ) );
#112 = CARTESIAN_POINT ( 'NONE',  ( -0.02497499999999998332, 5.356298937770737018E-18, 0.1499999999999999944 ) ) ;
#113 = DIRECTION ( 'NONE',  ( -1.224646799147353454E-16, -0.0000000000000000000, -1.000000000000000000 ) ) ;
#114 = CARTESIAN_POINT ( 'NONE',  ( 0.0000000000000000000, 0.0000000000000000000, 1.500000000000000222 ) ) ;
#115 = CARTESIAN_POINT ( 'NONE',  ( 4.443200450799409520E-17, 0.0000000000000000000, 0.3628148502811535114 ) ) ;
#116 = UNCERTAINTY_MEASURE_WITH_UNIT (LENGTH_MEASURE( 1.000000000000000082E-05 ), #59, 'distance_accuracy_value', 'NONE');
#117 = FACE_OUTER_BOUND ( 'NONE', #57, .T. ) ;
#118 = CARTESIAN_POINT ( 'NONE',  ( -0.06250000000000002776, 0.0000000000000000000, 1.485000000000000764 ) ) ;
#119 = EDGE_CURVE ( 'NONE', #142, #179, #76, .T. ) ;
#120 = AXIS2_PLACEMENT_3D ( 'NONE', #122, #113, #272 ) ;
#121 = AXIS2_PLACEMENT_3D ( 'NONE', #18, #71, #162 ) ;
#122 = CARTESIAN_POINT ( 'NONE',  ( 0.0000000000000000000, 0.0000000000000000000, 0.0000000000000000000 ) ) ;
#123 = PRODUCT_DEFINITION_CONTEXT ( 'detailed design', #286, 'design' ) ;
#124 = AXIS2_PLACEMENT_3D ( 'NONE', #296, #91, #268 ) ;
#125 = AXIS2_PLACEMENT_3D ( 'NONE', #88, #250, #145 ) ;
#126 = PRODUCT_DEFINITION ( 'UNKNOWN', '', #108, #123 ) ;
#127 = APPLICATION_PROTOCOL_DEFINITION ( 'draft international standard', 'automotive_design', 1998, #286 ) ;
#128 = CARTESIAN_POINT ( 'NONE',  ( 0.0000000000000000000, 0.0000000000000000000, 1.500000000000000222 ) ) ;
#129 = AXIS2_PLACEMENT_3D ( 'NONE', #97, #233, #22 ) ;
#130 = CARTESIAN_POINT ( 'NONE',  ( -0.02497499999999998332, 3.058555380870514950E-18, 0.1499999999999999944 ) ) ;
#131 = DIRECTION ( 'NONE',  ( -1.224646799147353454E-16, -0.0000000000000000000, -1.000000000000000000 ) ) ;
#132 = SURFACE_STYLE_USAGE ( .BOTH. , #141 ) ;
#133 = FILL_AREA_STYLE_COLOUR ( '', #89 ) ;
#134 = DIRECTION ( 'NONE',  ( -1.000000000000000000, 0.0000000000000000000, 0.0000000000000000000 ) ) ;
#135 = ORIENTED_EDGE ( 'NONE', *, *, #218, .F. ) ;
#136 = FACE_OUTER_BOUND ( 'NONE', #19, .T. ) ;
#137 = ORIENTED_EDGE ( 'NONE', *, *, #284, .F. ) ;
#138 = EDGE_CURVE ( 'NONE', #43, #9, #53, .T. ) ;
#139 =( GEOMETRIC_REPRESENTATION_CONTEXT ( 3 ) GLOBAL_UNCERTAINTY_ASSIGNED_CONTEXT ( ( #116 ) ) GLOBAL_UNIT_ASSIGNED_CONTEXT ( ( #59, #260, #219 ) ) REPRESENTATION_CONTEXT ( 'NONE', 'WORKASPACE' ) );
#140 = FACE_OUTER_BOUND ( 'NONE', #263, .T. ) ;
#141 = SURFACE_SIDE_STYLE ('',( #68 ) ) ;
#142 = VERTEX_POINT ( 'NONE', #249 ) ;
#143 = ADVANCED_FACE ( 'NONE', ( #209 ), #82, .T. ) ;
#144 = FACE_OUTER_BOUND ( 'NONE', #160, .T. ) ;
#145 = DIRECTION ( 'NONE',  ( -1.000000000000000000, 0.0000000000000000000, 0.0000000000000000000 ) ) ;
#146 = CARTESIAN_POINT ( 'NONE',  ( -0.02497500000000000067, 0.0000000000000000000, 3.058555380870515335E-18 ) ) ;
#147 = ORIENTED_EDGE ( 'NONE', *, *, #138, .F. ) ;
#148 = FILL_AREA_STYLE_COLOUR ( '', #44 ) ;
#149 = ORIENTED_EDGE ( 'NONE', *, *, #32, .T. ) ;
#150 = CIRCLE ( 'NONE', #45, 0.06250000000000002776 ) ;
#151 = AXIS2_PLACEMENT_3D ( 'NONE', #185, #67, #47 ) ;
#152 = ORIENTED_EDGE ( 'NONE', *, *, #95, .F. ) ;
#153 = ORIENTED_EDGE ( 'NONE', *, *, #7, .F. ) ;
#154 = ORIENTED_EDGE ( 'NONE', *, *, #289, .F. ) ;
#155 = CIRCLE ( 'NONE', #251, 0.02497500000000000067 ) ;
#156 = DIRECTION ( 'NONE',  ( 1.000000000000000000, 0.0000000000000000000, 0.0000000000000000000 ) ) ;
#157 =( LENGTH_UNIT ( ) NAMED_UNIT ( * ) SI_UNIT ( $, .METRE. ) );
#158 = DIRECTION ( 'NONE',  ( 0.0000000000000000000, 0.0000000000000000000, 1.000000000000000000 ) ) ;
#159 = DIRECTION ( 'NONE',  ( 1.000000000000000000, 0.0000000000000000000, 0.0000000000000000000 ) ) ;
#160 = EDGE_LOOP ( 'NONE', ( #295, #170, #104, #90 ) ) ;
#161 = PRESENTATION_LAYER_ASSIGNMENT (  '', '', ( #190 ) ) ;
#162 = DIRECTION ( 'NONE',  ( 1.000000000000000000, 0.0000000000000000000, 0.0000000000000000000 ) ) ;
#163 = DIRECTION ( 'NONE',  ( -1.000000000000000000, 0.0000000000000000000, 1.224646799147353454E-16 ) ) ;
#164 = CARTESIAN_POINT ( 'NONE',  ( 1.836970198721029749E-17, 0.0000000000000000000, 0.1499999999999999944 ) ) ;
#165 = CIRCLE ( 'NONE', #267, 0.02497500000000000067 ) ;
#166 = CARTESIAN_POINT ( 'NONE',  ( 0.0000000000000000000, 0.0000000000000000000, 1.500000000000000222 ) ) ;
#167 = CARTESIAN_POINT ( 'NONE',  ( 0.04750000000000064587, 5.817072295950006528E-18, 1.500000000000000222 ) ) ;
#168 = VECTOR ( 'NONE', #86, 39.37007874015747433 ) ;
#169 = CARTESIAN_POINT ( 'NONE',  ( 0.06250000000000002776, 7.654042494670959086E-18, 1.485000000000000764 ) ) ;
#170 = ORIENTED_EDGE ( 'NONE', *, *, #277, .T. ) ;
#171 = VECTOR ( 'NONE', #241, 39.37007874015748143 ) ;
#172 =( GEOMETRIC_REPRESENTATION_CONTEXT ( 3 ) GLOBAL_UNCERTAINTY_ASSIGNED_CONTEXT ( ( #271 ) ) GLOBAL_UNIT_ASSIGNED_CONTEXT ( ( #192, #273, #33 ) ) REPRESENTATION_CONTEXT ( 'NONE', 'WORKASPACE' ) );
#173 =( LENGTH_UNIT ( ) NAMED_UNIT ( * ) SI_UNIT ( $, .METRE. ) );
#174 = CARTESIAN_POINT ( 'NONE',  ( 4.443200450799409520E-17, 0.0000000000000000000, 0.3628148502811535114 ) ) ;
#175 = LENGTH_MEASURE_WITH_UNIT ( LENGTH_MEASURE( 0.02539999999999999897 ), #81 );
#176 = ORIENTED_EDGE ( 'NONE', *, *, #109, .F. ) ;
#177 = EDGE_CURVE ( 'NONE', #43, #183, #37, .T. ) ;
#178 = LENGTH_MEASURE_WITH_UNIT ( LENGTH_MEASURE( 0.02539999999999999897 ), #173 );
#179 = VERTEX_POINT ( 'NONE', #169 ) ;
#180 = CARTESIAN_POINT ( 'NONE',  ( 0.0000000000000000000, 0.0000000000000000000, 0.0000000000000000000 ) ) ;
#181 = LENGTH_MEASURE_WITH_UNIT ( LENGTH_MEASURE( 0.02539999999999999897 ), #157 );
#182 = CARTESIAN_POINT ( 'NONE',  ( 0.02497500000000001802, 0.0000000000000000000, 0.1499999999999999944 ) ) ;
#183 = VERTEX_POINT ( 'NONE', #184 ) ;
#184 = CARTESIAN_POINT ( 'NONE',  ( -0.06249999999999997918, 0.0000000000000000000, 0.3628148502811535114 ) ) ;
#185 = CARTESIAN_POINT ( 'NONE',  ( 0.0000000000000000000, 0.0000000000000000000, 1.500000000000000222 ) ) ;
#186 = AXIS2_PLACEMENT_3D ( 'NONE', #266, #106, #69 ) ;
#187 = CARTESIAN_POINT ( 'NONE',  ( -0.04750000000000064587, 0.0000000000000000000, 1.500000000000000222 ) ) ;
#188 = CYLINDRICAL_SURFACE ( 'NONE', #50, 0.06250000000000002776 ) ;
#189 = DIRECTION ( 'NONE',  ( -1.224646799147353454E-16, -0.0000000000000000000, -1.000000000000000000 ) ) ;
#190 = STYLED_ITEM ( 'NONE', ( #228 ), #2 ) ;
#191 = CONICAL_SURFACE ( 'NONE', #121, 0.02497500000000000067, 0.1745329251994338360 ) ;
#192 =( CONVERSION_BASED_UNIT ( 'INCH', #181 ) LENGTH_UNIT ( ) NAMED_UNIT ( #98 ) );
#193 = CARTESIAN_POINT ( 'NONE',  ( -0.06250000000000002776, 0.0000000000000000000, 1.500000000000000222 ) ) ;
#194 = ADVANCED_FACE ( 'NONE', ( #41 ), #188, .T. ) ;
#195 = CIRCLE ( 'NONE', #63, 0.02497500000000000067 ) ;
#196 = ORIENTED_EDGE ( 'NONE', *, *, #119, .F. ) ;
#197 = ORIENTED_EDGE ( 'NONE', *, *, #109, .T. ) ;
#198 = VECTOR ( 'NONE', #64, 39.37007874015748143 ) ;
#199 = APPLICATION_CONTEXT ( 'automotive_design' ) ;
#200 = ORIENTED_EDGE ( 'NONE', *, *, #119, .T. ) ;
#201 = DIRECTION ( 'NONE',  ( -1.224646799147353454E-16, -0.0000000000000000000, -1.000000000000000000 ) ) ;
#202 = CARTESIAN_POINT ( 'NONE',  ( 0.02497500000000001802, 0.0000000000000000000, 0.1499999999999999944 ) ) ;
#203 = AXIS2_PLACEMENT_3D ( 'NONE', #164, #131, #24 ) ;
#204 = CARTESIAN_POINT ( 'NONE',  ( 3.745650057197991247E-34, 0.0000000000000000000, 3.058555380870515335E-18 ) ) ;
#205 = DIRECTION ( 'NONE',  ( -1.000000000000000000, 0.0000000000000000000, 0.0000000000000000000 ) ) ;
#206 = FACE_OUTER_BOUND ( 'NONE', #4, .T. ) ;
#207 = CARTESIAN_POINT ( 'NONE',  ( 0.02497500000000000067, 3.058555380870514950E-18, 0.0000000000000000000 ) ) ;
#208 = ADVANCED_FACE ( 'NONE', ( #92 ), #12, .F. ) ;
#209 = FACE_OUTER_BOUND ( 'NONE', #15, .T. ) ;
#210 = CARTESIAN_POINT ( 'NONE',  ( 0.0000000000000000000, 0.0000000000000000000, 0.0000000000000000000 ) ) ;
#211 = ADVANCED_FACE ( 'NONE', ( #227 ), #110, .T. ) ;
#212 = AXIS2_PLACEMENT_3D ( 'NONE', #265, #270, #159 ) ;
#213 = DIMENSIONAL_EXPONENTS ( 1.000000000000000000, 0.0000000000000000000, 0.0000000000000000000, 0.0000000000000000000, 0.0000000000000000000, 0.0000000000000000000, 0.0000000000000000000 ) ;
#214 = DIRECTION ( 'NONE',  ( -1.000000000000000000, 0.0000000000000000000, 0.0000000000000000000 ) ) ;
#215 = AXIS2_PLACEMENT_3D ( 'NONE', #210, #294, #252 ) ;
#216 = ADVANCED_BREP_SHAPE_REPRESENTATION ( 'Micro_RME-050-2', ( #2, #46 ), #139 ) ;
#217 = CLOSED_SHELL ( 'NONE', ( #211, #254, #257, #194, #231, #143, #281, #226, #61, #208 ) ) ;
#218 = EDGE_CURVE ( 'NONE', #259, #105, #23, .T. ) ;
#219 =( NAMED_UNIT ( * ) SI_UNIT ( $, .STERADIAN. ) SOLID_ANGLE_UNIT ( ) );
#220 = SURFACE_SIDE_STYLE ('',( #85 ) ) ;
#221 = PRESENTATION_STYLE_ASSIGNMENT (( #132 ) ) ;
#222 = EDGE_LOOP ( 'NONE', ( #17, #77, #282, #147 ) ) ;
#223 = PRODUCT_CONTEXT ( 'NONE', #199, 'mechanical' ) ;
#224 = AXIS2_PLACEMENT_3D ( 'NONE', #128, #238, #134 ) ;
#225 =( NAMED_UNIT ( * ) PLANE_ANGLE_UNIT ( ) SI_UNIT ( $, .RADIAN. ) );
#226 = ADVANCED_FACE ( 'NONE', ( #117 ), #58, .T. ) ;
#227 = FACE_OUTER_BOUND ( 'NONE', #222, .T. ) ;
#228 = PRESENTATION_STYLE_ASSIGNMENT (( #83 ) ) ;
#229 = PRODUCT ( 'Micro_RME-050-2', 'Micro_RME-050-2', '', ( #223 ) ) ;
#230 = CARTESIAN_POINT ( 'NONE',  ( 3.745650057197991247E-34, 0.0000000000000000000, 3.058555380870515335E-18 ) ) ;
#231 = ADVANCED_FACE ( 'NONE', ( #206 ), #96, .T. ) ;
#232 = FACE_OUTER_BOUND ( 'NONE', #291, .T. ) ;
#233 = DIRECTION ( 'NONE',  ( 0.0000000000000000000, 0.0000000000000000000, -1.000000000000000000 ) ) ;
#234 = PRODUCT_DEFINITION_SHAPE ( 'NONE', 'NONE',  #126 ) ;
#235 = MECHANICAL_DESIGN_GEOMETRIC_PRESENTATION_REPRESENTATION (  '', ( #8 ), #172 ) ;
#236 = VERTEX_POINT ( 'NONE', #182 ) ;
#237 = ORIENTED_EDGE ( 'NONE', *, *, #101, .F. ) ;
#238 = DIRECTION ( 'NONE',  ( 0.0000000000000000000, 0.0000000000000000000, -1.000000000000000000 ) ) ;
#239 = ORIENTED_EDGE ( 'NONE', *, *, #87, .F. ) ;
#240 = ORIENTED_EDGE ( 'NONE', *, *, #261, .T. ) ;
#241 = DIRECTION ( 'NONE',  ( -1.224646799147353454E-16, -0.0000000000000000000, -1.000000000000000000 ) ) ;
#242 = EDGE_CURVE ( 'NONE', #259, #142, #290, .T. ) ;
#243 = CARTESIAN_POINT ( 'NONE',  ( -0.02497500000000000067, 0.0000000000000000000, 6.117110761741030670E-18 ) ) ;
#244 = AXIS2_PLACEMENT_3D ( 'NONE', #174, #201, #156 ) ;
#245 = VECTOR ( 'NONE', #48, 39.37007874015748143 ) ;
#246 = LINE ( 'NONE', #202, #245 ) ;
#247 = CARTESIAN_POINT ( 'NONE',  ( 0.0000000000000000000, 0.0000000000000000000, 1.500000000000000222 ) ) ;
#248 = CARTESIAN_POINT ( 'NONE',  ( 1.836970198721029749E-17, 0.0000000000000000000, 0.1499999999999999944 ) ) ;
#249 = CARTESIAN_POINT ( 'NONE',  ( 0.04750000000000064587, 6.735557395310483192E-18, 1.500000000000000222 ) ) ;
#250 = DIRECTION ( 'NONE',  ( -0.0000000000000000000, -0.0000000000000000000, -1.000000000000000000 ) ) ;
#251 = AXIS2_PLACEMENT_3D ( 'NONE', #204, #274, #163 ) ;
#252 = DIRECTION ( 'NONE',  ( 1.000000000000000000, 0.0000000000000000000, -0.0000000000000000000 ) ) ;
#253 = DIRECTION ( 'NONE',  ( 0.7071067811865462405, 8.659560562354916834E-17, -0.7071067811865486830 ) ) ;
#254 = ADVANCED_FACE ( 'NONE', ( #140 ), #191, .T. ) ;
#255 = EDGE_LOOP ( 'NONE', ( #240, #65 ) ) ;
#256 = CIRCLE ( 'NONE', #129, 0.06250000000000002776 ) ;
#257 = ADVANCED_FACE ( 'NONE', ( #232 ), #269, .T. ) ;
#258 = ORIENTED_EDGE ( 'NONE', *, *, #35, .F. ) ;
#259 = VERTEX_POINT ( 'NONE', #187 ) ;
#260 =( NAMED_UNIT ( * ) PLANE_ANGLE_UNIT ( ) SI_UNIT ( $, .RADIAN. ) );
#261 = EDGE_CURVE ( 'NONE', #9, #31, #165, .T. ) ;
#262 = ORIENTED_EDGE ( 'NONE', *, *, #101, .T. ) ;
#263 = EDGE_LOOP ( 'NONE', ( #239, #102, #3, #258 ) ) ;
#264 = DIRECTION ( 'NONE',  ( 0.0000000000000000000, 0.0000000000000000000, 1.000000000000000000 ) ) ;
#265 = CARTESIAN_POINT ( 'NONE',  ( 1.836970198721029749E-17, 0.0000000000000000000, 0.1499999999999999944 ) ) ;
#266 = CARTESIAN_POINT ( 'NONE',  ( 0.0000000000000000000, 0.0000000000000000000, 1.485000000000000764 ) ) ;
#267 = AXIS2_PLACEMENT_3D ( 'NONE', #230, #20, #72 ) ;
#268 = DIRECTION ( 'NONE',  ( -1.000000000000000000, 0.0000000000000000000, 1.224646799147353454E-16 ) ) ;
#269 = CONICAL_SURFACE ( 'NONE', #297, 0.04750000000000064587, 0.7853981633974466137 ) ;
#270 = DIRECTION ( 'NONE',  ( 1.224646799147353454E-16, 0.0000000000000000000, 1.000000000000000000 ) ) ;
#271 = UNCERTAINTY_MEASURE_WITH_UNIT (LENGTH_MEASURE( 1.000000000000000082E-05 ), #192, 'distance_accuracy_value', 'NONE');
#272 = DIRECTION ( 'NONE',  ( -1.000000000000000000, 0.0000000000000000000, 1.224646799147353454E-16 ) ) ;
#273 =( NAMED_UNIT ( * ) PLANE_ANGLE_UNIT ( ) SI_UNIT ( $, .RADIAN. ) );
#274 = DIRECTION ( 'NONE',  ( -1.224646799147353454E-16, -0.0000000000000000000, -1.000000000000000000 ) ) ;
#275 = VECTOR ( 'NONE', #42, 39.37007874015748143 ) ;
#276 = DIRECTION ( 'NONE',  ( -0.0000000000000000000, -0.0000000000000000000, -1.000000000000000000 ) ) ;
#277 = EDGE_CURVE ( 'NONE', #236, #43, #16, .T. ) ;
#278 = ORIENTED_EDGE ( 'NONE', *, *, #95, .T. ) ;
#279 = EDGE_CURVE ( 'NONE', #236, #31, #13, .T. ) ;
#280 = ORIENTED_EDGE ( 'NONE', *, *, #177, .F. ) ;
#281 = ADVANCED_FACE ( 'NONE', ( #136 ), #70, .T. ) ;
#282 = ORIENTED_EDGE ( 'NONE', *, *, #261, .F. ) ;
#283 = VECTOR ( 'NONE', #276, 39.37007874015748143 ) ;
#284 = EDGE_CURVE ( 'NONE', #179, #36, #10, .T. ) ;
#285 = CARTESIAN_POINT ( 'NONE',  ( 0.02497500000000000067, 3.058555380870514950E-18, -3.058555380870515335E-18 ) ) ;
#286 = APPLICATION_CONTEXT ( 'automotive_design' ) ;
#287 = ORIENTED_EDGE ( 'NONE', *, *, #218, .T. ) ;
#288 = FILL_AREA_STYLE ('',( #133 ) ) ;
#289 = EDGE_CURVE ( 'NONE', #183, #36, #30, .T. ) ;
#290 = CIRCLE ( 'NONE', #151, 0.04750000000000064587 ) ;
#291 = EDGE_LOOP ( 'NONE', ( #153, #200, #152, #135 ) ) ;
#292 = CARTESIAN_POINT ( 'NONE',  ( -0.04750000000000064587, 0.0000000000000000000, 1.500000000000000222 ) ) ;
#293 =( CONVERSION_BASED_UNIT ( 'INCH', #175 ) LENGTH_UNIT ( ) NAMED_UNIT ( #93 ) );
#294 = DIRECTION ( 'NONE',  ( 0.0000000000000000000, 0.0000000000000000000, 1.000000000000000000 ) ) ;
#295 = ORIENTED_EDGE ( 'NONE', *, *, #279, .F. ) ;
#296 = CARTESIAN_POINT ( 'NONE',  ( 0.0000000000000000000, 0.0000000000000000000, 0.0000000000000000000 ) ) ;
#297 = AXIS2_PLACEMENT_3D ( 'NONE', #247, #49, #94 ) ;
#298 = DIRECTION ( 'NONE',  ( 0.0000000000000000000, 0.0000000000000000000, 1.000000000000000000 ) ) ;
#299 = DIRECTION ( 'NONE',  ( -0.7071067811865462405, 0.0000000000000000000, -0.7071067811865486830 ) ) ;
ENDSEC;
END-ISO-10303-21;
