ISO-10303-21;
HEADER;
FILE_DESCRIPTION (( 'STEP AP214' ),
    '1' );
FILE_NAME ('Micro_BEM-500-03X.STEP',
    '2021-09-03T13:15:35',
    ( '' ),
    ( '' ),
    'SwSTEP 2.0',
    'SolidWorks 2020',
    '' );
FILE_SCHEMA (( 'AUTOMOTIVE_DESIGN' ));
ENDSEC;

DATA;
#1 = CARTESIAN_POINT ( 'NONE',  ( 0.2350000000000011524, 2.877919977996294002E-17, 3.000000000000000444 ) ) ;
#2 = AXIS2_PLACEMENT_3D ( 'NONE', #108, #93, #201 ) ;
#3 = ADVANCED_FACE ( 'NONE', ( #216 ), #167, .T. ) ;
#4 = DIRECTION ( 'NONE',  ( 0.0000000000000000000, -1.000000000000000000, 0.0000000000000000000 ) ) ;
#5 = UNCERTAINTY_MEASURE_WITH_UNIT (LENGTH_MEASURE( 1.000000000000000082E-05 ), #266, 'distance_accuracy_value', 'NONE');
#6 = DIRECTION ( 'NONE',  ( -1.224646799147353454E-16, -0.0000000000000000000, -1.000000000000000000 ) ) ;
#7 = FILL_AREA_STYLE ('',( #14 ) ) ;
#8 = CONICAL_SURFACE ( 'NONE', #46, 0.2497499999999999998, 0.1745329251994339192 ) ;
#9 = AXIS2_PLACEMENT_3D ( 'NONE', #234, #4, #103 ) ;
#10 = DIRECTION ( 'NONE',  ( 0.0000000000000000000, 0.0000000000000000000, 1.000000000000000000 ) ) ;
#11 = ORIENTED_EDGE ( 'NONE', *, *, #286, .T. ) ;
#12 = EDGE_CURVE ( 'NONE', #169, #153, #217, .T. ) ;
#13 = ORIENTED_EDGE ( 'NONE', *, *, #262, .T. ) ;
#14 = FILL_AREA_STYLE_COLOUR ( '', #323 ) ;
#15 = VECTOR ( 'NONE', #60, 39.37007874015748143 ) ;
#16 = SURFACE_STYLE_USAGE ( .BOTH. , #265 ) ;
#17 = LINE ( 'NONE', #275, #165 ) ;
#18 = CARTESIAN_POINT ( 'NONE',  ( 1.224646799147353454E-16, 0.0000000000000000000, 1.000000000000000000 ) ) ;
#19 = ADVANCED_FACE ( 'NONE', ( #291 ), #8, .T. ) ;
#20 = CONICAL_SURFACE ( 'NONE', #226, 0.2350000000000011524, 0.7853981633974380649 ) ;
#21 = DIRECTION ( 'NONE',  ( 0.0000000000000000000, 1.000000000000000000, 0.0000000000000000000 ) ) ;
#22 = CARTESIAN_POINT ( 'NONE',  ( 4.587833071305773041E-17, 0.0000000000000000000, 0.0000000000000000000 ) ) ;
#23 = DIRECTION ( 'NONE',  ( 0.0000000000000000000, 0.0000000000000000000, 1.000000000000000000 ) ) ;
#24 = CARTESIAN_POINT ( 'NONE',  ( 1.224646799147353454E-16, 0.0000000000000000000, 1.000000000000000000 ) ) ;
#25 = CLOSED_SHELL ( 'NONE', ( #110, #203, #19, #129, #179, #159, #3, #124, #94, #292, #158 ) ) ;
#26 = ORIENTED_EDGE ( 'NONE', *, *, #31, .T. ) ;
#27 = LENGTH_MEASURE_WITH_UNIT ( LENGTH_MEASURE( 0.02539999999999999897 ), #70 );
#28 = DIRECTION ( 'NONE',  ( 1.224646799147353454E-16, 0.0000000000000000000, 1.000000000000000000 ) ) ;
#29 = CIRCLE ( 'NONE', #304, 0.2497499999999999998 ) ;
#30 = ORIENTED_EDGE ( 'NONE', *, *, #204, .F. ) ;
#31 = EDGE_CURVE ( 'NONE', #49, #169, #59, .T. ) ;
#32 = LENGTH_MEASURE_WITH_UNIT ( LENGTH_MEASURE( 0.02539999999999999897 ), #63 );
#33 = CIRCLE ( 'NONE', #151, 0.2497499999999999998 ) ;
#34 = ORIENTED_EDGE ( 'NONE', *, *, #208, .T. ) ;
#35 = LINE ( 'NONE', #1, #273 ) ;
#36 = CARTESIAN_POINT ( 'NONE',  ( 0.0000000000000000000, 0.0000000000000000000, 0.0000000000000000000 ) ) ;
#37 = EDGE_CURVE ( 'NONE', #49, #81, #52, .T. ) ;
#38 = UNCERTAINTY_MEASURE_WITH_UNIT (LENGTH_MEASURE( 1.000000000000000082E-05 ), #230, 'distance_accuracy_value', 'NONE');
#39 = ORIENTED_EDGE ( 'NONE', *, *, #208, .F. ) ;
#40 = VECTOR ( 'NONE', #92, 39.37007874015747433 ) ;
#41 = LINE ( 'NONE', #322, #40 ) ;
#42 = CARTESIAN_POINT ( 'NONE',  ( -0.2497499999999998888, 3.060086189369449292E-17, 1.000000000000000000 ) ) ;
#43 = CARTESIAN_POINT ( 'NONE',  ( -0.2497499999999999998, 0.0000000000000000000, 3.058555380870515566E-17 ) ) ;
#44 = AXIS2_PLACEMENT_3D ( 'NONE', #302, #148, #73 ) ;
#45 = DIRECTION ( 'NONE',  ( -1.224646799147353454E-16, -0.0000000000000000000, -1.000000000000000000 ) ) ;
#46 = AXIS2_PLACEMENT_3D ( 'NONE', #285, #241, #269 ) ;
#47 = AXIS2_PLACEMENT_3D ( 'NONE', #89, #248, #174 ) ;
#48 = MANIFOLD_SOLID_BREP ( 'Fillet1', #25 ) ;
#49 = VERTEX_POINT ( 'NONE', #224 ) ;
#50 = LINE ( 'NONE', #43, #123 ) ;
#51 = ORIENTED_EDGE ( 'NONE', *, *, #80, .T. ) ;
#52 = CIRCLE ( 'NONE', #139, 0.2500000000000000000 ) ;
#53 = EDGE_LOOP ( 'NONE', ( #112, #232, #195, #34 ) ) ;
#54 = VERTEX_POINT ( 'NONE', #67 ) ;
#55 = UNCERTAINTY_MEASURE_WITH_UNIT (LENGTH_MEASURE( 1.000000000000000082E-05 ), #312, 'distance_accuracy_value', 'NONE');
#56 =( NAMED_UNIT ( * ) SI_UNIT ( $, .STERADIAN. ) SOLID_ANGLE_UNIT ( ) );
#57 = AXIS2_PLACEMENT_3D ( 'NONE', #166, #274, #290 ) ;
#58 = CARTESIAN_POINT ( 'NONE',  ( 0.0000000000000000000, 0.0000000000000000000, 3.000000000000000444 ) ) ;
#59 = LINE ( 'NONE', #271, #15 ) ;
#60 = DIRECTION ( 'NONE',  ( -0.0000000000000000000, -0.0000000000000000000, -1.000000000000000000 ) ) ;
#61 = SURFACE_STYLE_FILL_AREA ( #288 ) ;
#62 = PRODUCT_DEFINITION_SHAPE ( 'NONE', 'NONE',  #307 ) ;
#63 =( LENGTH_UNIT ( ) NAMED_UNIT ( * ) SI_UNIT ( $, .METRE. ) );
#64 = CIRCLE ( 'NONE', #284, 0.2497499999999999998 ) ;
#65 = DIRECTION ( 'NONE',  ( -1.224646799147353454E-16, -0.0000000000000000000, -1.000000000000000000 ) ) ;
#66 = CARTESIAN_POINT ( 'NONE',  ( 0.2500000000000001110, 3.061616997868383634E-17, 1.001417820454904462 ) ) ;
#67 = CARTESIAN_POINT ( 'NONE',  ( 0.2497500000000000553, 3.058555380870514950E-17, 0.2497499999999999720 ) ) ;
#68 = DIRECTION ( 'NONE',  ( 0.0000000000000000000, 0.0000000000000000000, -1.000000000000000000 ) ) ;
#69 =( GEOMETRIC_REPRESENTATION_CONTEXT ( 3 ) GLOBAL_UNCERTAINTY_ASSIGNED_CONTEXT ( ( #38 ) ) GLOBAL_UNIT_ASSIGNED_CONTEXT ( ( #230, #256, #134 ) ) REPRESENTATION_CONTEXT ( 'NONE', 'WORKASPACE' ) );
#70 =( LENGTH_UNIT ( ) NAMED_UNIT ( * ) SI_UNIT ( $, .METRE. ) );
#71 = EDGE_CURVE ( 'NONE', #254, #81, #35, .T. ) ;
#72 = AXIS2_PLACEMENT_3D ( 'NONE', #295, #91, #171 ) ;
#73 = DIRECTION ( 'NONE',  ( -1.000000000000000000, 1.224646799147353454E-16, 0.0000000000000000000 ) ) ;
#74 = AXIS2_PLACEMENT_3D ( 'NONE', #18, #28, #246 ) ;
#75 =( NAMED_UNIT ( * ) SI_UNIT ( $, .STERADIAN. ) SOLID_ANGLE_UNIT ( ) );
#76 = CYLINDRICAL_SURFACE ( 'NONE', #2, 0.2497499999999999998 ) ;
#77 = ORIENTED_EDGE ( 'NONE', *, *, #31, .F. ) ;
#78 = EDGE_LOOP ( 'NONE', ( #228, #114, #51, #287 ) ) ;
#79 = EDGE_CURVE ( 'NONE', #185, #254, #279, .T. ) ;
#80 = EDGE_CURVE ( 'NONE', #185, #49, #229, .T. ) ;
#81 = VERTEX_POINT ( 'NONE', #98 ) ;
#82 = EDGE_CURVE ( 'NONE', #157, #169, #41, .T. ) ;
#83 = EDGE_LOOP ( 'NONE', ( #283, #160, #85, #30 ) ) ;
#84 = ORIENTED_EDGE ( 'NONE', *, *, #12, .F. ) ;
#85 = ORIENTED_EDGE ( 'NONE', *, *, #12, .T. ) ;
#86 = SHAPE_DEFINITION_REPRESENTATION ( #62, #261 ) ;
#87 = DIRECTION ( 'NONE',  ( 0.0000000000000000000, 0.0000000000000000000, 1.000000000000000000 ) ) ;
#88 = DIRECTION ( 'NONE',  ( 0.1736481776669314137, 0.0000000000000000000, 0.9848077530122077983 ) ) ;
#89 = CARTESIAN_POINT ( 'NONE',  ( 3.058555380870515566E-17, 0.0000000000000000000, 0.2497499999999999998 ) ) ;
#90 = AXIS2_PLACEMENT_3D ( 'NONE', #211, #308, #252 ) ;
#91 = DIRECTION ( 'NONE',  ( 0.0000000000000000000, 0.0000000000000000000, 1.000000000000000000 ) ) ;
#92 = DIRECTION ( 'NONE',  ( -0.1736481776669312194, 2.126576849575783625E-17, 0.9848077530122080203 ) ) ;
#93 = DIRECTION ( 'NONE',  ( -1.224646799147353454E-16, -0.0000000000000000000, -1.000000000000000000 ) ) ;
#94 = ADVANCED_FACE ( 'NONE', ( #181 ), #223, .T. ) ;
#95 = PRESENTATION_LAYER_ASSIGNMENT (  '', '', ( #191 ) ) ;
#96 = EDGE_LOOP ( 'NONE', ( #315, #102, #26, #39 ) ) ;
#97 = DIRECTION ( 'NONE',  ( -0.0000000000000000000, -0.0000000000000000000, -1.000000000000000000 ) ) ;
#98 = CARTESIAN_POINT ( 'NONE',  ( 0.2500000000000000000, 3.061616997868382402E-17, 2.985000000000001208 ) ) ;
#99 = CIRCLE ( 'NONE', #239, 0.2350000000000011524 ) ;
#100 = CARTESIAN_POINT ( 'NONE',  ( -0.2350000000000011524, 0.0000000000000000000, 3.000000000000000444 ) ) ;
#101 = ORIENTED_EDGE ( 'NONE', *, *, #293, .T. ) ;
#102 = ORIENTED_EDGE ( 'NONE', *, *, #268, .T. ) ;
#103 = DIRECTION ( 'NONE',  ( 0.0000000000000000000, 0.0000000000000000000, -1.000000000000000000 ) ) ;
#104 = ORIENTED_EDGE ( 'NONE', *, *, #111, .F. ) ;
#105 = DIRECTION ( 'NONE',  ( -1.000000000000000000, 0.0000000000000000000, 0.0000000000000000000 ) ) ;
#106 = VECTOR ( 'NONE', #97, 39.37007874015748143 ) ;
#107 = APPLICATION_PROTOCOL_DEFINITION ( 'draft international standard', 'automotive_design', 1998, #177 ) ;
#108 = CARTESIAN_POINT ( 'NONE',  ( 0.0000000000000000000, 0.0000000000000000000, 0.0000000000000000000 ) ) ;
#109 = ORIENTED_EDGE ( 'NONE', *, *, #194, .F. ) ;
#110 = ADVANCED_FACE ( 'NONE', ( #172 ), #209, .T. ) ;
#111 = EDGE_CURVE ( 'NONE', #190, #192, #301, .T. ) ;
#112 = ORIENTED_EDGE ( 'NONE', *, *, #82, .F. ) ;
#113 = APPLICATION_PROTOCOL_DEFINITION ( 'draft international standard', 'automotive_design', 1998, #155 ) ;
#114 = ORIENTED_EDGE ( 'NONE', *, *, #79, .F. ) ;
#115 = PRODUCT ( 'Micro_BEM-500-03X', 'Micro_BEM-500-03X', '', ( #313 ) ) ;
#116 = PRESENTATION_STYLE_ASSIGNMENT (( #16 ) ) ;
#117 = PRODUCT_RELATED_PRODUCT_CATEGORY ( 'part', '', ( #115 ) ) ;
#118 = FACE_OUTER_BOUND ( 'NONE', #78, .T. ) ;
#119 =( GEOMETRIC_REPRESENTATION_CONTEXT ( 3 ) GLOBAL_UNCERTAINTY_ASSIGNED_CONTEXT ( ( #5 ) ) GLOBAL_UNIT_ASSIGNED_CONTEXT ( ( #266, #270, #56 ) ) REPRESENTATION_CONTEXT ( 'NONE', 'WORKASPACE' ) );
#120 = EDGE_CURVE ( 'NONE', #210, #54, #17, .T. ) ;
#121 = DIRECTION ( 'NONE',  ( -1.224646799147353454E-16, -0.0000000000000000000, -1.000000000000000000 ) ) ;
#122 = VECTOR ( 'NONE', #250, 39.37007874015748854 ) ;
#123 = VECTOR ( 'NONE', #282, 39.37007874015748143 ) ;
#124 = ADVANCED_FACE ( 'NONE', ( #118 ), #20, .T. ) ;
#125 = DIRECTION ( 'NONE',  ( 1.000000000000000000, 0.0000000000000000000, 0.0000000000000000000 ) ) ;
#126 = CARTESIAN_POINT ( 'NONE',  ( 0.2350000000000011524, 2.969768487932338510E-17, 3.000000000000000444 ) ) ;
#127 =( NAMED_UNIT ( * ) PLANE_ANGLE_UNIT ( ) SI_UNIT ( $, .RADIAN. ) );
#128 = EDGE_LOOP ( 'NONE', ( #281, #13, #245, #243 ) ) ;
#129 = ADVANCED_FACE ( 'NONE', ( #253 ), #164, .T. ) ;
#130 = ORIENTED_EDGE ( 'NONE', *, *, #235, .T. ) ;
#131 = DIRECTION ( 'NONE',  ( 1.000000000000000000, 0.0000000000000000000, -0.0000000000000000000 ) ) ;
#132 = DIRECTION ( 'NONE',  ( 1.000000000000000000, 0.0000000000000000000, 0.0000000000000000000 ) ) ;
#133 = AXIS2_PLACEMENT_3D ( 'NONE', #305, #68, #142 ) ;
#134 =( NAMED_UNIT ( * ) SI_UNIT ( $, .STERADIAN. ) SOLID_ANGLE_UNIT ( ) );
#135 = CARTESIAN_POINT ( 'NONE',  ( 0.0000000000000000000, 0.0000000000000000000, 3.000000000000000444 ) ) ;
#136 = ORIENTED_EDGE ( 'NONE', *, *, #80, .F. ) ;
#137 = CARTESIAN_POINT ( 'NONE',  ( 3.058555380870515566E-17, 0.0000000000000000000, 0.2497499999999999998 ) ) ;
#138 = ORIENTED_EDGE ( 'NONE', *, *, #145, .F. ) ;
#139 = AXIS2_PLACEMENT_3D ( 'NONE', #188, #289, #197 ) ;
#140 = SURFACE_STYLE_FILL_AREA ( #7 ) ;
#141 = CIRCLE ( 'NONE', #320, 0.2497499999999999998 ) ;
#142 = DIRECTION ( 'NONE',  ( -1.000000000000000000, 0.0000000000000000000, 0.0000000000000000000 ) ) ;
#143 = DIMENSIONAL_EXPONENTS ( 1.000000000000000000, 0.0000000000000000000, 0.0000000000000000000, 0.0000000000000000000, 0.0000000000000000000, 0.0000000000000000000, 0.0000000000000000000 ) ;
#144 = FACE_OUTER_BOUND ( 'NONE', #240, .T. ) ;
#145 = EDGE_CURVE ( 'NONE', #157, #192, #50, .T. ) ;
#146 = AXIS2_PLACEMENT_3D ( 'NONE', #306, #260, #186 ) ;
#147 = DIRECTION ( 'NONE',  ( -0.0000000000000000000, -0.0000000000000000000, -1.000000000000000000 ) ) ;
#148 = DIRECTION ( 'NONE',  ( 1.224646799147353207E-16, 1.000000000000000000, -0.0000000000000000000 ) ) ;
#149 = CARTESIAN_POINT ( 'NONE',  ( 0.0000000000000000000, 0.0000000000000000000, 3.000000000000000444 ) ) ;
#150 = CYLINDRICAL_SURFACE ( 'NONE', #90, 0.2497499999999999998 ) ;
#151 = AXIS2_PLACEMENT_3D ( 'NONE', #180, #154, #173 ) ;
#152 = CARTESIAN_POINT ( 'NONE',  ( 0.2497500000000001386, 0.0000000000000000000, 1.000000000000000000 ) ) ;
#153 = VERTEX_POINT ( 'NONE', #66 ) ;
#154 = DIRECTION ( 'NONE',  ( 1.224646799147353454E-16, 0.0000000000000000000, 1.000000000000000000 ) ) ;
#155 = APPLICATION_CONTEXT ( 'automotive_design' ) ;
#156 = SPHERICAL_SURFACE ( 'NONE', #47, 0.2497499999999999998 ) ;
#157 = VERTEX_POINT ( 'NONE', #42 ) ;
#158 = ADVANCED_FACE ( 'NONE', ( #144 ), #156, .T. ) ;
#159 = ADVANCED_FACE ( 'NONE', ( #277 ), #205, .T. ) ;
#160 = ORIENTED_EDGE ( 'NONE', *, *, #82, .T. ) ;
#161 = ORIENTED_EDGE ( 'NONE', *, *, #286, .F. ) ;
#162 = ORIENTED_EDGE ( 'NONE', *, *, #194, .T. ) ;
#163 =( LENGTH_UNIT ( ) NAMED_UNIT ( * ) SI_UNIT ( $, .METRE. ) );
#164 = CONICAL_SURFACE ( 'NONE', #133, 0.2350000000000011524, 0.7853981633974380649 ) ;
#165 = VECTOR ( 'NONE', #121, 39.37007874015748143 ) ;
#166 = CARTESIAN_POINT ( 'NONE',  ( 1.226383128429217700E-16, 0.0000000000000000000, 1.001417820454904462 ) ) ;
#167 = PLANE ( 'NONE',  #176 ) ;
#168 = ORIENTED_EDGE ( 'NONE', *, *, #37, .F. ) ;
#169 = VERTEX_POINT ( 'NONE', #199 ) ;
#170 = CARTESIAN_POINT ( 'NONE',  ( 0.2497500000000001386, 0.0000000000000000000, 1.000000000000000000 ) ) ;
#171 = DIRECTION ( 'NONE',  ( 1.000000000000000000, 0.0000000000000000000, 0.0000000000000000000 ) ) ;
#172 = FACE_OUTER_BOUND ( 'NONE', #318, .T. ) ;
#173 = DIRECTION ( 'NONE',  ( -1.000000000000000000, 0.0000000000000000000, 1.367291288120251888E-16 ) ) ;
#174 = DIRECTION ( 'NONE',  ( 1.000000000000000000, 0.0000000000000000000, 0.0000000000000000000 ) ) ;
#175 = PRODUCT_DEFINITION_FORMATION_WITH_SPECIFIED_SOURCE ( 'ANY', '', #115, .NOT_KNOWN. ) ;
#176 = AXIS2_PLACEMENT_3D ( 'NONE', #58, #87, #131 ) ;
#177 = APPLICATION_CONTEXT ( 'automotive_design' ) ;
#178 = LINE ( 'NONE', #152, #280 ) ;
#179 = ADVANCED_FACE ( 'NONE', ( #296 ), #189, .T. ) ;
#180 = CARTESIAN_POINT ( 'NONE',  ( 3.058555380870515566E-17, 0.0000000000000000000, 0.2497499999999999998 ) ) ;
#181 = FACE_OUTER_BOUND ( 'NONE', #53, .T. ) ;
#182 = EDGE_LOOP ( 'NONE', ( #187, #162 ) ) ;
#183 = DIRECTION ( 'NONE',  ( -1.000000000000000000, 0.0000000000000000000, 0.0000000000000000000 ) ) ;
#184 = DIRECTION ( 'NONE',  ( 1.000000000000000000, 0.0000000000000000000, 0.0000000000000000000 ) ) ;
#185 = VERTEX_POINT ( 'NONE', #227 ) ;
#186 = DIRECTION ( 'NONE',  ( 1.000000000000000000, 0.0000000000000000000, 0.0000000000000000000 ) ) ;
#187 = ORIENTED_EDGE ( 'NONE', *, *, #79, .T. ) ;
#188 = CARTESIAN_POINT ( 'NONE',  ( 0.0000000000000000000, 0.0000000000000000000, 2.985000000000001208 ) ) ;
#189 = CYLINDRICAL_SURFACE ( 'NONE', #249, 0.2500000000000000000 ) ;
#190 = VERTEX_POINT ( 'NONE', #22 ) ;
#191 = STYLED_ITEM ( 'NONE', ( #193 ), #261 ) ;
#192 = VERTEX_POINT ( 'NONE', #278 ) ;
#193 = PRESENTATION_STYLE_ASSIGNMENT (( #215 ) ) ;
#194 = EDGE_CURVE ( 'NONE', #254, #185, #99, .T. ) ;
#195 = ORIENTED_EDGE ( 'NONE', *, *, #204, .T. ) ;
#196 = DIRECTION ( 'NONE',  ( 1.224646799147353454E-16, 0.0000000000000000000, 1.000000000000000000 ) ) ;
#197 = DIRECTION ( 'NONE',  ( 1.000000000000000000, 0.0000000000000000000, 0.0000000000000000000 ) ) ;
#198 = CIRCLE ( 'NONE', #146, 0.2500000000000000000 ) ;
#199 = CARTESIAN_POINT ( 'NONE',  ( -0.2499999999999998612, 0.0000000000000000000, 1.001417820454904462 ) ) ;
#200 = CARTESIAN_POINT ( 'NONE',  ( 3.058555380870515566E-17, 0.0000000000000000000, 0.2497499999999999998 ) ) ;
#201 = DIRECTION ( 'NONE',  ( -1.000000000000000000, 0.0000000000000000000, 1.224646799147353700E-16 ) ) ;
#202 = AXIS2_PLACEMENT_3D ( 'NONE', #247, #65, #297 ) ;
#203 = ADVANCED_FACE ( 'NONE', ( #231 ), #76, .T. ) ;
#204 = EDGE_CURVE ( 'NONE', #210, #153, #178, .T. ) ;
#205 = CYLINDRICAL_SURFACE ( 'NONE', #212, 0.2500000000000000000 ) ;
#206 = CIRCLE ( 'NONE', #202, 0.2500000000000000000 ) ;
#207 = CARTESIAN_POINT ( 'NONE',  ( 1.224646799147353454E-16, 0.0000000000000000000, 1.000000000000000000 ) ) ;
#208 = EDGE_CURVE ( 'NONE', #153, #169, #206, .T. ) ;
#209 = SPHERICAL_SURFACE ( 'NONE', #267, 0.2497499999999999998 ) ;
#210 = VERTEX_POINT ( 'NONE', #170 ) ;
#211 = CARTESIAN_POINT ( 'NONE',  ( 0.0000000000000000000, 0.0000000000000000000, 0.0000000000000000000 ) ) ;
#212 = AXIS2_PLACEMENT_3D ( 'NONE', #255, #222, #319 ) ;
#213 = PRODUCT_DEFINITION_CONTEXT ( 'detailed design', #155, 'design' ) ;
#214 = ORIENTED_EDGE ( 'NONE', *, *, #299, .T. ) ;
#215 = SURFACE_STYLE_USAGE ( .BOTH. , #311 ) ;
#216 = FACE_OUTER_BOUND ( 'NONE', #182, .T. ) ;
#217 = CIRCLE ( 'NONE', #57, 0.2500000000000000000 ) ;
#218 = COLOUR_RGB ( '',0.7921568627450980005, 0.8196078431372548767, 0.9333333333333333481 ) ;
#219 = ORIENTED_EDGE ( 'NONE', *, *, #111, .T. ) ;
#220 = CARTESIAN_POINT ( 'NONE',  ( 0.0000000000000000000, 0.0000000000000000000, 3.000000000000000444 ) ) ;
#221 =( GEOMETRIC_REPRESENTATION_CONTEXT ( 3 ) GLOBAL_UNCERTAINTY_ASSIGNED_CONTEXT ( ( #55 ) ) GLOBAL_UNIT_ASSIGNED_CONTEXT ( ( #312, #127, #75 ) ) REPRESENTATION_CONTEXT ( 'NONE', 'WORKASPACE' ) );
#222 = DIRECTION ( 'NONE',  ( -0.0000000000000000000, -0.0000000000000000000, -1.000000000000000000 ) ) ;
#223 = CONICAL_SURFACE ( 'NONE', #74, 0.2497499999999999998, 0.1745329251994339192 ) ;
#224 = CARTESIAN_POINT ( 'NONE',  ( -0.2500000000000000000, 0.0000000000000000000, 2.985000000000001208 ) ) ;
#225 = MECHANICAL_DESIGN_GEOMETRIC_PRESENTATION_REPRESENTATION (  '', ( #257 ), #221 ) ;
#226 = AXIS2_PLACEMENT_3D ( 'NONE', #220, #300, #325 ) ;
#227 = CARTESIAN_POINT ( 'NONE',  ( -0.2350000000000011524, 0.0000000000000000000, 3.000000000000000444 ) ) ;
#228 = ORIENTED_EDGE ( 'NONE', *, *, #71, .F. ) ;
#229 = LINE ( 'NONE', #100, #122 ) ;
#230 =( CONVERSION_BASED_UNIT ( 'INCH', #27 ) LENGTH_UNIT ( ) NAMED_UNIT ( #316 ) );
#231 = FACE_OUTER_BOUND ( 'NONE', #263, .T. ) ;
#232 = ORIENTED_EDGE ( 'NONE', *, *, #262, .F. ) ;
#233 = ORIENTED_EDGE ( 'NONE', *, *, #37, .T. ) ;
#234 = CARTESIAN_POINT ( 'NONE',  ( 3.058555380870515566E-17, 0.0000000000000000000, 0.2497499999999999998 ) ) ;
#235 = EDGE_CURVE ( 'NONE', #54, #192, #29, .T. ) ;
#236 = ORIENTED_EDGE ( 'NONE', *, *, #120, .T. ) ;
#237 = FILL_AREA_STYLE_COLOUR ( '', #218 ) ;
#238 = PRESENTATION_LAYER_ASSIGNMENT (  '', '', ( #257 ) ) ;
#239 = AXIS2_PLACEMENT_3D ( 'NONE', #149, #23, #125 ) ;
#240 = EDGE_LOOP ( 'NONE', ( #104, #11, #272 ) ) ;
#241 = DIRECTION ( 'NONE',  ( 1.224646799147353454E-16, 0.0000000000000000000, 1.000000000000000000 ) ) ;
#242 = DIMENSIONAL_EXPONENTS ( 1.000000000000000000, 0.0000000000000000000, 0.0000000000000000000, 0.0000000000000000000, 0.0000000000000000000, 0.0000000000000000000, 0.0000000000000000000 ) ;
#243 = ORIENTED_EDGE ( 'NONE', *, *, #251, .T. ) ;
#244 = DIRECTION ( 'NONE',  ( -1.000000000000000000, 0.0000000000000000000, 1.367291288120251888E-16 ) ) ;
#245 = ORIENTED_EDGE ( 'NONE', *, *, #145, .T. ) ;
#246 = DIRECTION ( 'NONE',  ( 1.000000000000000000, 0.0000000000000000000, 0.0000000000000000000 ) ) ;
#247 = CARTESIAN_POINT ( 'NONE',  ( 1.226383128429217700E-16, 0.0000000000000000000, 1.001417820454904462 ) ) ;
#248 = DIRECTION ( 'NONE',  ( 0.0000000000000000000, 1.000000000000000000, 0.0000000000000000000 ) ) ;
#249 = AXIS2_PLACEMENT_3D ( 'NONE', #135, #147, #294 ) ;
#250 = DIRECTION ( 'NONE',  ( -0.7071067811865402453, 0.0000000000000000000, -0.7071067811865546782 ) ) ;
#251 = EDGE_CURVE ( 'NONE', #192, #54, #33, .T. ) ;
#252 = DIRECTION ( 'NONE',  ( -1.000000000000000000, 0.0000000000000000000, 1.224646799147353700E-16 ) ) ;
#253 = FACE_OUTER_BOUND ( 'NONE', #317, .T. ) ;
#254 = VERTEX_POINT ( 'NONE', #126 ) ;
#255 = CARTESIAN_POINT ( 'NONE',  ( 0.0000000000000000000, 0.0000000000000000000, 3.000000000000000444 ) ) ;
#256 =( NAMED_UNIT ( * ) PLANE_ANGLE_UNIT ( ) SI_UNIT ( $, .RADIAN. ) );
#257 = STYLED_ITEM ( 'NONE', ( #116 ), #48 ) ;
#258 = MECHANICAL_DESIGN_GEOMETRIC_PRESENTATION_REPRESENTATION (  '', ( #191 ), #119 ) ;
#259 = ORIENTED_EDGE ( 'NONE', *, *, #235, .F. ) ;
#260 = DIRECTION ( 'NONE',  ( 0.0000000000000000000, 0.0000000000000000000, -1.000000000000000000 ) ) ;
#261 = ADVANCED_BREP_SHAPE_REPRESENTATION ( 'Micro_BEM-500-03X', ( #48, #303 ), #69 ) ;
#262 = EDGE_CURVE ( 'NONE', #210, #157, #64, .T. ) ;
#263 = EDGE_LOOP ( 'NONE', ( #101, #236, #130, #138 ) ) ;
#264 = LENGTH_MEASURE_WITH_UNIT ( LENGTH_MEASURE( 0.02539999999999999897 ), #163 );
#265 = SURFACE_SIDE_STYLE ('',( #140 ) ) ;
#266 =( CONVERSION_BASED_UNIT ( 'INCH', #264 ) LENGTH_UNIT ( ) NAMED_UNIT ( #143 ) );
#267 = AXIS2_PLACEMENT_3D ( 'NONE', #200, #21, #184 ) ;
#268 = EDGE_CURVE ( 'NONE', #81, #49, #198, .T. ) ;
#269 = DIRECTION ( 'NONE',  ( 1.000000000000000000, 0.0000000000000000000, 0.0000000000000000000 ) ) ;
#270 =( NAMED_UNIT ( * ) PLANE_ANGLE_UNIT ( ) SI_UNIT ( $, .RADIAN. ) );
#271 = CARTESIAN_POINT ( 'NONE',  ( -0.2500000000000000000, 0.0000000000000000000, 3.000000000000000444 ) ) ;
#272 = ORIENTED_EDGE ( 'NONE', *, *, #251, .F. ) ;
#273 = VECTOR ( 'NONE', #321, 39.37007874015748854 ) ;
#274 = DIRECTION ( 'NONE',  ( -1.224646799147353454E-16, -0.0000000000000000000, -1.000000000000000000 ) ) ;
#275 = CARTESIAN_POINT ( 'NONE',  ( 0.2497499999999999998, 3.058555380870514950E-17, -3.058555380870515566E-17 ) ) ;
#276 = FACE_OUTER_BOUND ( 'NONE', #128, .T. ) ;
#277 = FACE_OUTER_BOUND ( 'NONE', #96, .T. ) ;
#278 = CARTESIAN_POINT ( 'NONE',  ( -0.2497499999999999720, 0.0000000000000000000, 0.2497500000000000553 ) ) ;
#279 = CIRCLE ( 'NONE', #72, 0.2350000000000011524 ) ;
#280 = VECTOR ( 'NONE', #88, 39.37007874015748143 ) ;
#281 = ORIENTED_EDGE ( 'NONE', *, *, #120, .F. ) ;
#282 = DIRECTION ( 'NONE',  ( -1.224646799147353454E-16, -0.0000000000000000000, -1.000000000000000000 ) ) ;
#283 = ORIENTED_EDGE ( 'NONE', *, *, #293, .F. ) ;
#284 = AXIS2_PLACEMENT_3D ( 'NONE', #207, #45, #183 ) ;
#285 = CARTESIAN_POINT ( 'NONE',  ( 1.224646799147353454E-16, 0.0000000000000000000, 1.000000000000000000 ) ) ;
#286 = EDGE_CURVE ( 'NONE', #190, #54, #310, .T. ) ;
#287 = ORIENTED_EDGE ( 'NONE', *, *, #268, .F. ) ;
#288 = FILL_AREA_STYLE ('',( #237 ) ) ;
#289 = DIRECTION ( 'NONE',  ( 0.0000000000000000000, 0.0000000000000000000, -1.000000000000000000 ) ) ;
#290 = DIRECTION ( 'NONE',  ( 1.000000000000000000, 0.0000000000000000000, 0.0000000000000000000 ) ) ;
#291 = FACE_OUTER_BOUND ( 'NONE', #83, .T. ) ;
#292 = ADVANCED_FACE ( 'NONE', ( #276 ), #150, .T. ) ;
#293 = EDGE_CURVE ( 'NONE', #157, #210, #141, .T. ) ;
#294 = DIRECTION ( 'NONE',  ( -1.000000000000000000, 0.0000000000000000000, 0.0000000000000000000 ) ) ;
#295 = CARTESIAN_POINT ( 'NONE',  ( 0.0000000000000000000, 0.0000000000000000000, 3.000000000000000444 ) ) ;
#296 = FACE_OUTER_BOUND ( 'NONE', #314, .T. ) ;
#297 = DIRECTION ( 'NONE',  ( 1.000000000000000000, 0.0000000000000000000, 0.0000000000000000000 ) ) ;
#298 = LINE ( 'NONE', #324, #106 ) ;
#299 = EDGE_CURVE ( 'NONE', #81, #153, #298, .T. ) ;
#300 = DIRECTION ( 'NONE',  ( 0.0000000000000000000, 0.0000000000000000000, -1.000000000000000000 ) ) ;
#301 = CIRCLE ( 'NONE', #44, 0.2497499999999999998 ) ;
#302 = CARTESIAN_POINT ( 'NONE',  ( 3.058555380870515566E-17, 0.0000000000000000000, 0.2497499999999999998 ) ) ;
#303 = AXIS2_PLACEMENT_3D ( 'NONE', #36, #10, #132 ) ;
#304 = AXIS2_PLACEMENT_3D ( 'NONE', #137, #196, #244 ) ;
#305 = CARTESIAN_POINT ( 'NONE',  ( 0.0000000000000000000, 0.0000000000000000000, 3.000000000000000444 ) ) ;
#306 = CARTESIAN_POINT ( 'NONE',  ( 0.0000000000000000000, 0.0000000000000000000, 2.985000000000001208 ) ) ;
#307 = PRODUCT_DEFINITION ( 'UNKNOWN', '', #175, #213 ) ;
#308 = DIRECTION ( 'NONE',  ( -1.224646799147353454E-16, -0.0000000000000000000, -1.000000000000000000 ) ) ;
#309 = ORIENTED_EDGE ( 'NONE', *, *, #71, .T. ) ;
#310 = CIRCLE ( 'NONE', #9, 0.2497499999999999998 ) ;
#311 = SURFACE_SIDE_STYLE ('',( #61 ) ) ;
#312 =( CONVERSION_BASED_UNIT ( 'INCH', #32 ) LENGTH_UNIT ( ) NAMED_UNIT ( #242 ) );
#313 = PRODUCT_CONTEXT ( 'NONE', #177, 'mechanical' ) ;
#314 = EDGE_LOOP ( 'NONE', ( #233, #214, #84, #77 ) ) ;
#315 = ORIENTED_EDGE ( 'NONE', *, *, #299, .F. ) ;
#316 = DIMENSIONAL_EXPONENTS ( 1.000000000000000000, 0.0000000000000000000, 0.0000000000000000000, 0.0000000000000000000, 0.0000000000000000000, 0.0000000000000000000, 0.0000000000000000000 ) ;
#317 = EDGE_LOOP ( 'NONE', ( #109, #309, #168, #136 ) ) ;
#318 = EDGE_LOOP ( 'NONE', ( #161, #219, #259 ) ) ;
#319 = DIRECTION ( 'NONE',  ( -1.000000000000000000, 0.0000000000000000000, 0.0000000000000000000 ) ) ;
#320 = AXIS2_PLACEMENT_3D ( 'NONE', #24, #6, #105 ) ;
#321 = DIRECTION ( 'NONE',  ( 0.7071067811865402453, 8.659560562354845344E-17, -0.7071067811865546782 ) ) ;
#322 = CARTESIAN_POINT ( 'NONE',  ( -0.2497499999999998888, 3.058555380870514950E-17, 1.000000000000000000 ) ) ;
#323 = COLOUR_RGB ( '',0.7921568627450980005, 0.8196078431372548767, 0.9333333333333333481 ) ;
#324 = CARTESIAN_POINT ( 'NONE',  ( 0.2500000000000000000, 3.061616997868382402E-17, 3.000000000000000444 ) ) ;
#325 = DIRECTION ( 'NONE',  ( -1.000000000000000000, 0.0000000000000000000, 0.0000000000000000000 ) ) ;
ENDSEC;
END-ISO-10303-21;
