ISO-10303-21;
HEADER;
FILE_DESCRIPTION (( 'STEP AP214' ),
    '1' );
FILE_NAME ('56617.STEP',
    '2023-06-30T22:11:28',
    ( '' ),
    ( '' ),
    'SwSTEP 2.0',
    'SolidWorks 2023',
    '' );
FILE_SCHEMA (( 'AUTOMOTIVE_DESIGN' ));
ENDSEC;

DATA;
#1 = SURFACE_STYLE_USAGE ( .BOTH. , #110 ) ;
#2 =( NAMED_UNIT ( * ) SI_UNIT ( $, .STERADIAN. ) SOLID_ANGLE_UNIT ( ) );
#3 = SURFACE_STYLE_USAGE ( .BOTH. , #235 ) ;
#4 = ORIENTED_EDGE ( 'NONE', *, *, #164, .F. ) ;
#5 = UNCERTAINTY_MEASURE_WITH_UNIT (LENGTH_MEASURE( 1.000000000000000082E-05 ), #251, 'distance_accuracy_value', 'NONE');
#6 = LENGTH_MEASURE_WITH_UNIT ( LENGTH_MEASURE( 0.02539999999999999897 ), #84 );
#7 = COLOUR_RGB ( '',1.000000000000000000, 0.000000000000000000, 0.000000000000000000 ) ;
#8 = DIRECTION ( 'NONE',  ( -0.000000000000000000, -1.000000000000000000, -0.000000000000000000 ) ) ;
#9 = CIRCLE ( 'NONE', #219, 0.3124999999999995559 ) ;
#10 = EDGE_CURVE ( 'NONE', #131, #341, #72, .T. ) ;
#11 = CARTESIAN_POINT ( 'NONE',  ( 0.000000000000000000, 0.000000000000000000, 0.000000000000000000 ) ) ;
#12 = CARTESIAN_POINT ( 'NONE',  ( -0.3125000000000001665, 6.000000000000000888, 0.000000000000000000 ) ) ;
#13 = VERTEX_POINT ( 'NONE', #170 ) ;
#14 = FILL_AREA_STYLE_COLOUR ( '', #282 ) ;
#15 = FILL_AREA_STYLE ('',( #179 ) ) ;
#16 = ADVANCED_FACE ( 'NONE', ( #40 ), #317, .F. ) ;
#17 = DIRECTION ( 'NONE',  ( -1.000000000000000000, 0.000000000000000000, 0.000000000000000000 ) ) ;
#18 = SURFACE_STYLE_FILL_AREA ( #67 ) ;
#19 = STYLED_ITEM ( 'NONE', ( #42 ), #173 ) ;
#20 = DIRECTION ( 'NONE',  ( 0.000000000000000000, 0.000000000000000000, -1.000000000000000000 ) ) ;
#21 = DIRECTION ( 'NONE',  ( 0.000000000000000000, 0.000000000000000000, 1.000000000000000000 ) ) ;
#22 = DIRECTION ( 'NONE',  ( -1.000000000000000000, 0.000000000000000000, 0.000000000000000000 ) ) ;
#23 = AXIS2_PLACEMENT_3D ( 'NONE', #158, #103, #339 ) ;
#24 = EDGE_CURVE ( 'NONE', #341, #142, #239, .T. ) ;
#25 = AXIS2_PLACEMENT_3D ( 'NONE', #308, #169, #238 ) ;
#26 =( CONVERSION_BASED_UNIT ( 'INCH', #94 ) LENGTH_UNIT ( ) NAMED_UNIT ( #223 ) );
#27 = DIMENSIONAL_EXPONENTS ( 1.000000000000000000, 0.000000000000000000, 0.000000000000000000, 0.000000000000000000, 0.000000000000000000, 0.000000000000000000, 0.000000000000000000 ) ;
#28 = AXIS2_PLACEMENT_3D ( 'NONE', #11, #8, #82 ) ;
#29 = ORIENTED_EDGE ( 'NONE', *, *, #81, .T. ) ;
#30 = ORIENTED_EDGE ( 'NONE', *, *, #74, .F. ) ;
#31 = CLOSED_SHELL ( 'NONE', ( #367, #228, #172, #188, #116 ) ) ;
#32 = FILL_AREA_STYLE_COLOUR ( '', #7 ) ;
#33 = DIRECTION ( 'NONE',  ( -1.224646799147353207E-16, 1.000000000000000000, -0.000000000000000000 ) ) ;
#34 = PLANE ( 'NONE',  #125 ) ;
#35 = VERTEX_POINT ( 'NONE', #85 ) ;
#36 = DIRECTION ( 'NONE',  ( -1.224646799147353207E-16, 1.000000000000000000, -0.000000000000000000 ) ) ;
#37 = AXIS2_PLACEMENT_3D ( 'NONE', #128, #254, #196 ) ;
#38 =( CONVERSION_BASED_UNIT ( 'INCH', #290 ) LENGTH_UNIT ( ) NAMED_UNIT ( #362 ) );
#39 = AXIS2_PLACEMENT_3D ( 'NONE', #329, #354, #302 ) ;
#40 = FACE_OUTER_BOUND ( 'NONE', #236, .T. ) ;
#41 =( NAMED_UNIT ( * ) PLANE_ANGLE_UNIT ( ) SI_UNIT ( $, .RADIAN. ) );
#42 = PRESENTATION_STYLE_ASSIGNMENT (( #71 ) ) ;
#43 = ORIENTED_EDGE ( 'NONE', *, *, #81, .F. ) ;
#44 = SURFACE_STYLE_FILL_AREA ( #207 ) ;
#45 = CARTESIAN_POINT ( 'NONE',  ( 0.3124999999999996114, 3.250000000000000000, 3.827021247335476461E-17 ) ) ;
#46 = COLOUR_RGB ( '',1.000000000000000000, 0.000000000000000000, 0.000000000000000000 ) ;
#47 = DIRECTION ( 'NONE',  ( -1.224646799147353207E-16, 1.000000000000000000, -0.000000000000000000 ) ) ;
#48 = SURFACE_SIDE_STYLE ('',( #152 ) ) ;
#49 =( NAMED_UNIT ( * ) SI_UNIT ( $, .STERADIAN. ) SOLID_ANGLE_UNIT ( ) );
#50 = ADVANCED_FACE ( 'NONE', ( #205 ), #321, .T. ) ;
#51 = FILL_AREA_STYLE ('',( #73 ) ) ;
#52 = CARTESIAN_POINT ( 'NONE',  ( 0.3124999999999996114, 6.000000000000000888, 3.827021247335476461E-17 ) ) ;
#53 = CARTESIAN_POINT ( 'NONE',  ( 0.000000000000000000, 3.250000000000000000, 0.000000000000000000 ) ) ;
#54 = LENGTH_MEASURE_WITH_UNIT ( LENGTH_MEASURE( 0.02539999999999999897 ), #151 );
#55 = ORIENTED_EDGE ( 'NONE', *, *, #311, .F. ) ;
#56 =( GEOMETRIC_REPRESENTATION_CONTEXT ( 3 ) GLOBAL_UNCERTAINTY_ASSIGNED_CONTEXT ( ( #92 ) ) GLOBAL_UNIT_ASSIGNED_CONTEXT ( ( #38, #234, #2 ) ) REPRESENTATION_CONTEXT ( 'NONE', 'WORKASPACE' ) );
#57 = ORIENTED_EDGE ( 'NONE', *, *, #182, .F. ) ;
#58 = EDGE_LOOP ( 'NONE', ( #135, #252, #325, #180 ) ) ;
#59 = EDGE_CURVE ( 'NONE', #13, #65, #144, .T. ) ;
#60 = SURFACE_STYLE_FILL_AREA ( #171 ) ;
#61 = FACE_OUTER_BOUND ( 'NONE', #104, .T. ) ;
#62 = ORIENTED_EDGE ( 'NONE', *, *, #247, .F. ) ;
#63 = STYLED_ITEM ( 'NONE', ( #213 ), #116 ) ;
#64 = DIRECTION ( 'NONE',  ( 1.000000000000000000, 1.224646799147353207E-16, 0.000000000000000000 ) ) ;
#65 = VERTEX_POINT ( 'NONE', #246 ) ;
#66 =( GEOMETRIC_REPRESENTATION_CONTEXT ( 3 ) GLOBAL_UNCERTAINTY_ASSIGNED_CONTEXT ( ( #226 ) ) GLOBAL_UNIT_ASSIGNED_CONTEXT ( ( #324, #41, #69 ) ) REPRESENTATION_CONTEXT ( 'NONE', 'WORKASPACE' ) );
#67 = FILL_AREA_STYLE ('',( #331 ) ) ;
#68 =( CONVERSION_BASED_UNIT ( 'INCH', #123 ) LENGTH_UNIT ( ) NAMED_UNIT ( #153 ) );
#69 =( NAMED_UNIT ( * ) SI_UNIT ( $, .STERADIAN. ) SOLID_ANGLE_UNIT ( ) );
#70 =( CONVERSION_BASED_UNIT ( 'INCH', #121 ) LENGTH_UNIT ( ) NAMED_UNIT ( #97 ) );
#71 = SURFACE_STYLE_USAGE ( .BOTH. , #118 ) ;
#72 = CIRCLE ( 'NONE', #218, 0.3124999999999995559 ) ;
#73 = FILL_AREA_STYLE_COLOUR ( '', #248 ) ;
#74 = EDGE_CURVE ( 'NONE', #307, #13, #225, .T. ) ;
#75 = CARTESIAN_POINT ( 'NONE',  ( 0.000000000000000000, 0.000000000000000000, -0.3124999999999998335 ) ) ;
#76 =( NAMED_UNIT ( * ) PLANE_ANGLE_UNIT ( ) SI_UNIT ( $, .RADIAN. ) );
#77 = ORIENTED_EDGE ( 'NONE', *, *, #200, .F. ) ;
#78 = VERTEX_POINT ( 'NONE', #358 ) ;
#79 = CYLINDRICAL_SURFACE ( 'NONE', #369, 0.3124999999999997224 ) ;
#80 = CIRCLE ( 'NONE', #177, 0.3124999999999998890 ) ;
#81 = EDGE_CURVE ( 'NONE', #78, #307, #250, .T. ) ;
#82 = DIRECTION ( 'NONE',  ( 0.000000000000000000, 0.000000000000000000, -1.000000000000000000 ) ) ;
#83 = ORIENTED_EDGE ( 'NONE', *, *, #10, .T. ) ;
#84 =( LENGTH_UNIT ( ) NAMED_UNIT ( * ) SI_UNIT ( $, .METRE. ) );
#85 = CARTESIAN_POINT ( 'NONE',  ( -1.913510623667739463E-17, 0.000000000000000000, 0.000000000000000000 ) ) ;
#86 = APPLICATION_CONTEXT ( 'automotive_design' ) ;
#87 = SURFACE_STYLE_USAGE ( .BOTH. , #48 ) ;
#88 = CARTESIAN_POINT ( 'NONE',  ( -2.449293598294707400E-16, 6.000000000000000888, 0.000000000000000000 ) ) ;
#89 = PRESENTATION_STYLE_ASSIGNMENT (( #87 ) ) ;
#90 = PRODUCT_DEFINITION_SHAPE ( 'NONE', 'NONE',  #221 ) ;
#91 = AXIS2_PLACEMENT_3D ( 'NONE', #261, #359, #273 ) ;
#92 = UNCERTAINTY_MEASURE_WITH_UNIT (LENGTH_MEASURE( 1.000000000000000082E-05 ), #38, 'distance_accuracy_value', 'NONE');
#93 = VECTOR ( 'NONE', #47, 39.37007874015748143 ) ;
#94 = LENGTH_MEASURE_WITH_UNIT ( LENGTH_MEASURE( 0.02539999999999999897 ), #277 );
#95 = SURFACE_STYLE_USAGE ( .BOTH. , #327 ) ;
#96 = EDGE_CURVE ( 'NONE', #65, #284, #310, .T. ) ;
#97 = DIMENSIONAL_EXPONENTS ( 1.000000000000000000, 0.000000000000000000, 0.000000000000000000, 0.000000000000000000, 0.000000000000000000, 0.000000000000000000, 0.000000000000000000 ) ;
#98 = APPLICATION_PROTOCOL_DEFINITION ( 'draft international standard', 'automotive_design', 1998, #220 ) ;
#99 =( NAMED_UNIT ( * ) PLANE_ANGLE_UNIT ( ) SI_UNIT ( $, .RADIAN. ) );
#100 = STYLED_ITEM ( 'NONE', ( #204 ), #172 ) ;
#101 = ORIENTED_EDGE ( 'NONE', *, *, #344, .F. ) ;
#102 = UNCERTAINTY_MEASURE_WITH_UNIT (LENGTH_MEASURE( 1.000000000000000082E-05 ), #70, 'distance_accuracy_value', 'NONE');
#103 = DIRECTION ( 'NONE',  ( 0.000000000000000000, 0.000000000000000000, 1.000000000000000000 ) ) ;
#104 = EDGE_LOOP ( 'NONE', ( #77, #338 ) ) ;
#105 = EDGE_CURVE ( 'NONE', #284, #35, #139, .T. ) ;
#106 = DIRECTION ( 'NONE',  ( -0.000000000000000000, -1.000000000000000000, -0.000000000000000000 ) ) ;
#107 = CARTESIAN_POINT ( 'NONE',  ( 0.000000000000000000, 0.3125000000000000555, 0.000000000000000000 ) ) ;
#108 = FILL_AREA_STYLE ('',( #346 ) ) ;
#109 = ORIENTED_EDGE ( 'NONE', *, *, #200, .T. ) ;
#110 = SURFACE_SIDE_STYLE ('',( #60 ) ) ;
#111 = COLOUR_RGB ( '',1.000000000000000000, 0.000000000000000000, 0.000000000000000000 ) ;
#112 = ORIENTED_EDGE ( 'NONE', *, *, #134, .T. ) ;
#113 = STYLED_ITEM ( 'NONE', ( #89 ), #297 ) ;
#114 =( LENGTH_UNIT ( ) NAMED_UNIT ( * ) SI_UNIT ( $, .METRE. ) );
#115 = CARTESIAN_POINT ( 'NONE',  ( 0.3124999999999996114, 6.000000000000000888, 0.000000000000000000 ) ) ;
#116 = ADVANCED_FACE ( 'NONE', ( #296 ), #283, .T. ) ;
#117 = FILL_AREA_STYLE ('',( #14 ) ) ;
#118 = SURFACE_SIDE_STYLE ('',( #18 ) ) ;
#119 = SURFACE_SIDE_STYLE ('',( #44 ) ) ;
#120 = PRESENTATION_LAYER_ASSIGNMENT (  '', '', ( #100 ) ) ;
#121 = LENGTH_MEASURE_WITH_UNIT ( LENGTH_MEASURE( 0.02539999999999999897 ), #295 );
#122 = DIRECTION ( 'NONE',  ( 0.000000000000000000, 0.000000000000000000, -1.000000000000000000 ) ) ;
#123 = LENGTH_MEASURE_WITH_UNIT ( LENGTH_MEASURE( 0.02539999999999999897 ), #269 );
#124 = SURFACE_STYLE_FILL_AREA ( #15 ) ;
#125 = AXIS2_PLACEMENT_3D ( 'NONE', #208, #215, #212 ) ;
#126 = DIRECTION ( 'NONE',  ( -1.000000000000000000, 0.000000000000000000, 0.000000000000000000 ) ) ;
#127 = ORIENTED_EDGE ( 'NONE', *, *, #24, .F. ) ;
#128 = CARTESIAN_POINT ( 'NONE',  ( -3.827021247335478926E-17, 0.3125000000000000000, 0.000000000000000000 ) ) ;
#129 = VECTOR ( 'NONE', #348, 39.37007874015748143 ) ;
#130 = PRESENTATION_LAYER_ASSIGNMENT (  '', '', ( #145 ) ) ;
#131 = VERTEX_POINT ( 'NONE', #45 ) ;
#132 = APPLICATION_PROTOCOL_DEFINITION ( 'draft international standard', 'automotive_design', 1998, #86 ) ;
#133 = DIRECTION ( 'NONE',  ( 0.000000000000000000, 0.000000000000000000, -1.000000000000000000 ) ) ;
#134 = EDGE_CURVE ( 'NONE', #262, #78, #198, .T. ) ;
#135 = ORIENTED_EDGE ( 'NONE', *, *, #96, .T. ) ;
#136 = DIRECTION ( 'NONE',  ( -0.000000000000000000, -1.000000000000000000, -0.000000000000000000 ) ) ;
#137 = MECHANICAL_DESIGN_GEOMETRIC_PRESENTATION_REPRESENTATION (  '', ( #305 ), #66 ) ;
#138 = ORIENTED_EDGE ( 'NONE', *, *, #10, .F. ) ;
#139 = CIRCLE ( 'NONE', #39, 0.3125000000000000000 ) ;
#140 = PLANE ( 'NONE',  #91 ) ;
#141 = ORIENTED_EDGE ( 'NONE', *, *, #209, .T. ) ;
#142 = VERTEX_POINT ( 'NONE', #12 ) ;
#143 = MECHANICAL_DESIGN_GEOMETRIC_PRESENTATION_REPRESENTATION (  '', ( #328 ), #312 ) ;
#144 = CIRCLE ( 'NONE', #265, 0.3125000000000000000 ) ;
#145 = STYLED_ITEM ( 'NONE', ( #322 ), #228 ) ;
#146 = CARTESIAN_POINT ( 'NONE',  ( 0.3124999999999994449, 6.000000000000000888, 3.827021247335475845E-17 ) ) ;
#147 =( NAMED_UNIT ( * ) SI_UNIT ( $, .STERADIAN. ) SOLID_ANGLE_UNIT ( ) );
#148 = AXIS2_PLACEMENT_3D ( 'NONE', #368, #335, #371 ) ;
#149 =( NAMED_UNIT ( * ) PLANE_ANGLE_UNIT ( ) SI_UNIT ( $, .RADIAN. ) );
#150 = AXIS2_PLACEMENT_3D ( 'NONE', #53, #106, #133 ) ;
#151 =( LENGTH_UNIT ( ) NAMED_UNIT ( * ) SI_UNIT ( $, .METRE. ) );
#152 = SURFACE_STYLE_FILL_AREA ( #117 ) ;
#153 = DIMENSIONAL_EXPONENTS ( 1.000000000000000000, 0.000000000000000000, 0.000000000000000000, 0.000000000000000000, 0.000000000000000000, 0.000000000000000000, 0.000000000000000000 ) ;
#154 = SURFACE_STYLE_USAGE ( .BOTH. , #119 ) ;
#155 = LINE ( 'NONE', #274, #216 ) ;
#156 = DIRECTION ( 'NONE',  ( -0.000000000000000000, -1.000000000000000000, -0.000000000000000000 ) ) ;
#157 = FACE_OUTER_BOUND ( 'NONE', #286, .T. ) ;
#158 = CARTESIAN_POINT ( 'NONE',  ( -3.827021247335478926E-17, 0.3125000000000000000, 0.000000000000000000 ) ) ;
#159 = PRESENTATION_LAYER_ASSIGNMENT (  '', '', ( #328 ) ) ;
#160 = VECTOR ( 'NONE', #241, 39.37007874015748143 ) ;
#161 =( GEOMETRIC_REPRESENTATION_CONTEXT ( 3 ) GLOBAL_UNCERTAINTY_ASSIGNED_CONTEXT ( ( #330 ) ) GLOBAL_UNIT_ASSIGNED_CONTEXT ( ( #355, #149, #147 ) ) REPRESENTATION_CONTEXT ( 'NONE', 'WORKASPACE' ) );
#162 = EDGE_LOOP ( 'NONE', ( #57, #112, #29, #62, #313 ) ) ;
#163 = ADVANCED_BREP_SHAPE_REPRESENTATION ( '56617', ( #173, #297, #148 ), #318 ) ;
#164 = EDGE_CURVE ( 'NONE', #142, #194, #80, .T. ) ;
#165 = SURFACE_STYLE_FILL_AREA ( #108 ) ;
#166 = CLOSED_SHELL ( 'NONE', ( #206, #268, #50, #16 ) ) ;
#167 = MECHANICAL_DESIGN_GEOMETRIC_PRESENTATION_REPRESENTATION (  '', ( #19 ), #279 ) ;
#168 = CARTESIAN_POINT ( 'NONE',  ( -0.3125000000000000000, 6.000000000000000888, 0.000000000000000000 ) ) ;
#169 = DIRECTION ( 'NONE',  ( -0.000000000000000000, -1.000000000000000000, -0.000000000000000000 ) ) ;
#170 = CARTESIAN_POINT ( 'NONE',  ( 0.3125000000000000000, 0.3125000000000000555, 0.000000000000000000 ) ) ;
#171 = FILL_AREA_STYLE ('',( #32 ) ) ;
#172 = ADVANCED_FACE ( 'NONE', ( #61 ), #34, .T. ) ;
#173 = MANIFOLD_SOLID_BREP ( 'Revolve - Cutting Edge', #31 ) ;
#174 = AXIS2_PLACEMENT_3D ( 'NONE', #244, #21, #363 ) ;
#175 = CARTESIAN_POINT ( 'NONE',  ( 9.184850993605139809E-17, 3.250000000000000000, 0.000000000000000000 ) ) ;
#176 = MECHANICAL_DESIGN_GEOMETRIC_PRESENTATION_REPRESENTATION (  '', ( #63 ), #342 ) ;
#177 = AXIS2_PLACEMENT_3D ( 'NONE', #287, #33, #316 ) ;
#178 = DIRECTION ( 'NONE',  ( -1.224646799147353207E-16, 1.000000000000000000, -0.000000000000000000 ) ) ;
#179 = FILL_AREA_STYLE_COLOUR ( '', #111 ) ;
#180 = ORIENTED_EDGE ( 'NONE', *, *, #59, .T. ) ;
#181 = CARTESIAN_POINT ( 'NONE',  ( -0.3124999999999994449, 3.250000000000000000, 0.000000000000000000 ) ) ;
#182 = EDGE_CURVE ( 'NONE', #262, #65, #155, .T. ) ;
#183 = DIRECTION ( 'NONE',  ( -0.000000000000000000, -1.000000000000000000, -0.000000000000000000 ) ) ;
#184 = SURFACE_SIDE_STYLE ('',( #366 ) ) ;
#185 = DIMENSIONAL_EXPONENTS ( 1.000000000000000000, 0.000000000000000000, 0.000000000000000000, 0.000000000000000000, 0.000000000000000000, 0.000000000000000000, 0.000000000000000000 ) ;
#186 = CARTESIAN_POINT ( 'NONE',  ( 0.000000000000000000, 0.3125000000000000555, 0.000000000000000000 ) ) ;
#187 = CARTESIAN_POINT ( 'NONE',  ( -2.449293598294707400E-16, 6.000000000000000888, 0.000000000000000000 ) ) ;
#188 = ADVANCED_FACE ( 'NONE', ( #365 ), #360, .T. ) ;
#189 = PRESENTATION_LAYER_ASSIGNMENT (  '', '', ( #305 ) ) ;
#190 = UNCERTAINTY_MEASURE_WITH_UNIT (LENGTH_MEASURE( 1.000000000000000082E-05 ), #26, 'distance_accuracy_value', 'NONE');
#191 = DIMENSIONAL_EXPONENTS ( 1.000000000000000000, 0.000000000000000000, 0.000000000000000000, 0.000000000000000000, 0.000000000000000000, 0.000000000000000000, 0.000000000000000000 ) ;
#192 = PRODUCT ( '56617', '56617', '', ( #280 ) ) ;
#193 =( NAMED_UNIT ( * ) SI_UNIT ( $, .STERADIAN. ) SOLID_ANGLE_UNIT ( ) );
#194 = VERTEX_POINT ( 'NONE', #52 ) ;
#195 = ORIENTED_EDGE ( 'NONE', *, *, #350, .T. ) ;
#196 = DIRECTION ( 'NONE',  ( -1.000000000000000000, 0.000000000000000000, 0.000000000000000000 ) ) ;
#197 = AXIS2_PLACEMENT_3D ( 'NONE', #186, #304, #122 ) ;
#198 = CIRCLE ( 'NONE', #25, 0.3124999999999996114 ) ;
#199 = FACE_OUTER_BOUND ( 'NONE', #224, .T. ) ;
#200 = EDGE_CURVE ( 'NONE', #78, #262, #242, .T. ) ;
#201 = CARTESIAN_POINT ( 'NONE',  ( 3.827021247335475229E-17, 3.250000000000000000, 0.3124999999999996114 ) ) ;
#202 = DIRECTION ( 'NONE',  ( 1.224646799147353207E-16, -1.000000000000000000, 0.000000000000000000 ) ) ;
#203 = CIRCLE ( 'NONE', #264, 0.3125000000000000000 ) ;
#204 = PRESENTATION_STYLE_ASSIGNMENT (( #3 ) ) ;
#205 = FACE_OUTER_BOUND ( 'NONE', #340, .T. ) ;
#206 = ADVANCED_FACE ( 'NONE', ( #157 ), #79, .T. ) ;
#207 = FILL_AREA_STYLE ('',( #240 ) ) ;
#208 = CARTESIAN_POINT ( 'NONE',  ( 0.000000000000000000, 3.250000000000000000, 0.000000000000000000 ) ) ;
#209 = EDGE_CURVE ( 'NONE', #13, #35, #249, .T. ) ;
#210 = DIRECTION ( 'NONE',  ( -0.000000000000000000, -1.000000000000000000, -0.000000000000000000 ) ) ;
#211 =( LENGTH_UNIT ( ) NAMED_UNIT ( * ) SI_UNIT ( $, .METRE. ) );
#212 = DIRECTION ( 'NONE',  ( 0.000000000000000000, -0.000000000000000000, 1.000000000000000000 ) ) ;
#213 = PRESENTATION_STYLE_ASSIGNMENT (( #356 ) ) ;
#214 = CARTESIAN_POINT ( 'NONE',  ( 9.184850993605139809E-17, 3.250000000000000000, 0.000000000000000000 ) ) ;
#215 = DIRECTION ( 'NONE',  ( 0.000000000000000000, 1.000000000000000000, 0.000000000000000000 ) ) ;
#216 = VECTOR ( 'NONE', #183, 39.37007874015748143 ) ;
#217 = DIMENSIONAL_EXPONENTS ( 1.000000000000000000, 0.000000000000000000, 0.000000000000000000, 0.000000000000000000, 0.000000000000000000, 0.000000000000000000, 0.000000000000000000 ) ;
#218 = AXIS2_PLACEMENT_3D ( 'NONE', #175, #294, #233 ) ;
#219 = AXIS2_PLACEMENT_3D ( 'NONE', #214, #178, #237 ) ;
#220 = APPLICATION_CONTEXT ( 'automotive_design' ) ;
#221 = PRODUCT_DEFINITION ( 'UNKNOWN', '', #253, #364 ) ;
#222 = PRESENTATION_STYLE_ASSIGNMENT (( #95 ) ) ;
#223 = DIMENSIONAL_EXPONENTS ( 1.000000000000000000, 0.000000000000000000, 0.000000000000000000, 0.000000000000000000, 0.000000000000000000, 0.000000000000000000, 0.000000000000000000 ) ;
#224 = EDGE_LOOP ( 'NONE', ( #109, #372, #257, #30, #43 ) ) ;
#225 = CIRCLE ( 'NONE', #281, 0.3125000000000000000 ) ;
#226 = UNCERTAINTY_MEASURE_WITH_UNIT (LENGTH_MEASURE( 1.000000000000000082E-05 ), #324, 'distance_accuracy_value', 'NONE');
#227 = ORIENTED_EDGE ( 'NONE', *, *, #74, .T. ) ;
#228 = ADVANCED_FACE ( 'NONE', ( #199 ), #320, .T. ) ;
#229 = DIRECTION ( 'NONE',  ( 0.000000000000000000, 0.000000000000000000, -1.000000000000000000 ) ) ;
#230 = ORIENTED_EDGE ( 'NONE', *, *, #164, .T. ) ;
#231 =( CONVERSION_BASED_UNIT ( 'INCH', #6 ) LENGTH_UNIT ( ) NAMED_UNIT ( #191 ) );
#232 = AXIS2_PLACEMENT_3D ( 'NONE', #291, #36, #22 ) ;
#233 = DIRECTION ( 'NONE',  ( -1.000000000000000000, 0.000000000000000000, 0.000000000000000000 ) ) ;
#234 =( NAMED_UNIT ( * ) PLANE_ANGLE_UNIT ( ) SI_UNIT ( $, .RADIAN. ) );
#235 = SURFACE_SIDE_STYLE ('',( #165 ) ) ;
#236 = EDGE_LOOP ( 'NONE', ( #230, #349 ) ) ;
#237 = DIRECTION ( 'NONE',  ( -1.000000000000000000, 0.000000000000000000, 0.000000000000000000 ) ) ;
#238 = DIRECTION ( 'NONE',  ( 0.000000000000000000, 0.000000000000000000, -1.000000000000000000 ) ) ;
#239 = LINE ( 'NONE', #168, #129 ) ;
#240 = FILL_AREA_STYLE_COLOUR ( '', #293 ) ;
#241 = DIRECTION ( 'NONE',  ( -0.000000000000000000, -1.000000000000000000, -0.000000000000000000 ) ) ;
#242 = CIRCLE ( 'NONE', #150, 0.3124999999999996114 ) ;
#243 = CARTESIAN_POINT ( 'NONE',  ( 0.000000000000000000, 0.3125000000000000555, -0.3125000000000000000 ) ) ;
#244 = CARTESIAN_POINT ( 'NONE',  ( -3.827021247335478926E-17, 0.3125000000000000000, 0.000000000000000000 ) ) ;
#245 = UNCERTAINTY_MEASURE_WITH_UNIT (LENGTH_MEASURE( 1.000000000000000082E-05 ), #68, 'distance_accuracy_value', 'NONE');
#246 = CARTESIAN_POINT ( 'NONE',  ( 3.827021247335478926E-17, 0.3125000000000000555, 0.3125000000000000000 ) ) ;
#247 = EDGE_CURVE ( 'NONE', #284, #307, #203, .T. ) ;
#248 = COLOUR_RGB ( '',1.000000000000000000, 0.000000000000000000, 0.000000000000000000 ) ;
#249 = CIRCLE ( 'NONE', #37, 0.3125000000000000000 ) ;
#250 = LINE ( 'NONE', #75, #160 ) ;
#251 =( CONVERSION_BASED_UNIT ( 'INCH', #54 ) LENGTH_UNIT ( ) NAMED_UNIT ( #27 ) );
#252 = ORIENTED_EDGE ( 'NONE', *, *, #105, .T. ) ;
#253 = PRODUCT_DEFINITION_FORMATION_WITH_SPECIFIED_SOURCE ( 'ANY', '', #192, .NOT_KNOWN. ) ;
#254 = DIRECTION ( 'NONE',  ( 0.000000000000000000, 0.000000000000000000, -1.000000000000000000 ) ) ;
#255 = MECHANICAL_DESIGN_GEOMETRIC_PRESENTATION_REPRESENTATION (  '', ( #100 ), #299 ) ;
#256 = SHAPE_DEFINITION_REPRESENTATION ( #90, #163 ) ;
#257 = ORIENTED_EDGE ( 'NONE', *, *, #59, .F. ) ;
#258 = DIRECTION ( 'NONE',  ( 0.000000000000000000, 0.000000000000000000, -1.000000000000000000 ) ) ;
#259 = AXIS2_PLACEMENT_3D ( 'NONE', #115, #202, #64 ) ;
#260 = ORIENTED_EDGE ( 'NONE', *, *, #105, .F. ) ;
#261 = CARTESIAN_POINT ( 'NONE',  ( 9.184850993605147205E-17, 3.250000000000000000, 0.000000000000000000 ) ) ;
#262 = VERTEX_POINT ( 'NONE', #201 ) ;
#263 =( LENGTH_UNIT ( ) NAMED_UNIT ( * ) SI_UNIT ( $, .METRE. ) );
#264 = AXIS2_PLACEMENT_3D ( 'NONE', #107, #314, #229 ) ;
#265 = AXIS2_PLACEMENT_3D ( 'NONE', #275, #210, #20 ) ;
#266 = ORIENTED_EDGE ( 'NONE', *, *, #350, .F. ) ;
#267 = AXIS2_PLACEMENT_3D ( 'NONE', #88, #300, #17 ) ;
#268 = ADVANCED_FACE ( 'NONE', ( #315 ), #140, .F. ) ;
#269 =( LENGTH_UNIT ( ) NAMED_UNIT ( * ) SI_UNIT ( $, .METRE. ) );
#270 = LINE ( 'NONE', #146, #93 ) ;
#271 = PRESENTATION_STYLE_ASSIGNMENT (( #154 ) ) ;
#272 = LENGTH_MEASURE_WITH_UNIT ( LENGTH_MEASURE( 0.02539999999999999897 ), #211 );
#273 = DIRECTION ( 'NONE',  ( -1.000000000000000000, -1.224646799147353207E-16, 0.000000000000000000 ) ) ;
#274 = CARTESIAN_POINT ( 'NONE',  ( 3.827021247335476461E-17, 0.000000000000000000, 0.3124999999999998335 ) ) ;
#275 = CARTESIAN_POINT ( 'NONE',  ( 0.000000000000000000, 0.3125000000000000555, 0.000000000000000000 ) ) ;
#276 =( NAMED_UNIT ( * ) PLANE_ANGLE_UNIT ( ) SI_UNIT ( $, .RADIAN. ) );
#277 =( LENGTH_UNIT ( ) NAMED_UNIT ( * ) SI_UNIT ( $, .METRE. ) );
#278 = ORIENTED_EDGE ( 'NONE', *, *, #247, .T. ) ;
#279 =( GEOMETRIC_REPRESENTATION_CONTEXT ( 3 ) GLOBAL_UNCERTAINTY_ASSIGNED_CONTEXT ( ( #245 ) ) GLOBAL_UNIT_ASSIGNED_CONTEXT ( ( #68, #301, #49 ) ) REPRESENTATION_CONTEXT ( 'NONE', 'WORKASPACE' ) );
#280 = PRODUCT_CONTEXT ( 'NONE', #220, 'mechanical' ) ;
#281 = AXIS2_PLACEMENT_3D ( 'NONE', #326, #156, #332 ) ;
#282 = COLOUR_RGB ( '',0.7921568627450980005, 0.8196078431372548767, 0.9333333333333333481 ) ;
#283 = SPHERICAL_SURFACE ( 'NONE', #23, 0.3125000000000000000 ) ;
#284 = VERTEX_POINT ( 'NONE', #351 ) ;
#285 = PRODUCT_RELATED_PRODUCT_CATEGORY ( 'part', '', ( #192 ) ) ;
#286 = EDGE_LOOP ( 'NONE', ( #323, #195, #4, #127 ) ) ;
#287 = CARTESIAN_POINT ( 'NONE',  ( -2.449293598294707400E-16, 6.000000000000000888, 0.000000000000000000 ) ) ;
#288 = CIRCLE ( 'NONE', #267, 0.3124999999999998890 ) ;
#289 = ORIENTED_EDGE ( 'NONE', *, *, #24, .T. ) ;
#290 = LENGTH_MEASURE_WITH_UNIT ( LENGTH_MEASURE( 0.02539999999999999897 ), #263 );
#291 = CARTESIAN_POINT ( 'NONE',  ( -2.449293598294707400E-16, 6.000000000000000888, 0.000000000000000000 ) ) ;
#292 =( NAMED_UNIT ( * ) PLANE_ANGLE_UNIT ( ) SI_UNIT ( $, .RADIAN. ) );
#293 = COLOUR_RGB ( '',1.000000000000000000, 0.000000000000000000, 0.000000000000000000 ) ;
#294 = DIRECTION ( 'NONE',  ( -1.224646799147353207E-16, 1.000000000000000000, -0.000000000000000000 ) ) ;
#295 =( LENGTH_UNIT ( ) NAMED_UNIT ( * ) SI_UNIT ( $, .METRE. ) );
#296 = FACE_OUTER_BOUND ( 'NONE', #336, .T. ) ;
#297 = MANIFOLD_SOLID_BREP ( 'Revolve - Tool Body (Straight Shanked)', #166 ) ;
#298 = SPHERICAL_SURFACE ( 'NONE', #174, 0.3125000000000000000 ) ;
#299 =( GEOMETRIC_REPRESENTATION_CONTEXT ( 3 ) GLOBAL_UNCERTAINTY_ASSIGNED_CONTEXT ( ( #345 ) ) GLOBAL_UNIT_ASSIGNED_CONTEXT ( ( #231, #292, #352 ) ) REPRESENTATION_CONTEXT ( 'NONE', 'WORKASPACE' ) );
#300 = DIRECTION ( 'NONE',  ( -1.224646799147353207E-16, 1.000000000000000000, -0.000000000000000000 ) ) ;
#301 =( NAMED_UNIT ( * ) PLANE_ANGLE_UNIT ( ) SI_UNIT ( $, .RADIAN. ) );
#302 = DIRECTION ( 'NONE',  ( 1.000000000000000000, 0.000000000000000000, -1.224646799147353207E-16 ) ) ;
#303 = FACE_OUTER_BOUND ( 'NONE', #58, .T. ) ;
#304 = DIRECTION ( 'NONE',  ( -0.000000000000000000, -1.000000000000000000, -0.000000000000000000 ) ) ;
#305 = STYLED_ITEM ( 'NONE', ( #271 ), #367 ) ;
#306 = CARTESIAN_POINT ( 'NONE',  ( 0.000000000000000000, 0.000000000000000000, 0.000000000000000000 ) ) ;
#307 = VERTEX_POINT ( 'NONE', #243 ) ;
#308 = CARTESIAN_POINT ( 'NONE',  ( 0.000000000000000000, 3.250000000000000000, 0.000000000000000000 ) ) ;
#309 = PRESENTATION_LAYER_ASSIGNMENT (  '', '', ( #113 ) ) ;
#310 = CIRCLE ( 'NONE', #197, 0.3125000000000000000 ) ;
#311 = EDGE_CURVE ( 'NONE', #341, #131, #9, .T. ) ;
#312 =( GEOMETRIC_REPRESENTATION_CONTEXT ( 3 ) GLOBAL_UNCERTAINTY_ASSIGNED_CONTEXT ( ( #102 ) ) GLOBAL_UNIT_ASSIGNED_CONTEXT ( ( #70, #99, #193 ) ) REPRESENTATION_CONTEXT ( 'NONE', 'WORKASPACE' ) );
#313 = ORIENTED_EDGE ( 'NONE', *, *, #96, .F. ) ;
#314 = DIRECTION ( 'NONE',  ( -0.000000000000000000, -1.000000000000000000, -0.000000000000000000 ) ) ;
#315 = FACE_OUTER_BOUND ( 'NONE', #370, .T. ) ;
#316 = DIRECTION ( 'NONE',  ( -1.000000000000000000, 0.000000000000000000, 0.000000000000000000 ) ) ;
#317 = PLANE ( 'NONE',  #259 ) ;
#318 =( GEOMETRIC_REPRESENTATION_CONTEXT ( 3 ) GLOBAL_UNCERTAINTY_ASSIGNED_CONTEXT ( ( #190 ) ) GLOBAL_UNIT_ASSIGNED_CONTEXT ( ( #26, #76, #333 ) ) REPRESENTATION_CONTEXT ( 'NONE', 'WORKASPACE' ) );
#319 = AXIS2_PLACEMENT_3D ( 'NONE', #306, #136, #258 ) ;
#320 = CYLINDRICAL_SURFACE ( 'NONE', #28, 0.3124999999999998335 ) ;
#321 = CYLINDRICAL_SURFACE ( 'NONE', #232, 0.3124999999999997224 ) ;
#322 = PRESENTATION_STYLE_ASSIGNMENT (( #1 ) ) ;
#323 = ORIENTED_EDGE ( 'NONE', *, *, #311, .T. ) ;
#324 =( CONVERSION_BASED_UNIT ( 'INCH', #272 ) LENGTH_UNIT ( ) NAMED_UNIT ( #217 ) );
#325 = ORIENTED_EDGE ( 'NONE', *, *, #209, .F. ) ;
#326 = CARTESIAN_POINT ( 'NONE',  ( 0.000000000000000000, 0.3125000000000000555, 0.000000000000000000 ) ) ;
#327 = SURFACE_SIDE_STYLE ('',( #124 ) ) ;
#328 = STYLED_ITEM ( 'NONE', ( #222 ), #188 ) ;
#329 = CARTESIAN_POINT ( 'NONE',  ( -3.827021247335478926E-17, 0.3125000000000000000, 0.000000000000000000 ) ) ;
#330 = UNCERTAINTY_MEASURE_WITH_UNIT (LENGTH_MEASURE( 1.000000000000000082E-05 ), #355, 'distance_accuracy_value', 'NONE');
#331 = FILL_AREA_STYLE_COLOUR ( '', #337 ) ;
#332 = DIRECTION ( 'NONE',  ( 0.000000000000000000, 0.000000000000000000, -1.000000000000000000 ) ) ;
#333 =( NAMED_UNIT ( * ) SI_UNIT ( $, .STERADIAN. ) SOLID_ANGLE_UNIT ( ) );
#334 = DIRECTION ( 'NONE',  ( -1.224646799147353207E-16, 1.000000000000000000, -0.000000000000000000 ) ) ;
#335 = DIRECTION ( 'NONE',  ( 0.000000000000000000, 0.000000000000000000, 1.000000000000000000 ) ) ;
#336 = EDGE_LOOP ( 'NONE', ( #260, #278, #227, #141 ) ) ;
#337 = COLOUR_RGB ( '',0.7921568627450980005, 0.8196078431372548767, 0.9333333333333333481 ) ;
#338 = ORIENTED_EDGE ( 'NONE', *, *, #134, .F. ) ;
#339 = DIRECTION ( 'NONE',  ( 1.000000000000000000, 0.000000000000000000, 0.000000000000000000 ) ) ;
#340 = EDGE_LOOP ( 'NONE', ( #266, #83, #289, #101 ) ) ;
#341 = VERTEX_POINT ( 'NONE', #181 ) ;
#342 =( GEOMETRIC_REPRESENTATION_CONTEXT ( 3 ) GLOBAL_UNCERTAINTY_ASSIGNED_CONTEXT ( ( #5 ) ) GLOBAL_UNIT_ASSIGNED_CONTEXT ( ( #251, #276, #373 ) ) REPRESENTATION_CONTEXT ( 'NONE', 'WORKASPACE' ) );
#343 = PRESENTATION_LAYER_ASSIGNMENT (  '', '', ( #19 ) ) ;
#344 = EDGE_CURVE ( 'NONE', #194, #142, #288, .T. ) ;
#345 = UNCERTAINTY_MEASURE_WITH_UNIT (LENGTH_MEASURE( 1.000000000000000082E-05 ), #231, 'distance_accuracy_value', 'NONE');
#346 = FILL_AREA_STYLE_COLOUR ( '', #46 ) ;
#347 = MECHANICAL_DESIGN_GEOMETRIC_PRESENTATION_REPRESENTATION (  '', ( #145 ), #56 ) ;
#348 = DIRECTION ( 'NONE',  ( -1.224646799147353207E-16, 1.000000000000000000, -0.000000000000000000 ) ) ;
#349 = ORIENTED_EDGE ( 'NONE', *, *, #344, .T. ) ;
#350 = EDGE_CURVE ( 'NONE', #131, #194, #270, .T. ) ;
#351 = CARTESIAN_POINT ( 'NONE',  ( -0.3125000000000000000, 0.3125000000000000555, 3.827021247335477694E-17 ) ) ;
#352 =( NAMED_UNIT ( * ) SI_UNIT ( $, .STERADIAN. ) SOLID_ANGLE_UNIT ( ) );
#353 = PRESENTATION_LAYER_ASSIGNMENT (  '', '', ( #63 ) ) ;
#354 = DIRECTION ( 'NONE',  ( 1.224646799147353207E-16, -0.000000000000000000, 1.000000000000000000 ) ) ;
#355 =( CONVERSION_BASED_UNIT ( 'INCH', #357 ) LENGTH_UNIT ( ) NAMED_UNIT ( #185 ) );
#356 = SURFACE_STYLE_USAGE ( .BOTH. , #184 ) ;
#357 = LENGTH_MEASURE_WITH_UNIT ( LENGTH_MEASURE( 0.02539999999999999897 ), #114 );
#358 = CARTESIAN_POINT ( 'NONE',  ( 0.000000000000000000, 3.250000000000000000, -0.3124999999999996114 ) ) ;
#359 = DIRECTION ( 'NONE',  ( -1.224646799147353207E-16, 1.000000000000000000, 0.000000000000000000 ) ) ;
#360 = CYLINDRICAL_SURFACE ( 'NONE', #319, 0.3124999999999998335 ) ;
#361 = MECHANICAL_DESIGN_GEOMETRIC_PRESENTATION_REPRESENTATION (  '', ( #113 ), #161 ) ;
#362 = DIMENSIONAL_EXPONENTS ( 1.000000000000000000, 0.000000000000000000, 0.000000000000000000, 0.000000000000000000, 0.000000000000000000, 0.000000000000000000, 0.000000000000000000 ) ;
#363 = DIRECTION ( 'NONE',  ( 1.000000000000000000, 0.000000000000000000, 0.000000000000000000 ) ) ;
#364 = PRODUCT_DEFINITION_CONTEXT ( 'detailed design', #86, 'design' ) ;
#365 = FACE_OUTER_BOUND ( 'NONE', #162, .T. ) ;
#366 = SURFACE_STYLE_FILL_AREA ( #51 ) ;
#367 = ADVANCED_FACE ( 'NONE', ( #303 ), #298, .T. ) ;
#368 = CARTESIAN_POINT ( 'NONE',  ( 0.000000000000000000, 0.000000000000000000, 0.000000000000000000 ) ) ;
#369 = AXIS2_PLACEMENT_3D ( 'NONE', #187, #334, #126 ) ;
#370 = EDGE_LOOP ( 'NONE', ( #55, #138 ) ) ;
#371 = DIRECTION ( 'NONE',  ( 1.000000000000000000, 0.000000000000000000, 0.000000000000000000 ) ) ;
#372 = ORIENTED_EDGE ( 'NONE', *, *, #182, .T. ) ;
#373 =( NAMED_UNIT ( * ) SI_UNIT ( $, .STERADIAN. ) SOLID_ANGLE_UNIT ( ) );
ENDSEC;
END-ISO-10303-21;
