ISO-10303-21;
HEADER;
FILE_DESCRIPTION (( 'STEP AP214' ),
    '1' );
FILE_NAME ('Micro_RNC-312-24X.STEP',
    '2021-09-03T17:37:38',
    ( '' ),
    ( '' ),
    'SwSTEP 2.0',
    'SolidWorks 2020',
    '' );
FILE_SCHEMA (( 'AUTOMOTIVE_DESIGN' ));
ENDSEC;

DATA;
#1 = ORIENTED_EDGE ( 'NONE', *, *, #128, .F. ) ;
#2 = DIRECTION ( 'NONE',  ( -1.000000000000000000, 0.0000000000000000000, 0.0000000000000000000 ) ) ;
#3 = DIRECTION ( 'NONE',  ( 0.0000000000000000000, 0.0000000000000000000, -1.000000000000000000 ) ) ;
#4 = DIRECTION ( 'NONE',  ( -1.000000000000000000, 0.0000000000000000000, 0.0000000000000000000 ) ) ;
#5 = FACE_OUTER_BOUND ( 'NONE', #213, .T. ) ;
#6 = DIMENSIONAL_EXPONENTS ( 1.000000000000000000, 0.0000000000000000000, 0.0000000000000000000, 0.0000000000000000000, 0.0000000000000000000, 0.0000000000000000000, 0.0000000000000000000 ) ;
#7 = CARTESIAN_POINT ( 'NONE',  ( 0.1562500000000000000, 1.913510623667739463E-17, 4.000000000000000000 ) ) ;
#8 = UNCERTAINTY_MEASURE_WITH_UNIT (LENGTH_MEASURE( 1.000000000000000082E-05 ), #89, 'distance_accuracy_value', 'NONE');
#9 = DIRECTION ( 'NONE',  ( -1.000000000000000000, 0.0000000000000000000, 0.0000000000000000000 ) ) ;
#10 =( NAMED_UNIT ( * ) SI_UNIT ( $, .STERADIAN. ) SOLID_ANGLE_UNIT ( ) );
#11 = EDGE_CURVE ( 'NONE', #248, #40, #216, .T. ) ;
#12 = APPLICATION_CONTEXT ( 'automotive_design' ) ;
#13 = ADVANCED_FACE ( 'NONE', ( #217 ), #223, .T. ) ;
#14 = AXIS2_PLACEMENT_3D ( 'NONE', #179, #3, #63 ) ;
#15 = FILL_AREA_STYLE ('',( #220 ) ) ;
#16 = EDGE_CURVE ( 'NONE', #242, #241, #102, .T. ) ;
#17 = PRODUCT_DEFINITION_SHAPE ( 'NONE', 'NONE',  #147 ) ;
#18 = VECTOR ( 'NONE', #106, 39.37007874015748143 ) ;
#19 = ORIENTED_EDGE ( 'NONE', *, *, #100, .F. ) ;
#20 =( NAMED_UNIT ( * ) SI_UNIT ( $, .STERADIAN. ) SOLID_ANGLE_UNIT ( ) );
#21 = STYLED_ITEM ( 'NONE', ( #161 ), #130 ) ;
#22 = CARTESIAN_POINT ( 'NONE',  ( 0.003999999999999999216, 0.0000000000000000000, 4.000000000000000000 ) ) ;
#23 = DIRECTION ( 'NONE',  ( -0.0000000000000000000, -0.0000000000000000000, -1.000000000000000000 ) ) ;
#24 = DIRECTION ( 'NONE',  ( 1.000000000000000000, 0.0000000000000000000, -0.0000000000000000000 ) ) ;
#25 = DIRECTION ( 'NONE',  ( 0.7071067811865490160, 0.0000000000000000000, 0.7071067811865460184 ) ) ;
#26 = LINE ( 'NONE', #7, #18 ) ;
#27 = UNCERTAINTY_MEASURE_WITH_UNIT (LENGTH_MEASURE( 1.000000000000000082E-05 ), #243, 'distance_accuracy_value', 'NONE');
#28 = LENGTH_MEASURE_WITH_UNIT ( LENGTH_MEASURE( 0.02539999999999999897 ), #86 );
#29 = PLANE ( 'NONE',  #94 ) ;
#30 = PRODUCT_DEFINITION_FORMATION_WITH_SPECIFIED_SOURCE ( 'ANY', '', #129, .NOT_KNOWN. ) ;
#31 = DIRECTION ( 'NONE',  ( 0.0000000000000000000, 0.0000000000000000000, 1.000000000000000000 ) ) ;
#32 = EDGE_CURVE ( 'NONE', #39, #41, #42, .T. ) ;
#33 = FACE_OUTER_BOUND ( 'NONE', #77, .T. ) ;
#34 = CARTESIAN_POINT ( 'NONE',  ( 0.0000000000000000000, 0.0000000000000000000, 0.1522499999999993858 ) ) ;
#35 = AXIS2_PLACEMENT_3D ( 'NONE', #127, #146, #221 ) ;
#36 = AXIS2_PLACEMENT_3D ( 'NONE', #115, #193, #2 ) ;
#37 = EDGE_LOOP ( 'NONE', ( #173, #58, #209, #160 ) ) ;
#38 = MECHANICAL_DESIGN_GEOMETRIC_PRESENTATION_REPRESENTATION (  '', ( #87 ), #218 ) ;
#39 = VERTEX_POINT ( 'NONE', #47 ) ;
#40 = VERTEX_POINT ( 'NONE', #22 ) ;
#41 = VERTEX_POINT ( 'NONE', #82 ) ;
#42 = CIRCLE ( 'NONE', #184, 0.1562500000000000000 ) ;
#43 = EDGE_LOOP ( 'NONE', ( #19, #88 ) ) ;
#44 =( NAMED_UNIT ( * ) PLANE_ANGLE_UNIT ( ) SI_UNIT ( $, .RADIAN. ) );
#45 = ORIENTED_EDGE ( 'NONE', *, *, #90, .F. ) ;
#46 = AXIS2_PLACEMENT_3D ( 'NONE', #168, #50, #126 ) ;
#47 = CARTESIAN_POINT ( 'NONE',  ( -0.1562500000000000000, 0.0000000000000000000, 0.1522499999999993858 ) ) ;
#48 = CARTESIAN_POINT ( 'NONE',  ( 0.0000000000000000000, 0.0000000000000000000, 4.000000000000000000 ) ) ;
#49 = DIRECTION ( 'NONE',  ( -1.000000000000000000, 0.0000000000000000000, 0.0000000000000000000 ) ) ;
#50 = DIRECTION ( 'NONE',  ( 0.0000000000000000000, 0.0000000000000000000, -1.000000000000000000 ) ) ;
#51 = APPLICATION_CONTEXT ( 'automotive_design' ) ;
#52 = CARTESIAN_POINT ( 'NONE',  ( 0.0000000000000000000, 0.0000000000000000000, 4.000000000000000000 ) ) ;
#53 = CIRCLE ( 'NONE', #66, 0.003999999999999999216 ) ;
#54 = CARTESIAN_POINT ( 'NONE',  ( -0.1562500000000000000, 0.0000000000000000000, 4.000000000000000000 ) ) ;
#55 = EDGE_LOOP ( 'NONE', ( #60, #97 ) ) ;
#56 = PRODUCT_CONTEXT ( 'NONE', #51, 'mechanical' ) ;
#57 = VECTOR ( 'NONE', #69, 39.37007874015748143 ) ;
#58 = ORIENTED_EDGE ( 'NONE', *, *, #11, .T. ) ;
#59 = DIRECTION ( 'NONE',  ( 1.000000000000000000, 0.0000000000000000000, 0.0000000000000000000 ) ) ;
#60 = ORIENTED_EDGE ( 'NONE', *, *, #16, .T. ) ;
#61 = SURFACE_SIDE_STYLE ('',( #91 ) ) ;
#62 =( CONVERSION_BASED_UNIT ( 'INCH', #79 ) LENGTH_UNIT ( ) NAMED_UNIT ( #6 ) );
#63 = DIRECTION ( 'NONE',  ( 1.000000000000000000, 0.0000000000000000000, 0.0000000000000000000 ) ) ;
#64 = DIRECTION ( 'NONE',  ( -1.000000000000000000, 0.0000000000000000000, 0.0000000000000000000 ) ) ;
#65 = DIRECTION ( 'NONE',  ( -1.000000000000000000, 0.0000000000000000000, 0.0000000000000000000 ) ) ;
#66 = AXIS2_PLACEMENT_3D ( 'NONE', #186, #92, #71 ) ;
#67 = DIRECTION ( 'NONE',  ( 0.7071067811865490160, 0.0000000000000000000, -0.7071067811865460184 ) ) ;
#68 = DIRECTION ( 'NONE',  ( 1.000000000000000000, 0.0000000000000000000, -0.0000000000000000000 ) ) ;
#69 = DIRECTION ( 'NONE',  ( -0.7071067811865490160, 8.659560562354951347E-17, 0.7071067811865460184 ) ) ;
#70 =( NAMED_UNIT ( * ) PLANE_ANGLE_UNIT ( ) SI_UNIT ( $, .RADIAN. ) );
#71 = DIRECTION ( 'NONE',  ( -1.000000000000000000, 0.0000000000000000000, 0.0000000000000000000 ) ) ;
#72 = EDGE_CURVE ( 'NONE', #242, #41, #201, .T. ) ;
#73 = VECTOR ( 'NONE', #125, 39.37007874015748143 ) ;
#74 = ORIENTED_EDGE ( 'NONE', *, *, #72, .F. ) ;
#75 =( LENGTH_UNIT ( ) NAMED_UNIT ( * ) SI_UNIT ( $, .METRE. ) );
#76 = LENGTH_MEASURE_WITH_UNIT ( LENGTH_MEASURE( 0.02539999999999999897 ), #75 );
#77 = EDGE_LOOP ( 'NONE', ( #84, #229, #133, #74 ) ) ;
#78 =( NAMED_UNIT ( * ) PLANE_ANGLE_UNIT ( ) SI_UNIT ( $, .RADIAN. ) );
#79 = LENGTH_MEASURE_WITH_UNIT ( LENGTH_MEASURE( 0.02539999999999999897 ), #169 );
#80 = AXIS2_PLACEMENT_3D ( 'NONE', #34, #170, #49 ) ;
#81 = PLANE ( 'NONE',  #120 ) ;
#82 = CARTESIAN_POINT ( 'NONE',  ( 0.1562500000000000000, 1.913510623667739463E-17, 0.1522499999999993858 ) ) ;
#83 = CARTESIAN_POINT ( 'NONE',  ( 0.0000000000000000000, 0.0000000000000000000, 4.000000000000000000 ) ) ;
#84 = ORIENTED_EDGE ( 'NONE', *, *, #208, .F. ) ;
#85 = CARTESIAN_POINT ( 'NONE',  ( 0.0000000000000000000, 0.0000000000000000000, 3.847750000000000448 ) ) ;
#86 =( LENGTH_UNIT ( ) NAMED_UNIT ( * ) SI_UNIT ( $, .METRE. ) );
#87 = STYLED_ITEM ( 'NONE', ( #154 ), #247 ) ;
#88 = ORIENTED_EDGE ( 'NONE', *, *, #11, .F. ) ;
#89 =( CONVERSION_BASED_UNIT ( 'INCH', #28 ) LENGTH_UNIT ( ) NAMED_UNIT ( #200 ) );
#90 = EDGE_CURVE ( 'NONE', #241, #39, #164, .T. ) ;
#91 = SURFACE_STYLE_FILL_AREA ( #15 ) ;
#92 = DIRECTION ( 'NONE',  ( -0.0000000000000000000, -0.0000000000000000000, -1.000000000000000000 ) ) ;
#93 =( GEOMETRIC_REPRESENTATION_CONTEXT ( 3 ) GLOBAL_UNCERTAINTY_ASSIGNED_CONTEXT ( ( #105 ) ) GLOBAL_UNIT_ASSIGNED_CONTEXT ( ( #62, #44, #116 ) ) REPRESENTATION_CONTEXT ( 'NONE', 'WORKASPACE' ) );
#94 = AXIS2_PLACEMENT_3D ( 'NONE', #52, #31, #68 ) ;
#95 = EDGE_CURVE ( 'NONE', #40, #225, #101, .T. ) ;
#96 = ORIENTED_EDGE ( 'NONE', *, *, #226, .F. ) ;
#97 = ORIENTED_EDGE ( 'NONE', *, *, #208, .T. ) ;
#98 =( GEOMETRIC_REPRESENTATION_CONTEXT ( 3 ) GLOBAL_UNCERTAINTY_ASSIGNED_CONTEXT ( ( #8 ) ) GLOBAL_UNIT_ASSIGNED_CONTEXT ( ( #89, #70, #10 ) ) REPRESENTATION_CONTEXT ( 'NONE', 'WORKASPACE' ) );
#99 = CARTESIAN_POINT ( 'NONE',  ( 0.003999999999999999216, 0.0000000000000000000, 4.000000000000000000 ) ) ;
#100 = EDGE_CURVE ( 'NONE', #40, #248, #114, .T. ) ;
#101 = LINE ( 'NONE', #99, #162 ) ;
#102 = CIRCLE ( 'NONE', #151, 0.003999999999999999216 ) ;
#103 = CIRCLE ( 'NONE', #46, 0.1562500000000000000 ) ;
#104 = DIRECTION ( 'NONE',  ( -1.000000000000000000, 0.0000000000000000000, 0.0000000000000000000 ) ) ;
#105 = UNCERTAINTY_MEASURE_WITH_UNIT (LENGTH_MEASURE( 1.000000000000000082E-05 ), #62, 'distance_accuracy_value', 'NONE');
#106 = DIRECTION ( 'NONE',  ( -0.0000000000000000000, -0.0000000000000000000, -1.000000000000000000 ) ) ;
#107 = FILL_AREA_STYLE_COLOUR ( '', #199 ) ;
#108 = CONICAL_SURFACE ( 'NONE', #14, 0.003999999999999999216, 0.7853981633974503884 ) ;
#109 = CARTESIAN_POINT ( 'NONE',  ( 0.0000000000000000000, 0.0000000000000000000, 0.0000000000000000000 ) ) ;
#110 = DIRECTION ( 'NONE',  ( 1.000000000000000000, 0.0000000000000000000, 0.0000000000000000000 ) ) ;
#111 = ORIENTED_EDGE ( 'NONE', *, *, #95, .F. ) ;
#112 = AXIS2_PLACEMENT_3D ( 'NONE', #234, #118, #119 ) ;
#113 = SURFACE_STYLE_USAGE ( .BOTH. , #61 ) ;
#114 = CIRCLE ( 'NONE', #148, 0.003999999999999999216 ) ;
#115 = CARTESIAN_POINT ( 'NONE',  ( 0.0000000000000000000, 0.0000000000000000000, 4.000000000000000000 ) ) ;
#116 =( NAMED_UNIT ( * ) SI_UNIT ( $, .STERADIAN. ) SOLID_ANGLE_UNIT ( ) );
#117 = ADVANCED_FACE ( 'NONE', ( #166 ), #108, .T. ) ;
#118 = DIRECTION ( 'NONE',  ( 0.0000000000000000000, 0.0000000000000000000, -1.000000000000000000 ) ) ;
#119 = DIRECTION ( 'NONE',  ( 1.000000000000000000, 0.0000000000000000000, 0.0000000000000000000 ) ) ;
#120 = AXIS2_PLACEMENT_3D ( 'NONE', #197, #165, #24 ) ;
#121 = CARTESIAN_POINT ( 'NONE',  ( 0.0000000000000000000, 0.0000000000000000000, 0.0000000000000000000 ) ) ;
#122 = SURFACE_STYLE_FILL_AREA ( #145 ) ;
#123 = CARTESIAN_POINT ( 'NONE',  ( -0.003999999999999999216, 9.812482478168165875E-18, 0.0000000000000000000 ) ) ;
#124 = EDGE_CURVE ( 'NONE', #158, #225, #227, .T. ) ;
#125 = DIRECTION ( 'NONE',  ( -0.7071067811865490160, -8.659560562354951347E-17, -0.7071067811865460184 ) ) ;
#126 = DIRECTION ( 'NONE',  ( -1.000000000000000000, 0.0000000000000000000, 0.0000000000000000000 ) ) ;
#127 = CARTESIAN_POINT ( 'NONE',  ( 0.0000000000000000000, 0.0000000000000000000, 0.0000000000000000000 ) ) ;
#128 = EDGE_CURVE ( 'NONE', #225, #41, #26, .T. ) ;
#129 = PRODUCT ( 'Micro_RNC-312-24X', 'Micro_RNC-312-24X', '', ( #56 ) ) ;
#130 = MANIFOLD_SOLID_BREP ( 'Mirror1', #235 ) ;
#131 = EDGE_CURVE ( 'NONE', #158, #39, #180, .T. ) ;
#132 = ADVANCED_FACE ( 'NONE', ( #159 ), #81, .F. ) ;
#133 = ORIENTED_EDGE ( 'NONE', *, *, #32, .T. ) ;
#134 = SHAPE_DEFINITION_REPRESENTATION ( #17, #247 ) ;
#135 = ORIENTED_EDGE ( 'NONE', *, *, #128, .T. ) ;
#136 = ORIENTED_EDGE ( 'NONE', *, *, #131, .F. ) ;
#137 = EDGE_LOOP ( 'NONE', ( #1, #228, #191, #96 ) ) ;
#138 = ADVANCED_FACE ( 'NONE', ( #5 ), #249, .T. ) ;
#139 = ORIENTED_EDGE ( 'NONE', *, *, #232, .F. ) ;
#140 = FACE_OUTER_BOUND ( 'NONE', #137, .T. ) ;
#141 = DIRECTION ( 'NONE',  ( -1.000000000000000000, 0.0000000000000000000, 0.0000000000000000000 ) ) ;
#142 = VECTOR ( 'NONE', #178, 39.37007874015748143 ) ;
#143 = AXIS2_PLACEMENT_3D ( 'NONE', #109, #204, #110 ) ;
#144 = PRODUCT_RELATED_PRODUCT_CATEGORY ( 'part', '', ( #129 ) ) ;
#145 = FILL_AREA_STYLE ('',( #107 ) ) ;
#146 = DIRECTION ( 'NONE',  ( 0.0000000000000000000, 0.0000000000000000000, 1.000000000000000000 ) ) ;
#147 = PRODUCT_DEFINITION ( 'UNKNOWN', '', #30, #155 ) ;
#148 = AXIS2_PLACEMENT_3D ( 'NONE', #233, #181, #9 ) ;
#149 = CARTESIAN_POINT ( 'NONE',  ( -0.003999999999999999216, -4.898587196589411612E-19, 4.000000000000000000 ) ) ;
#150 = CARTESIAN_POINT ( 'NONE',  ( -0.1562500000000000000, 0.0000000000000000000, 3.847750000000000448 ) ) ;
#151 = AXIS2_PLACEMENT_3D ( 'NONE', #121, #198, #4 ) ;
#152 = ADVANCED_FACE ( 'NONE', ( #140 ), #215, .T. ) ;
#153 = ORIENTED_EDGE ( 'NONE', *, *, #100, .T. ) ;
#154 = PRESENTATION_STYLE_ASSIGNMENT (( #113 ) ) ;
#155 = PRODUCT_DEFINITION_CONTEXT ( 'detailed design', #12, 'design' ) ;
#156 = CONICAL_SURFACE ( 'NONE', #35, 0.003999999999999999216, 0.7853981633974503884 ) ;
#157 = ORIENTED_EDGE ( 'NONE', *, *, #226, .T. ) ;
#158 = VERTEX_POINT ( 'NONE', #150 ) ;
#159 = FACE_OUTER_BOUND ( 'NONE', #55, .T. ) ;
#160 = ORIENTED_EDGE ( 'NONE', *, *, #124, .F. ) ;
#161 = PRESENTATION_STYLE_ASSIGNMENT (( #202 ) ) ;
#162 = VECTOR ( 'NONE', #67, 39.37007874015748143 ) ;
#163 = CARTESIAN_POINT ( 'NONE',  ( 0.003999999999999999216, 0.0000000000000000000, 0.0000000000000000000 ) ) ;
#164 = LINE ( 'NONE', #219, #57 ) ;
#165 = DIRECTION ( 'NONE',  ( 0.0000000000000000000, 0.0000000000000000000, 1.000000000000000000 ) ) ;
#166 = FACE_OUTER_BOUND ( 'NONE', #189, .T. ) ;
#167 = PRESENTATION_LAYER_ASSIGNMENT (  '', '', ( #21 ) ) ;
#168 = CARTESIAN_POINT ( 'NONE',  ( 0.0000000000000000000, 0.0000000000000000000, 3.847750000000000448 ) ) ;
#169 =( LENGTH_UNIT ( ) NAMED_UNIT ( * ) SI_UNIT ( $, .METRE. ) );
#170 = DIRECTION ( 'NONE',  ( -0.0000000000000000000, -0.0000000000000000000, -1.000000000000000000 ) ) ;
#171 = EDGE_CURVE ( 'NONE', #248, #158, #172, .T. ) ;
#172 = LINE ( 'NONE', #149, #73 ) ;
#173 = ORIENTED_EDGE ( 'NONE', *, *, #171, .F. ) ;
#174 = ORIENTED_EDGE ( 'NONE', *, *, #124, .T. ) ;
#175 = ADVANCED_FACE ( 'NONE', ( #222 ), #203, .T. ) ;
#176 = AXIS2_PLACEMENT_3D ( 'NONE', #83, #211, #64 ) ;
#177 = ORIENTED_EDGE ( 'NONE', *, *, #16, .F. ) ;
#178 = DIRECTION ( 'NONE',  ( -0.0000000000000000000, -0.0000000000000000000, -1.000000000000000000 ) ) ;
#179 = CARTESIAN_POINT ( 'NONE',  ( 0.0000000000000000000, 0.0000000000000000000, 4.000000000000000000 ) ) ;
#180 = LINE ( 'NONE', #54, #142 ) ;
#181 = DIRECTION ( 'NONE',  ( 0.0000000000000000000, 0.0000000000000000000, -1.000000000000000000 ) ) ;
#182 = ORIENTED_EDGE ( 'NONE', *, *, #72, .T. ) ;
#183 = FACE_OUTER_BOUND ( 'NONE', #43, .T. ) ;
#184 = AXIS2_PLACEMENT_3D ( 'NONE', #196, #23, #65 ) ;
#185 = ADVANCED_FACE ( 'NONE', ( #183 ), #29, .T. ) ;
#186 = CARTESIAN_POINT ( 'NONE',  ( 0.0000000000000000000, 0.0000000000000000000, 0.0000000000000000000 ) ) ;
#187 = APPLICATION_PROTOCOL_DEFINITION ( 'draft international standard', 'automotive_design', 1998, #51 ) ;
#188 = PRESENTATION_LAYER_ASSIGNMENT (  '', '', ( #87 ) ) ;
#189 = EDGE_LOOP ( 'NONE', ( #153, #210, #139, #111 ) ) ;
#190 = APPLICATION_PROTOCOL_DEFINITION ( 'draft international standard', 'automotive_design', 1998, #12 ) ;
#191 = ORIENTED_EDGE ( 'NONE', *, *, #131, .T. ) ;
#192 = DIMENSIONAL_EXPONENTS ( 1.000000000000000000, 0.0000000000000000000, 0.0000000000000000000, 0.0000000000000000000, 0.0000000000000000000, 0.0000000000000000000, 0.0000000000000000000 ) ;
#193 = DIRECTION ( 'NONE',  ( -0.0000000000000000000, -0.0000000000000000000, -1.000000000000000000 ) ) ;
#194 = DIRECTION ( 'NONE',  ( 0.0000000000000000000, 0.0000000000000000000, 1.000000000000000000 ) ) ;
#195 = EDGE_LOOP ( 'NONE', ( #45, #177, #182, #157 ) ) ;
#196 = CARTESIAN_POINT ( 'NONE',  ( 0.0000000000000000000, 0.0000000000000000000, 0.1522499999999993858 ) ) ;
#197 = CARTESIAN_POINT ( 'NONE',  ( 0.0000000000000000000, 0.0000000000000000000, 0.0000000000000000000 ) ) ;
#198 = DIRECTION ( 'NONE',  ( -0.0000000000000000000, -0.0000000000000000000, -1.000000000000000000 ) ) ;
#199 = COLOUR_RGB ( '',0.7921568627450980005, 0.8196078431372548767, 0.9333333333333333481 ) ;
#200 = DIMENSIONAL_EXPONENTS ( 1.000000000000000000, 0.0000000000000000000, 0.0000000000000000000, 0.0000000000000000000, 0.0000000000000000000, 0.0000000000000000000, 0.0000000000000000000 ) ;
#201 = LINE ( 'NONE', #163, #212 ) ;
#202 = SURFACE_STYLE_USAGE ( .BOTH. , #237 ) ;
#203 = CONICAL_SURFACE ( 'NONE', #143, 0.003999999999999999216, 0.7853981633974503884 ) ;
#204 = DIRECTION ( 'NONE',  ( 0.0000000000000000000, 0.0000000000000000000, 1.000000000000000000 ) ) ;
#205 = CARTESIAN_POINT ( 'NONE',  ( 0.1562500000000000000, 1.913510623667739463E-17, 3.847750000000000448 ) ) ;
#206 = CARTESIAN_POINT ( 'NONE',  ( 0.0000000000000000000, 0.0000000000000000000, 0.0000000000000000000 ) ) ;
#207 = CIRCLE ( 'NONE', #80, 0.1562500000000000000 ) ;
#208 = EDGE_CURVE ( 'NONE', #241, #242, #53, .T. ) ;
#209 = ORIENTED_EDGE ( 'NONE', *, *, #95, .T. ) ;
#210 = ORIENTED_EDGE ( 'NONE', *, *, #171, .T. ) ;
#211 = DIRECTION ( 'NONE',  ( -0.0000000000000000000, -0.0000000000000000000, -1.000000000000000000 ) ) ;
#212 = VECTOR ( 'NONE', #25, 39.37007874015748143 ) ;
#213 = EDGE_LOOP ( 'NONE', ( #174, #135, #244, #136 ) ) ;
#214 = DIRECTION ( 'NONE',  ( 0.0000000000000000000, 0.0000000000000000000, -1.000000000000000000 ) ) ;
#215 = CYLINDRICAL_SURFACE ( 'NONE', #36, 0.1562500000000000000 ) ;
#216 = CIRCLE ( 'NONE', #245, 0.003999999999999999216 ) ;
#217 = FACE_OUTER_BOUND ( 'NONE', #37, .T. ) ;
#218 =( GEOMETRIC_REPRESENTATION_CONTEXT ( 3 ) GLOBAL_UNCERTAINTY_ASSIGNED_CONTEXT ( ( #27 ) ) GLOBAL_UNIT_ASSIGNED_CONTEXT ( ( #243, #78, #20 ) ) REPRESENTATION_CONTEXT ( 'NONE', 'WORKASPACE' ) );
#219 = CARTESIAN_POINT ( 'NONE',  ( -0.003999999999999999216, 4.898587196589411612E-19, 0.0000000000000000000 ) ) ;
#220 = FILL_AREA_STYLE_COLOUR ( '', #236 ) ;
#221 = DIRECTION ( 'NONE',  ( 1.000000000000000000, 0.0000000000000000000, 0.0000000000000000000 ) ) ;
#222 = FACE_OUTER_BOUND ( 'NONE', #195, .T. ) ;
#223 = CONICAL_SURFACE ( 'NONE', #112, 0.003999999999999999216, 0.7853981633974503884 ) ;
#224 = ADVANCED_FACE ( 'NONE', ( #33 ), #156, .T. ) ;
#225 = VERTEX_POINT ( 'NONE', #205 ) ;
#226 = EDGE_CURVE ( 'NONE', #41, #39, #207, .T. ) ;
#227 = CIRCLE ( 'NONE', #246, 0.1562500000000000000 ) ;
#228 = ORIENTED_EDGE ( 'NONE', *, *, #232, .T. ) ;
#229 = ORIENTED_EDGE ( 'NONE', *, *, #90, .T. ) ;
#230 = AXIS2_PLACEMENT_3D ( 'NONE', #206, #194, #59 ) ;
#231 = DIRECTION ( 'NONE',  ( 0.0000000000000000000, 0.0000000000000000000, -1.000000000000000000 ) ) ;
#232 = EDGE_CURVE ( 'NONE', #225, #158, #103, .T. ) ;
#233 = CARTESIAN_POINT ( 'NONE',  ( 0.0000000000000000000, 0.0000000000000000000, 4.000000000000000000 ) ) ;
#234 = CARTESIAN_POINT ( 'NONE',  ( 0.0000000000000000000, 0.0000000000000000000, 4.000000000000000000 ) ) ;
#235 = CLOSED_SHELL ( 'NONE', ( #117, #224, #138, #152, #175, #132, #13, #185 ) ) ;
#236 = COLOUR_RGB ( '',0.7921568627450980005, 0.8196078431372548767, 0.9333333333333333481 ) ;
#237 = SURFACE_SIDE_STYLE ('',( #122 ) ) ;
#238 = CARTESIAN_POINT ( 'NONE',  ( 0.003999999999999999216, 0.0000000000000000000, 0.0000000000000000000 ) ) ;
#239 = CARTESIAN_POINT ( 'NONE',  ( -0.003999999999999999216, -9.812482478168165875E-18, 4.000000000000000000 ) ) ;
#240 = MECHANICAL_DESIGN_GEOMETRIC_PRESENTATION_REPRESENTATION (  '', ( #21 ), #93 ) ;
#241 = VERTEX_POINT ( 'NONE', #123 ) ;
#242 = VERTEX_POINT ( 'NONE', #238 ) ;
#243 =( CONVERSION_BASED_UNIT ( 'INCH', #76 ) LENGTH_UNIT ( ) NAMED_UNIT ( #192 ) );
#244 = ORIENTED_EDGE ( 'NONE', *, *, #32, .F. ) ;
#245 = AXIS2_PLACEMENT_3D ( 'NONE', #48, #231, #141 ) ;
#246 = AXIS2_PLACEMENT_3D ( 'NONE', #85, #214, #104 ) ;
#247 = ADVANCED_BREP_SHAPE_REPRESENTATION ( 'Micro_RNC-312-24X', ( #130, #230 ), #98 ) ;
#248 = VERTEX_POINT ( 'NONE', #239 ) ;
#249 = CYLINDRICAL_SURFACE ( 'NONE', #176, 0.1562500000000000000 ) ;
ENDSEC;
END-ISO-10303-21;
