ISO-10303-21;
HEADER;
FILE_DESCRIPTION (( 'STEP AP214' ),
    '1' );
FILE_NAME ('Micro_SHRM-120-4X.STEP',
    '2021-09-02T09:15:41',
    ( '' ),
    ( '' ),
    'SwSTEP 2.0',
    'SolidWorks 2020',
    '' );
FILE_SCHEMA (( 'AUTOMOTIVE_DESIGN' ));
ENDSEC;

DATA;
#1 = CARTESIAN_POINT ( 'NONE',  ( 0.2212205000000019295, 2.709169772307794108E-17, 3.267717000000000649 ) ) ;
#2 = AXIS2_PLACEMENT_3D ( 'NONE', #267, #63, #132 ) ;
#3 = CARTESIAN_POINT ( 'NONE',  ( 0.0000000000000000000, 0.0000000000000000000, 3.267717000000000649 ) ) ;
#4 =( NAMED_UNIT ( * ) SI_UNIT ( $, .STERADIAN. ) SOLID_ANGLE_UNIT ( ) );
#5 = CIRCLE ( 'NONE', #97, 0.2359842795000000049 ) ;
#6 =( LENGTH_UNIT ( ) NAMED_UNIT ( * ) SI_UNIT ( $, .METRE. ) );
#7 = LENGTH_MEASURE_WITH_UNIT ( LENGTH_MEASURE( 0.02539999999999999897 ), #9 );
#8 = ORIENTED_EDGE ( 'NONE', *, *, #232, .T. ) ;
#9 =( LENGTH_UNIT ( ) NAMED_UNIT ( * ) SI_UNIT ( $, .METRE. ) );
#10 = ORIENTED_EDGE ( 'NONE', *, *, #91, .F. ) ;
#11 = CARTESIAN_POINT ( 'NONE',  ( 1.446432783766537492E-16, 0.0000000000000000000, 1.181102000000000096 ) ) ;
#12 = ADVANCED_FACE ( 'NONE', ( #175 ), #152, .F. ) ;
#13 = CIRCLE ( 'NONE', #191, 0.2362204999999999999 ) ;
#14 = VERTEX_POINT ( 'NONE', #246 ) ;
#15 = SURFACE_STYLE_FILL_AREA ( #218 ) ;
#16 = ORIENTED_EDGE ( 'NONE', *, *, #69, .F. ) ;
#17 = EDGE_LOOP ( 'NONE', ( #289, #8 ) ) ;
#18 = DIRECTION ( 'NONE',  ( -1.224646799147353454E-16, -0.0000000000000000000, -1.000000000000000000 ) ) ;
#19 = CONICAL_SURFACE ( 'NONE', #104, 0.2359842795000000049, 0.1745329251994340025 ) ;
#20 = CARTESIAN_POINT ( 'NONE',  ( -0.2359842795000000049, 0.0000000000000000000, 5.779947850775388659E-17 ) ) ;
#21 = CARTESIAN_POINT ( 'NONE',  ( 1.446432783766537492E-16, 0.0000000000000000000, 1.181102000000000096 ) ) ;
#22 = DIRECTION ( 'NONE',  ( 1.000000000000000000, 0.0000000000000000000, 0.0000000000000000000 ) ) ;
#23 = AXIS2_PLACEMENT_3D ( 'NONE', #42, #226, #115 ) ;
#24 = DIRECTION ( 'NONE',  ( -0.7071067811865474617, 0.0000000000000000000, -0.7071067811865474617 ) ) ;
#25 = DIRECTION ( 'NONE',  ( 0.0000000000000000000, 0.0000000000000000000, -1.000000000000000000 ) ) ;
#26 = DIRECTION ( 'NONE',  ( 0.0000000000000000000, 0.0000000000000000000, 1.000000000000000000 ) ) ;
#27 =( NAMED_UNIT ( * ) PLANE_ANGLE_UNIT ( ) SI_UNIT ( $, .RADIAN. ) );
#28 = PRESENTATION_LAYER_ASSIGNMENT (  '', '', ( #157 ) ) ;
#29 = DIRECTION ( 'NONE',  ( 1.000000000000000000, 0.0000000000000000000, 0.0000000000000000000 ) ) ;
#30 = ORIENTED_EDGE ( 'NONE', *, *, #100, .F. ) ;
#31 = VERTEX_POINT ( 'NONE', #290 ) ;
#32 = APPLICATION_PROTOCOL_DEFINITION ( 'draft international standard', 'automotive_design', 1998, #266 ) ;
#33 = ORIENTED_EDGE ( 'NONE', *, *, #253, .T. ) ;
#34 = AXIS2_PLACEMENT_3D ( 'NONE', #11, #171, #193 ) ;
#35 = EDGE_LOOP ( 'NONE', ( #264, #121, #241, #106 ) ) ;
#36 = VERTEX_POINT ( 'NONE', #295 ) ;
#37 = VERTEX_POINT ( 'NONE', #88 ) ;
#38 = FACE_OUTER_BOUND ( 'NONE', #237, .T. ) ;
#39 = COLOUR_RGB ( '',0.7921568627450980005, 0.8196078431372548767, 0.9333333333333333481 ) ;
#40 = CARTESIAN_POINT ( 'NONE',  ( -0.2362204999999999999, 0.0000000000000000000, 3.252717000000002301 ) ) ;
#41 = FACE_OUTER_BOUND ( 'NONE', #172, .T. ) ;
#42 = CARTESIAN_POINT ( 'NONE',  ( 0.0000000000000000000, 0.0000000000000000000, 3.267717000000000649 ) ) ;
#43 = AXIS2_PLACEMENT_3D ( 'NONE', #195, #271, #155 ) ;
#44 =( GEOMETRIC_REPRESENTATION_CONTEXT ( 3 ) GLOBAL_UNCERTAINTY_ASSIGNED_CONTEXT ( ( #50 ) ) GLOBAL_UNIT_ASSIGNED_CONTEXT ( ( #85, #78, #283 ) ) REPRESENTATION_CONTEXT ( 'NONE', 'WORKASPACE' ) );
#45 = DIRECTION ( 'NONE',  ( 0.0000000000000000000, 0.0000000000000000000, -1.000000000000000000 ) ) ;
#46 = PRODUCT_RELATED_PRODUCT_CATEGORY ( 'part', '', ( #79 ) ) ;
#47 = CARTESIAN_POINT ( 'NONE',  ( 0.0000000000000000000, 0.0000000000000000000, 3.267717000000000649 ) ) ;
#48 = AXIS2_PLACEMENT_3D ( 'NONE', #55, #102, #29 ) ;
#49 = LINE ( 'NONE', #1, #209 ) ;
#50 = UNCERTAINTY_MEASURE_WITH_UNIT (LENGTH_MEASURE( 1.000000000000000082E-05 ), #85, 'distance_accuracy_value', 'NONE');
#51 = ADVANCED_FACE ( 'NONE', ( #113 ), #269, .T. ) ;
#52 = DIRECTION ( 'NONE',  ( -1.000000000000000000, 0.0000000000000000000, 1.224646799147353454E-16 ) ) ;
#53 = ORIENTED_EDGE ( 'NONE', *, *, #292, .F. ) ;
#54 = CLOSED_SHELL ( 'NONE', ( #243, #224, #163, #108, #142, #51, #235, #101, #273, #12 ) ) ;
#55 = CARTESIAN_POINT ( 'NONE',  ( 0.0000000000000000000, 0.0000000000000000000, 3.267717000000000649 ) ) ;
#56 = VERTEX_POINT ( 'NONE', #40 ) ;
#57 = ORIENTED_EDGE ( 'NONE', *, *, #253, .F. ) ;
#58 = ORIENTED_EDGE ( 'NONE', *, *, #232, .F. ) ;
#59 = DIRECTION ( 'NONE',  ( 1.000000000000000000, 0.0000000000000000000, 0.0000000000000000000 ) ) ;
#60 = VECTOR ( 'NONE', #179, 39.37007874015748143 ) ;
#61 = SHAPE_DEFINITION_REPRESENTATION ( #103, #257 ) ;
#62 = EDGE_CURVE ( 'NONE', #37, #285, #225, .T. ) ;
#63 = DIRECTION ( 'NONE',  ( 0.0000000000000000000, 0.0000000000000000000, -1.000000000000000000 ) ) ;
#64 = CYLINDRICAL_SURFACE ( 'NONE', #120, 0.2362204999999999999 ) ;
#65 = DIRECTION ( 'NONE',  ( 0.0000000000000000000, 0.0000000000000000000, 1.000000000000000000 ) ) ;
#66 = EDGE_CURVE ( 'NONE', #282, #130, #126, .T. ) ;
#67 = LINE ( 'NONE', #247, #255 ) ;
#68 = CARTESIAN_POINT ( 'NONE',  ( 1.448073410051043844E-16, 0.0000000000000000000, 1.182441673027071039 ) ) ;
#69 = EDGE_CURVE ( 'NONE', #14, #220, #280, .T. ) ;
#70 = CARTESIAN_POINT ( 'NONE',  ( -0.2359842795000000049, 0.0000000000000000000, 2.889973925387694330E-17 ) ) ;
#71 = MECHANICAL_DESIGN_GEOMETRIC_PRESENTATION_REPRESENTATION (  '', ( #157 ), #244 ) ;
#72 = CARTESIAN_POINT ( 'NONE',  ( 0.0000000000000000000, 0.0000000000000000000, 3.267717000000000649 ) ) ;
#73 = PRODUCT_DEFINITION_CONTEXT ( 'detailed design', #266, 'design' ) ;
#74 = DIRECTION ( 'NONE',  ( 1.000000000000000000, 0.0000000000000000000, 0.0000000000000000000 ) ) ;
#75 = EDGE_CURVE ( 'NONE', #220, #285, #223, .T. ) ;
#76 = PRESENTATION_LAYER_ASSIGNMENT (  '', '', ( #206 ) ) ;
#77 = DIRECTION ( 'NONE',  ( -1.000000000000000000, 0.0000000000000000000, 0.0000000000000000000 ) ) ;
#78 =( NAMED_UNIT ( * ) PLANE_ANGLE_UNIT ( ) SI_UNIT ( $, .RADIAN. ) );
#79 = PRODUCT ( 'Micro_SHRM-120-4X', 'Micro_SHRM-120-4X', '', ( #143 ) ) ;
#80 = ORIENTED_EDGE ( 'NONE', *, *, #170, .T. ) ;
#81 = DIRECTION ( 'NONE',  ( 0.0000000000000000000, 0.0000000000000000000, 1.000000000000000000 ) ) ;
#82 = ORIENTED_EDGE ( 'NONE', *, *, #62, .T. ) ;
#83 = MECHANICAL_DESIGN_GEOMETRIC_PRESENTATION_REPRESENTATION (  '', ( #206 ), #44 ) ;
#84 = EDGE_LOOP ( 'NONE', ( #144, #89, #259, #165 ) ) ;
#85 =( CONVERSION_BASED_UNIT ( 'INCH', #288 ) LENGTH_UNIT ( ) NAMED_UNIT ( #186 ) );
#86 = ORIENTED_EDGE ( 'NONE', *, *, #128, .F. ) ;
#87 = EDGE_CURVE ( 'NONE', #285, #31, #201, .T. ) ;
#88 = CARTESIAN_POINT ( 'NONE',  ( 0.2362204999999999999, 2.892866792179872647E-17, 3.252717000000002301 ) ) ;
#89 = ORIENTED_EDGE ( 'NONE', *, *, #149, .T. ) ;
#90 = EDGE_LOOP ( 'NONE', ( #16, #123, #150, #216 ) ) ;
#91 = EDGE_CURVE ( 'NONE', #56, #37, #222, .T. ) ;
#92 = DIRECTION ( 'NONE',  ( 1.000000000000000000, 0.0000000000000000000, 0.0000000000000000000 ) ) ;
#93 = AXIS2_PLACEMENT_3D ( 'NONE', #47, #207, #156 ) ;
#94 = DIRECTION ( 'NONE',  ( -1.000000000000000000, 0.0000000000000000000, 0.0000000000000000000 ) ) ;
#95 = DIRECTION ( 'NONE',  ( 1.000000000000000000, 0.0000000000000000000, 0.0000000000000000000 ) ) ;
#96 = LINE ( 'NONE', #183, #291 ) ;
#97 = AXIS2_PLACEMENT_3D ( 'NONE', #98, #162, #52 ) ;
#98 = CARTESIAN_POINT ( 'NONE',  ( 3.539197317345352573E-33, 0.0000000000000000000, 2.889973925387694330E-17 ) ) ;
#99 = DIRECTION ( 'NONE',  ( -1.000000000000000000, 0.0000000000000000000, 1.224646799147353454E-16 ) ) ;
#100 = EDGE_CURVE ( 'NONE', #56, #31, #67, .T. ) ;
#101 = ADVANCED_FACE ( 'NONE', ( #41 ), #19, .T. ) ;
#102 = DIRECTION ( 'NONE',  ( 0.0000000000000000000, 0.0000000000000000000, 1.000000000000000000 ) ) ;
#103 = PRODUCT_DEFINITION_SHAPE ( 'NONE', 'NONE',  #189 ) ;
#104 = AXIS2_PLACEMENT_3D ( 'NONE', #134, #268, #22 ) ;
#105 = DIRECTION ( 'NONE',  ( -1.224646799147353454E-16, -0.0000000000000000000, -1.000000000000000000 ) ) ;
#106 = ORIENTED_EDGE ( 'NONE', *, *, #87, .F. ) ;
#107 = PRESENTATION_STYLE_ASSIGNMENT (( #166 ) ) ;
#108 = ADVANCED_FACE ( 'NONE', ( #38 ), #64, .T. ) ;
#109 = EDGE_LOOP ( 'NONE', ( #58, #33, #10, #238 ) ) ;
#110 = AXIS2_PLACEMENT_3D ( 'NONE', #3, #26, #95 ) ;
#111 = DIRECTION ( 'NONE',  ( -0.0000000000000000000, -0.0000000000000000000, -1.000000000000000000 ) ) ;
#112 = FACE_OUTER_BOUND ( 'NONE', #35, .T. ) ;
#113 = FACE_OUTER_BOUND ( 'NONE', #17, .T. ) ;
#114 = UNCERTAINTY_MEASURE_WITH_UNIT (LENGTH_MEASURE( 1.000000000000000082E-05 ), #205, 'distance_accuracy_value', 'NONE');
#115 = DIRECTION ( 'NONE',  ( 1.000000000000000000, 0.0000000000000000000, -0.0000000000000000000 ) ) ;
#116 = AXIS2_PLACEMENT_3D ( 'NONE', #151, #65, #153 ) ;
#117 = DIRECTION ( 'NONE',  ( -1.224646799147353454E-16, -0.0000000000000000000, -1.000000000000000000 ) ) ;
#118 = SURFACE_SIDE_STYLE ('',( #204 ) ) ;
#119 = EDGE_CURVE ( 'NONE', #36, #56, #228, .T. ) ;
#120 = AXIS2_PLACEMENT_3D ( 'NONE', #298, #174, #94 ) ;
#121 = ORIENTED_EDGE ( 'NONE', *, *, #128, .T. ) ;
#122 = LINE ( 'NONE', #286, #217 ) ;
#123 = ORIENTED_EDGE ( 'NONE', *, *, #292, .T. ) ;
#124 =( NAMED_UNIT ( * ) PLANE_ANGLE_UNIT ( ) SI_UNIT ( $, .RADIAN. ) );
#125 = ORIENTED_EDGE ( 'NONE', *, *, #277, .F. ) ;
#126 = CIRCLE ( 'NONE', #145, 0.2359842795000000049 ) ;
#127 = APPLICATION_PROTOCOL_DEFINITION ( 'draft international standard', 'automotive_design', 1998, #260 ) ;
#128 = EDGE_CURVE ( 'NONE', #37, #56, #270, .T. ) ;
#129 = ORIENTED_EDGE ( 'NONE', *, *, #119, .T. ) ;
#130 = VERTEX_POINT ( 'NONE', #20 ) ;
#131 = CONICAL_SURFACE ( 'NONE', #196, 0.2212205000000019295, 0.7853981633974482790 ) ;
#132 = DIRECTION ( 'NONE',  ( 1.000000000000000000, 0.0000000000000000000, 0.0000000000000000000 ) ) ;
#133 = CARTESIAN_POINT ( 'NONE',  ( 0.2359842795000001436, 0.0000000000000000000, 1.181102000000000096 ) ) ;
#134 = CARTESIAN_POINT ( 'NONE',  ( 1.446432783766537492E-16, 0.0000000000000000000, 1.181102000000000096 ) ) ;
#135 = DIRECTION ( 'NONE',  ( -1.000000000000000000, 0.0000000000000000000, 1.224646799147353454E-16 ) ) ;
#136 = DIRECTION ( 'NONE',  ( 0.7071067811865474617, 8.659560562354932858E-17, -0.7071067811865474617 ) ) ;
#137 = FACE_OUTER_BOUND ( 'NONE', #109, .T. ) ;
#138 =( LENGTH_UNIT ( ) NAMED_UNIT ( * ) SI_UNIT ( $, .METRE. ) );
#139 = AXIS2_PLACEMENT_3D ( 'NONE', #256, #117, #203 ) ;
#140 = SURFACE_STYLE_USAGE ( .BOTH. , #118 ) ;
#141 = FACE_OUTER_BOUND ( 'NONE', #90, .T. ) ;
#142 = ADVANCED_FACE ( 'NONE', ( #112 ), #199, .T. ) ;
#143 = PRODUCT_CONTEXT ( 'NONE', #260, 'mechanical' ) ;
#144 = ORIENTED_EDGE ( 'NONE', *, *, #69, .T. ) ;
#145 = AXIS2_PLACEMENT_3D ( 'NONE', #154, #18, #135 ) ;
#146 = FILL_AREA_STYLE_COLOUR ( '', #245 ) ;
#147 = ORIENTED_EDGE ( 'NONE', *, *, #87, .T. ) ;
#148 = EDGE_LOOP ( 'NONE', ( #80, #272 ) ) ;
#149 = EDGE_CURVE ( 'NONE', #220, #282, #96, .T. ) ;
#150 = ORIENTED_EDGE ( 'NONE', *, *, #277, .T. ) ;
#151 = CARTESIAN_POINT ( 'NONE',  ( 0.0000000000000000000, 0.0000000000000000000, 0.0000000000000000000 ) ) ;
#152 = PLANE ( 'NONE',  #116 ) ;
#153 = DIRECTION ( 'NONE',  ( 1.000000000000000000, 0.0000000000000000000, -0.0000000000000000000 ) ) ;
#154 = CARTESIAN_POINT ( 'NONE',  ( 3.539197317345352573E-33, 0.0000000000000000000, 2.889973925387694330E-17 ) ) ;
#155 = DIRECTION ( 'NONE',  ( 1.000000000000000000, 0.0000000000000000000, 0.0000000000000000000 ) ) ;
#156 = DIRECTION ( 'NONE',  ( -1.000000000000000000, 0.0000000000000000000, 0.0000000000000000000 ) ) ;
#157 = STYLED_ITEM ( 'NONE', ( #278 ), #263 ) ;
#158 = CARTESIAN_POINT ( 'NONE',  ( 0.0000000000000000000, 0.0000000000000000000, 3.267717000000000649 ) ) ;
#159 = LENGTH_MEASURE_WITH_UNIT ( LENGTH_MEASURE( 0.02539999999999999897 ), #138 );
#160 = VECTOR ( 'NONE', #198, 39.37007874015748143 ) ;
#161 = CIRCLE ( 'NONE', #34, 0.2359842795000000049 ) ;
#162 = DIRECTION ( 'NONE',  ( -1.224646799147353454E-16, -0.0000000000000000000, -1.000000000000000000 ) ) ;
#163 = ADVANCED_FACE ( 'NONE', ( #137 ), #182, .T. ) ;
#164 = SURFACE_SIDE_STYLE ('',( #15 ) ) ;
#165 = ORIENTED_EDGE ( 'NONE', *, *, #212, .F. ) ;
#166 = SURFACE_STYLE_USAGE ( .BOTH. , #164 ) ;
#167 = CIRCLE ( 'NONE', #110, 0.2212205000000019295 ) ;
#168 =( CONVERSION_BASED_UNIT ( 'INCH', #7 ) LENGTH_UNIT ( ) NAMED_UNIT ( #276 ) );
#169 = ORIENTED_EDGE ( 'NONE', *, *, #299, .T. ) ;
#170 = EDGE_CURVE ( 'NONE', #130, #282, #5, .T. ) ;
#171 = DIRECTION ( 'NONE',  ( -1.224646799147353454E-16, -0.0000000000000000000, -1.000000000000000000 ) ) ;
#172 = EDGE_LOOP ( 'NONE', ( #53, #294, #262, #147 ) ) ;
#173 = CONICAL_SURFACE ( 'NONE', #249, 0.2359842795000000049, 0.1745329251994340025 ) ;
#174 = DIRECTION ( 'NONE',  ( -0.0000000000000000000, -0.0000000000000000000, -1.000000000000000000 ) ) ;
#175 = FACE_OUTER_BOUND ( 'NONE', #148, .T. ) ;
#176 = DIRECTION ( 'NONE',  ( -1.224646799147353454E-16, -0.0000000000000000000, -1.000000000000000000 ) ) ;
#177 = CIRCLE ( 'NONE', #48, 0.2212205000000019295 ) ;
#178 = CARTESIAN_POINT ( 'NONE',  ( 0.2362204999999999999, 2.892866792179872647E-17, 3.267717000000000649 ) ) ;
#179 = DIRECTION ( 'NONE',  ( -0.0000000000000000000, -0.0000000000000000000, -1.000000000000000000 ) ) ;
#180 = FILL_AREA_STYLE ('',( #184 ) ) ;
#181 = DIRECTION ( 'NONE',  ( -1.224646799147353454E-16, -0.0000000000000000000, -1.000000000000000000 ) ) ;
#182 = CONICAL_SURFACE ( 'NONE', #284, 0.2212205000000019295, 0.7853981633974482790 ) ;
#183 = CARTESIAN_POINT ( 'NONE',  ( 0.2359842795000000049, 2.889973925387693713E-17, -2.889973925387694330E-17 ) ) ;
#184 = FILL_AREA_STYLE_COLOUR ( '', #39 ) ;
#185 = CYLINDRICAL_SURFACE ( 'NONE', #139, 0.2359842795000000049 ) ;
#186 = DIMENSIONAL_EXPONENTS ( 1.000000000000000000, 0.0000000000000000000, 0.0000000000000000000, 0.0000000000000000000, 0.0000000000000000000, 0.0000000000000000000, 0.0000000000000000000 ) ;
#187 = DIRECTION ( 'NONE',  ( -0.1736481776669312749, 2.126576849575784241E-17, 0.9848077530122077983 ) ) ;
#188 = CARTESIAN_POINT ( 'NONE',  ( 0.2359842795000000049, 2.889973925387693713E-17, 0.0000000000000000000 ) ) ;
#189 = PRODUCT_DEFINITION ( 'UNKNOWN', '', #192, #73 ) ;
#190 = ORIENTED_EDGE ( 'NONE', *, *, #212, .T. ) ;
#191 = AXIS2_PLACEMENT_3D ( 'NONE', #215, #105, #59 ) ;
#192 = PRODUCT_DEFINITION_FORMATION_WITH_SPECIFIED_SOURCE ( 'ANY', '', #79, .NOT_KNOWN. ) ;
#193 = DIRECTION ( 'NONE',  ( -1.000000000000000000, 0.0000000000000000000, 0.0000000000000000000 ) ) ;
#194 = ORIENTED_EDGE ( 'NONE', *, *, #66, .F. ) ;
#195 = CARTESIAN_POINT ( 'NONE',  ( 0.0000000000000000000, 0.0000000000000000000, 3.252717000000002301 ) ) ;
#196 = AXIS2_PLACEMENT_3D ( 'NONE', #158, #25, #77 ) ;
#197 = AXIS2_PLACEMENT_3D ( 'NONE', #258, #81, #236 ) ;
#198 = DIRECTION ( 'NONE',  ( 0.1736481776669314969, 0.0000000000000000000, 0.9848077530122077983 ) ) ;
#199 = CYLINDRICAL_SURFACE ( 'NONE', #93, 0.2362204999999999999 ) ;
#200 = DIRECTION ( 'NONE',  ( -1.224646799147353454E-16, -0.0000000000000000000, -1.000000000000000000 ) ) ;
#201 = CIRCLE ( 'NONE', #227, 0.2362204999999999999 ) ;
#202 = DIRECTION ( 'NONE',  ( -1.000000000000000000, 0.0000000000000000000, 0.0000000000000000000 ) ) ;
#203 = DIRECTION ( 'NONE',  ( -1.000000000000000000, 0.0000000000000000000, 1.224646799147353454E-16 ) ) ;
#204 = SURFACE_STYLE_FILL_AREA ( #180 ) ;
#205 =( CONVERSION_BASED_UNIT ( 'INCH', #159 ) LENGTH_UNIT ( ) NAMED_UNIT ( #279 ) );
#206 = STYLED_ITEM ( 'NONE', ( #107 ), #257 ) ;
#207 = DIRECTION ( 'NONE',  ( -0.0000000000000000000, -0.0000000000000000000, -1.000000000000000000 ) ) ;
#208 = LINE ( 'NONE', #70, #261 ) ;
#209 = VECTOR ( 'NONE', #136, 39.37007874015748854 ) ;
#210 =( GEOMETRIC_REPRESENTATION_CONTEXT ( 3 ) GLOBAL_UNCERTAINTY_ASSIGNED_CONTEXT ( ( #296 ) ) GLOBAL_UNIT_ASSIGNED_CONTEXT ( ( #168, #124, #239 ) ) REPRESENTATION_CONTEXT ( 'NONE', 'WORKASPACE' ) );
#211 = VERTEX_POINT ( 'NONE', #250 ) ;
#212 = EDGE_CURVE ( 'NONE', #14, #130, #208, .T. ) ;
#213 = CARTESIAN_POINT ( 'NONE',  ( 0.2362205000000001665, 2.892866792179874496E-17, 1.182441673027071039 ) ) ;
#214 = EDGE_LOOP ( 'NONE', ( #57, #293, #129, #86 ) ) ;
#215 = CARTESIAN_POINT ( 'NONE',  ( 1.448073410051043844E-16, 0.0000000000000000000, 1.182441673027071039 ) ) ;
#216 = ORIENTED_EDGE ( 'NONE', *, *, #75, .F. ) ;
#217 = VECTOR ( 'NONE', #187, 39.37007874015748143 ) ;
#218 = FILL_AREA_STYLE ('',( #146 ) ) ;
#219 = EDGE_LOOP ( 'NONE', ( #221, #169, #190, #194 ) ) ;
#220 = VERTEX_POINT ( 'NONE', #230 ) ;
#221 = ORIENTED_EDGE ( 'NONE', *, *, #149, .F. ) ;
#222 = CIRCLE ( 'NONE', #43, 0.2362204999999999999 ) ;
#223 = LINE ( 'NONE', #133, #160 ) ;
#224 = ADVANCED_FACE ( 'NONE', ( #141 ), #173, .T. ) ;
#225 = LINE ( 'NONE', #178, #60 ) ;
#226 = DIRECTION ( 'NONE',  ( 0.0000000000000000000, 0.0000000000000000000, 1.000000000000000000 ) ) ;
#227 = AXIS2_PLACEMENT_3D ( 'NONE', #68, #200, #92 ) ;
#228 = LINE ( 'NONE', #242, #265 ) ;
#229 = DIRECTION ( 'NONE',  ( -1.224646799147353454E-16, -0.0000000000000000000, -1.000000000000000000 ) ) ;
#230 = CARTESIAN_POINT ( 'NONE',  ( 0.2359842795000001436, 0.0000000000000000000, 1.181102000000000096 ) ) ;
#231 = FACE_OUTER_BOUND ( 'NONE', #84, .T. ) ;
#232 = EDGE_CURVE ( 'NONE', #211, #36, #167, .T. ) ;
#233 = CARTESIAN_POINT ( 'NONE',  ( 1.446432783766537492E-16, 0.0000000000000000000, 1.181102000000000096 ) ) ;
#234 = FACE_OUTER_BOUND ( 'NONE', #214, .T. ) ;
#235 = ADVANCED_FACE ( 'NONE', ( #234 ), #131, .T. ) ;
#236 = DIRECTION ( 'NONE',  ( 1.000000000000000000, 0.0000000000000000000, 0.0000000000000000000 ) ) ;
#237 = EDGE_LOOP ( 'NONE', ( #248, #82, #125, #30 ) ) ;
#238 = ORIENTED_EDGE ( 'NONE', *, *, #119, .F. ) ;
#239 =( NAMED_UNIT ( * ) SI_UNIT ( $, .STERADIAN. ) SOLID_ANGLE_UNIT ( ) );
#240 = AXIS2_PLACEMENT_3D ( 'NONE', #21, #176, #202 ) ;
#241 = ORIENTED_EDGE ( 'NONE', *, *, #100, .T. ) ;
#242 = CARTESIAN_POINT ( 'NONE',  ( -0.2212205000000019295, 0.0000000000000000000, 3.267717000000000649 ) ) ;
#243 = ADVANCED_FACE ( 'NONE', ( #231 ), #274, .T. ) ;
#244 =( GEOMETRIC_REPRESENTATION_CONTEXT ( 3 ) GLOBAL_UNCERTAINTY_ASSIGNED_CONTEXT ( ( #114 ) ) GLOBAL_UNIT_ASSIGNED_CONTEXT ( ( #205, #27, #4 ) ) REPRESENTATION_CONTEXT ( 'NONE', 'WORKASPACE' ) );
#245 = COLOUR_RGB ( '',0.7921568627450980005, 0.8196078431372548767, 0.9333333333333333481 ) ;
#246 = CARTESIAN_POINT ( 'NONE',  ( -0.2359842794999998661, 2.891420358783783796E-17, 1.181102000000000096 ) ) ;
#247 = CARTESIAN_POINT ( 'NONE',  ( -0.2362204999999999999, 0.0000000000000000000, 3.267717000000000649 ) ) ;
#248 = ORIENTED_EDGE ( 'NONE', *, *, #91, .T. ) ;
#249 = AXIS2_PLACEMENT_3D ( 'NONE', #233, #281, #74 ) ;
#250 = CARTESIAN_POINT ( 'NONE',  ( 0.2212205000000019295, 2.801018282243833685E-17, 3.267717000000000649 ) ) ;
#251 = CARTESIAN_POINT ( 'NONE',  ( 0.0000000000000000000, 0.0000000000000000000, 0.0000000000000000000 ) ) ;
#252 = FACE_OUTER_BOUND ( 'NONE', #219, .T. ) ;
#253 = EDGE_CURVE ( 'NONE', #211, #37, #49, .T. ) ;
#254 = DIRECTION ( 'NONE',  ( -1.000000000000000000, 0.0000000000000000000, 0.0000000000000000000 ) ) ;
#255 = VECTOR ( 'NONE', #111, 39.37007874015748143 ) ;
#256 = CARTESIAN_POINT ( 'NONE',  ( 0.0000000000000000000, 0.0000000000000000000, 0.0000000000000000000 ) ) ;
#257 = ADVANCED_BREP_SHAPE_REPRESENTATION ( 'Micro_SHRM-120-4X', ( #263, #197 ), #210 ) ;
#258 = CARTESIAN_POINT ( 'NONE',  ( 0.0000000000000000000, 0.0000000000000000000, 0.0000000000000000000 ) ) ;
#259 = ORIENTED_EDGE ( 'NONE', *, *, #170, .F. ) ;
#260 = APPLICATION_CONTEXT ( 'automotive_design' ) ;
#261 = VECTOR ( 'NONE', #275, 39.37007874015748143 ) ;
#262 = ORIENTED_EDGE ( 'NONE', *, *, #75, .T. ) ;
#263 = MANIFOLD_SOLID_BREP ( 'Cut-Revolve1', #54 ) ;
#264 = ORIENTED_EDGE ( 'NONE', *, *, #62, .F. ) ;
#265 = VECTOR ( 'NONE', #24, 39.37007874015748854 ) ;
#266 = APPLICATION_CONTEXT ( 'automotive_design' ) ;
#267 = CARTESIAN_POINT ( 'NONE',  ( 0.0000000000000000000, 0.0000000000000000000, 3.252717000000002301 ) ) ;
#268 = DIRECTION ( 'NONE',  ( 1.224646799147353454E-16, 0.0000000000000000000, 1.000000000000000000 ) ) ;
#269 = PLANE ( 'NONE',  #23 ) ;
#270 = CIRCLE ( 'NONE', #2, 0.2362204999999999999 ) ;
#271 = DIRECTION ( 'NONE',  ( 0.0000000000000000000, 0.0000000000000000000, -1.000000000000000000 ) ) ;
#272 = ORIENTED_EDGE ( 'NONE', *, *, #66, .T. ) ;
#273 = ADVANCED_FACE ( 'NONE', ( #252 ), #185, .T. ) ;
#274 = CYLINDRICAL_SURFACE ( 'NONE', #297, 0.2359842795000000049 ) ;
#275 = DIRECTION ( 'NONE',  ( -1.224646799147353454E-16, -0.0000000000000000000, -1.000000000000000000 ) ) ;
#276 = DIMENSIONAL_EXPONENTS ( 1.000000000000000000, 0.0000000000000000000, 0.0000000000000000000, 0.0000000000000000000, 0.0000000000000000000, 0.0000000000000000000, 0.0000000000000000000 ) ;
#277 = EDGE_CURVE ( 'NONE', #31, #285, #13, .T. ) ;
#278 = PRESENTATION_STYLE_ASSIGNMENT (( #140 ) ) ;
#279 = DIMENSIONAL_EXPONENTS ( 1.000000000000000000, 0.0000000000000000000, 0.0000000000000000000, 0.0000000000000000000, 0.0000000000000000000, 0.0000000000000000000, 0.0000000000000000000 ) ;
#280 = CIRCLE ( 'NONE', #240, 0.2359842795000000049 ) ;
#281 = DIRECTION ( 'NONE',  ( 1.224646799147353454E-16, 0.0000000000000000000, 1.000000000000000000 ) ) ;
#282 = VERTEX_POINT ( 'NONE', #188 ) ;
#283 =( NAMED_UNIT ( * ) SI_UNIT ( $, .STERADIAN. ) SOLID_ANGLE_UNIT ( ) );
#284 = AXIS2_PLACEMENT_3D ( 'NONE', #72, #45, #254 ) ;
#285 = VERTEX_POINT ( 'NONE', #213 ) ;
#286 = CARTESIAN_POINT ( 'NONE',  ( -0.2359842794999998661, 2.889973925387693713E-17, 1.181102000000000096 ) ) ;
#287 = EDGE_CURVE ( 'NONE', #36, #211, #177, .T. ) ;
#288 = LENGTH_MEASURE_WITH_UNIT ( LENGTH_MEASURE( 0.02539999999999999897 ), #6 );
#289 = ORIENTED_EDGE ( 'NONE', *, *, #287, .T. ) ;
#290 = CARTESIAN_POINT ( 'NONE',  ( -0.2362204999999998611, 0.0000000000000000000, 1.182441673027071039 ) ) ;
#291 = VECTOR ( 'NONE', #181, 39.37007874015748143 ) ;
#292 = EDGE_CURVE ( 'NONE', #14, #31, #122, .T. ) ;
#293 = ORIENTED_EDGE ( 'NONE', *, *, #287, .F. ) ;
#294 = ORIENTED_EDGE ( 'NONE', *, *, #299, .F. ) ;
#295 = CARTESIAN_POINT ( 'NONE',  ( -0.2212205000000019295, 0.0000000000000000000, 3.267717000000000649 ) ) ;
#296 = UNCERTAINTY_MEASURE_WITH_UNIT (LENGTH_MEASURE( 1.000000000000000082E-05 ), #168, 'distance_accuracy_value', 'NONE');
#297 = AXIS2_PLACEMENT_3D ( 'NONE', #251, #229, #99 ) ;
#298 = CARTESIAN_POINT ( 'NONE',  ( 0.0000000000000000000, 0.0000000000000000000, 3.267717000000000649 ) ) ;
#299 = EDGE_CURVE ( 'NONE', #220, #14, #161, .T. ) ;
ENDSEC;
END-ISO-10303-21;
