ISO-10303-21;
HEADER;
FILE_DESCRIPTION (( 'STEP AP214' ),
    '1' );
FILE_NAME ('30332.STEP',
    '2023-06-22T18:19:18',
    ( '' ),
    ( '' ),
    'SwSTEP 2.0',
    'SolidWorks 2023',
    '' );
FILE_SCHEMA (( 'AUTOMOTIVE_DESIGN' ));
ENDSEC;

DATA;
#1 = MECHANICAL_DESIGN_GEOMETRIC_PRESENTATION_REPRESENTATION (  '', ( #239 ), #135 ) ;
#2 = AXIS2_PLACEMENT_3D ( 'NONE', #44, #254, #307 ) ;
#3 =( NAMED_UNIT ( * ) PLANE_ANGLE_UNIT ( ) SI_UNIT ( $, .RADIAN. ) );
#4 = DIRECTION ( 'NONE',  ( -0.000000000000000000, -1.000000000000000000, -0.000000000000000000 ) ) ;
#5 = STYLED_ITEM ( 'NONE', ( #97 ), #46 ) ;
#6 = ADVANCED_FACE ( 'NONE', ( #273 ), #201, .T. ) ;
#7 = DIRECTION ( 'NONE',  ( 0.000000000000000000, 0.000000000000000000, -1.000000000000000000 ) ) ;
#8 = DIRECTION ( 'NONE',  ( -0.000000000000000000, -1.000000000000000000, -0.000000000000000000 ) ) ;
#9 = LENGTH_MEASURE_WITH_UNIT ( LENGTH_MEASURE( 0.02539999999999999897 ), #221 );
#10 = ORIENTED_EDGE ( 'NONE', *, *, #206, .T. ) ;
#11 = APPLICATION_CONTEXT ( 'automotive_design' ) ;
#12 =( NAMED_UNIT ( * ) PLANE_ANGLE_UNIT ( ) SI_UNIT ( $, .RADIAN. ) );
#13 = PRODUCT ( '30332', '30332', '', ( #147 ) ) ;
#14 = DIRECTION ( 'NONE',  ( 1.000000000000000000, 5.763043760693429322E-17, 0.000000000000000000 ) ) ;
#15 = MANIFOLD_SOLID_BREP ( 'Revolve - Cutting Edge', #32 ) ;
#16 = AXIS2_PLACEMENT_3D ( 'NONE', #297, #152, #14 ) ;
#17 = SURFACE_STYLE_USAGE ( .BOTH. , #65 ) ;
#18 = ORIENTED_EDGE ( 'NONE', *, *, #242, .F. ) ;
#19 = EDGE_CURVE ( 'NONE', #252, #296, #128, .T. ) ;
#20 = DIRECTION ( 'NONE',  ( -0.000000000000000000, -1.000000000000000000, -0.000000000000000000 ) ) ;
#21 = FACE_OUTER_BOUND ( 'NONE', #222, .T. ) ;
#22 = DIRECTION ( 'NONE',  ( -0.000000000000000000, -1.000000000000000000, -0.000000000000000000 ) ) ;
#23 = AXIS2_PLACEMENT_3D ( 'NONE', #70, #4, #25 ) ;
#24 = LENGTH_MEASURE_WITH_UNIT ( LENGTH_MEASURE( 0.02539999999999999897 ), #241 );
#25 = DIRECTION ( 'NONE',  ( 0.000000000000000000, 0.000000000000000000, -1.000000000000000000 ) ) ;
#26 = CARTESIAN_POINT ( 'NONE',  ( 0.1875000000000000278, 3.000000000000000444, 2.296212748401288650E-17 ) ) ;
#27 = CARTESIAN_POINT ( 'NONE',  ( 0.000000000000000000, 0.000000000000000000, 0.000000000000000000 ) ) ;
#28 = FACE_OUTER_BOUND ( 'NONE', #205, .T. ) ;
#29 =( CONVERSION_BASED_UNIT ( 'INCH', #230 ) LENGTH_UNIT ( ) NAMED_UNIT ( #228 ) );
#30 = VERTEX_POINT ( 'NONE', #139 ) ;
#31 = CARTESIAN_POINT ( 'NONE',  ( 0.000000000000000000, 0.8750000000000000000, 0.000000000000000000 ) ) ;
#32 = CLOSED_SHELL ( 'NONE', ( #91, #231, #46, #62 ) ) ;
#33 = COLOUR_RGB ( '',0.7921568627450980005, 0.8196078431372548767, 0.9333333333333333481 ) ;
#34 = ORIENTED_EDGE ( 'NONE', *, *, #19, .F. ) ;
#35 = CARTESIAN_POINT ( 'NONE',  ( 3.113688130093824870E-34, 0.8750000000000000000, 0.000000000000000000 ) ) ;
#36 = ORIENTED_EDGE ( 'NONE', *, *, #95, .T. ) ;
#37 =( CONVERSION_BASED_UNIT ( 'INCH', #253 ) LENGTH_UNIT ( ) NAMED_UNIT ( #233 ) );
#38 =( NAMED_UNIT ( * ) PLANE_ANGLE_UNIT ( ) SI_UNIT ( $, .RADIAN. ) );
#39 = SURFACE_STYLE_FILL_AREA ( #63 ) ;
#40 = ORIENTED_EDGE ( 'NONE', *, *, #146, .F. ) ;
#41 = AXIS2_PLACEMENT_3D ( 'NONE', #27, #245, #220 ) ;
#42 = DIRECTION ( 'NONE',  ( -0.000000000000000000, -1.000000000000000000, -0.000000000000000000 ) ) ;
#43 = FACE_OUTER_BOUND ( 'NONE', #143, .T. ) ;
#44 = CARTESIAN_POINT ( 'NONE',  ( 1.516480271171051896E-32, 0.8749999999999997780, 0.000000000000000000 ) ) ;
#45 = MECHANICAL_DESIGN_GEOMETRIC_PRESENTATION_REPRESENTATION (  '', ( #5 ), #282 ) ;
#46 = ADVANCED_FACE ( 'NONE', ( #164 ), #47, .T. ) ;
#47 = CYLINDRICAL_SURFACE ( 'NONE', #23, 0.1875000000000000278 ) ;
#48 = ADVANCED_FACE ( 'NONE', ( #43 ), #140, .T. ) ;
#49 = PRESENTATION_STYLE_ASSIGNMENT (( #149 ) ) ;
#50 = CARTESIAN_POINT ( 'NONE',  ( -0.1875000000000002776, 3.000000000000000444, 0.000000000000000000 ) ) ;
#51 = COLOUR_RGB ( '',1.000000000000000000, 0.000000000000000000, 0.000000000000000000 ) ;
#52 = DIRECTION ( 'NONE',  ( 0.000000000000000000, 0.000000000000000000, -1.000000000000000000 ) ) ;
#53 = COLOUR_RGB ( '',1.000000000000000000, 0.000000000000000000, 0.000000000000000000 ) ;
#54 =( NAMED_UNIT ( * ) SI_UNIT ( $, .STERADIAN. ) SOLID_ANGLE_UNIT ( ) );
#55 =( LENGTH_UNIT ( ) NAMED_UNIT ( * ) SI_UNIT ( $, .METRE. ) );
#56 = ORIENTED_EDGE ( 'NONE', *, *, #159, .T. ) ;
#57 = PLANE ( 'NONE',  #216 ) ;
#58 = CIRCLE ( 'NONE', #266, 0.1875000000000000278 ) ;
#59 = ORIENTED_EDGE ( 'NONE', *, *, #263, .F. ) ;
#60 = CARTESIAN_POINT ( 'NONE',  ( -0.1875000000000000278, 0.8749999999999997780, 0.000000000000000000 ) ) ;
#61 = CARTESIAN_POINT ( 'NONE',  ( 0.000000000000000000, 0.000000000000000000, 0.000000000000000000 ) ) ;
#62 = ADVANCED_FACE ( 'NONE', ( #21 ), #208, .T. ) ;
#63 = FILL_AREA_STYLE ('',( #278 ) ) ;
#64 = EDGE_LOOP ( 'NONE', ( #18, #40 ) ) ;
#65 = SURFACE_SIDE_STYLE ('',( #39 ) ) ;
#66 = FILL_AREA_STYLE_COLOUR ( '', #51 ) ;
#67 = SURFACE_SIDE_STYLE ('',( #161 ) ) ;
#68 = ADVANCED_BREP_SHAPE_REPRESENTATION ( '30332', ( #15, #217, #41 ), #194 ) ;
#69 = CIRCLE ( 'NONE', #90, 0.1875000000000001388 ) ;
#70 = CARTESIAN_POINT ( 'NONE',  ( 0.000000000000000000, 0.000000000000000000, 0.000000000000000000 ) ) ;
#71 = SURFACE_STYLE_FILL_AREA ( #214 ) ;
#72 = MECHANICAL_DESIGN_GEOMETRIC_PRESENTATION_REPRESENTATION (  '', ( #158 ), #192 ) ;
#73 = VECTOR ( 'NONE', #42, 39.37007874015748143 ) ;
#74 =( LENGTH_UNIT ( ) NAMED_UNIT ( * ) SI_UNIT ( $, .METRE. ) );
#75 = DIRECTION ( 'NONE',  ( -5.763043760693429322E-17, 1.000000000000000000, 0.000000000000000000 ) ) ;
#76 = DIRECTION ( 'NONE',  ( -1.000000000000000000, 0.000000000000000000, 0.000000000000000000 ) ) ;
#77 = MECHANICAL_DESIGN_GEOMETRIC_PRESENTATION_REPRESENTATION (  '', ( #249 ), #234 ) ;
#78 = EDGE_CURVE ( 'NONE', #296, #109, #138, .T. ) ;
#79 = EDGE_LOOP ( 'NONE', ( #154, #277 ) ) ;
#80 = CARTESIAN_POINT ( 'NONE',  ( 0.000000000000000000, 0.8750000000000000000, -0.1875000000000000278 ) ) ;
#81 = VERTEX_POINT ( 'NONE', #80 ) ;
#82 = CIRCLE ( 'NONE', #301, 0.1875000000000000278 ) ;
#83 = AXIS2_PLACEMENT_3D ( 'NONE', #61, #22, #236 ) ;
#84 = EDGE_LOOP ( 'NONE', ( #199, #255 ) ) ;
#85 = EDGE_CURVE ( 'NONE', #106, #107, #58, .T. ) ;
#86 = CARTESIAN_POINT ( 'NONE',  ( 0.1875000000000000278, 0.8749999999999997780, 2.296212748401288650E-17 ) ) ;
#87 = ORIENTED_EDGE ( 'NONE', *, *, #185, .F. ) ;
#88 = PLANE ( 'NONE',  #262 ) ;
#89 = AXIS2_PLACEMENT_3D ( 'NONE', #123, #267, #168 ) ;
#90 = AXIS2_PLACEMENT_3D ( 'NONE', #258, #134, #281 ) ;
#91 = ADVANCED_FACE ( 'NONE', ( #28 ), #121, .T. ) ;
#92 = UNCERTAINTY_MEASURE_WITH_UNIT (LENGTH_MEASURE( 1.000000000000000082E-05 ), #179, 'distance_accuracy_value', 'NONE');
#93 = FILL_AREA_STYLE_COLOUR ( '', #148 ) ;
#94 = AXIS2_PLACEMENT_3D ( 'NONE', #303, #20, #153 ) ;
#95 = EDGE_CURVE ( 'NONE', #207, #252, #166, .T. ) ;
#96 = SURFACE_STYLE_USAGE ( .BOTH. , #285 ) ;
#97 = PRESENTATION_STYLE_ASSIGNMENT (( #186 ) ) ;
#98 = CARTESIAN_POINT ( 'NONE',  ( -0.1875000000000002220, 3.000000000000000444, 0.000000000000000000 ) ) ;
#99 = FILL_AREA_STYLE_COLOUR ( '', #309 ) ;
#100 = UNCERTAINTY_MEASURE_WITH_UNIT (LENGTH_MEASURE( 1.000000000000000082E-05 ), #264, 'distance_accuracy_value', 'NONE');
#101 = CARTESIAN_POINT ( 'NONE',  ( 0.000000000000000000, 0.8750000000000000000, 0.000000000000000000 ) ) ;
#102 = APPLICATION_PROTOCOL_DEFINITION ( 'draft international standard', 'automotive_design', 1998, #279 ) ;
#103 = VECTOR ( 'NONE', #184, 39.37007874015748143 ) ;
#104 =( CONVERSION_BASED_UNIT ( 'INCH', #9 ) LENGTH_UNIT ( ) NAMED_UNIT ( #175 ) );
#105 = CIRCLE ( 'NONE', #83, 0.1875000000000000278 ) ;
#106 = VERTEX_POINT ( 'NONE', #173 ) ;
#107 = VERTEX_POINT ( 'NONE', #274 ) ;
#108 = APPLICATION_PROTOCOL_DEFINITION ( 'draft international standard', 'automotive_design', 1998, #11 ) ;
#109 = VERTEX_POINT ( 'NONE', #26 ) ;
#110 = AXIS2_PLACEMENT_3D ( 'NONE', #226, #248, #299 ) ;
#111 = ORIENTED_EDGE ( 'NONE', *, *, #211, .T. ) ;
#112 = PRESENTATION_STYLE_ASSIGNMENT (( #17 ) ) ;
#113 = ORIENTED_EDGE ( 'NONE', *, *, #242, .T. ) ;
#114 = SURFACE_STYLE_USAGE ( .BOTH. , #67 ) ;
#115 = SURFACE_SIDE_STYLE ('',( #167 ) ) ;
#116 = CARTESIAN_POINT ( 'NONE',  ( 0.1874999999999999445, 3.000000000000000444, 2.296212748401288342E-17 ) ) ;
#117 = STYLED_ITEM ( 'NONE', ( #112 ), #231 ) ;
#118 =( GEOMETRIC_REPRESENTATION_CONTEXT ( 3 ) GLOBAL_UNCERTAINTY_ASSIGNED_CONTEXT ( ( #218 ) ) GLOBAL_UNIT_ASSIGNED_CONTEXT ( ( #29, #172, #197 ) ) REPRESENTATION_CONTEXT ( 'NONE', 'WORKASPACE' ) );
#119 =( NAMED_UNIT ( * ) PLANE_ANGLE_UNIT ( ) SI_UNIT ( $, .RADIAN. ) );
#120 = ADVANCED_FACE ( 'NONE', ( #170 ), #57, .F. ) ;
#121 = CYLINDRICAL_SURFACE ( 'NONE', #203, 0.1875000000000000278 ) ;
#122 = LINE ( 'NONE', #268, #280 ) ;
#123 = CARTESIAN_POINT ( 'NONE',  ( -1.224646799147353700E-16, 3.000000000000000444, 0.000000000000000000 ) ) ;
#124 = ORIENTED_EDGE ( 'NONE', *, *, #185, .T. ) ;
#125 = DIRECTION ( 'NONE',  ( -0.000000000000000000, -1.000000000000000000, -0.000000000000000000 ) ) ;
#126 = ORIENTED_EDGE ( 'NONE', *, *, #146, .T. ) ;
#127 = PRODUCT_DEFINITION ( 'UNKNOWN', '', #287, #289 ) ;
#128 = LINE ( 'NONE', #98, #103 ) ;
#129 =( LENGTH_UNIT ( ) NAMED_UNIT ( * ) SI_UNIT ( $, .METRE. ) );
#130 = AXIS2_PLACEMENT_3D ( 'NONE', #190, #291, #76 ) ;
#131 = FILL_AREA_STYLE_COLOUR ( '', #33 ) ;
#132 = CARTESIAN_POINT ( 'NONE',  ( -1.224646799147353700E-16, 3.000000000000000444, 0.000000000000000000 ) ) ;
#133 = PRODUCT_RELATED_PRODUCT_CATEGORY ( 'part', '', ( #13 ) ) ;
#134 = DIRECTION ( 'NONE',  ( -5.763043760693429322E-17, 1.000000000000000000, -0.000000000000000000 ) ) ;
#135 =( GEOMETRIC_REPRESENTATION_CONTEXT ( 3 ) GLOBAL_UNCERTAINTY_ASSIGNED_CONTEXT ( ( #182 ) ) GLOBAL_UNIT_ASSIGNED_CONTEXT ( ( #137, #119, #237 ) ) REPRESENTATION_CONTEXT ( 'NONE', 'WORKASPACE' ) );
#136 = SURFACE_STYLE_USAGE ( .BOTH. , #213 ) ;
#137 =( CONVERSION_BASED_UNIT ( 'INCH', #284 ) LENGTH_UNIT ( ) NAMED_UNIT ( #162 ) );
#138 = CIRCLE ( 'NONE', #89, 0.1875000000000001388 ) ;
#139 = CARTESIAN_POINT ( 'NONE',  ( 2.296212748401287726E-17, 0.8750000000000000000, 0.1875000000000000278 ) ) ;
#140 = CYLINDRICAL_SURFACE ( 'NONE', #261, 0.1875000000000000833 ) ;
#141 = PRESENTATION_LAYER_ASSIGNMENT (  '', '', ( #158 ) ) ;
#142 =( GEOMETRIC_REPRESENTATION_CONTEXT ( 3 ) GLOBAL_UNCERTAINTY_ASSIGNED_CONTEXT ( ( #92 ) ) GLOBAL_UNIT_ASSIGNED_CONTEXT ( ( #179, #38, #276 ) ) REPRESENTATION_CONTEXT ( 'NONE', 'WORKASPACE' ) );
#143 = EDGE_LOOP ( 'NONE', ( #171, #36, #304, #178 ) ) ;
#144 = SURFACE_STYLE_FILL_AREA ( #272 ) ;
#145 = EDGE_LOOP ( 'NONE', ( #59, #126, #124, #156 ) ) ;
#146 = EDGE_CURVE ( 'NONE', #30, #81, #283, .T. ) ;
#147 = PRODUCT_CONTEXT ( 'NONE', #279, 'mechanical' ) ;
#148 = COLOUR_RGB ( '',1.000000000000000000, 0.000000000000000000, 0.000000000000000000 ) ;
#149 = SURFACE_STYLE_USAGE ( .BOTH. , #188 ) ;
#150 = PRESENTATION_LAYER_ASSIGNMENT (  '', '', ( #292 ) ) ;
#151 = ORIENTED_EDGE ( 'NONE', *, *, #78, .F. ) ;
#152 = DIRECTION ( 'NONE',  ( 5.763043760693429322E-17, -1.000000000000000000, 0.000000000000000000 ) ) ;
#153 = DIRECTION ( 'NONE',  ( 0.000000000000000000, 0.000000000000000000, -1.000000000000000000 ) ) ;
#154 = ORIENTED_EDGE ( 'NONE', *, *, #206, .F. ) ;
#155 = DIRECTION ( 'NONE',  ( -1.000000000000000000, -5.763043760693429322E-17, 0.000000000000000000 ) ) ;
#156 = ORIENTED_EDGE ( 'NONE', *, *, #85, .F. ) ;
#157 = DIRECTION ( 'NONE',  ( -5.763043760693429322E-17, 1.000000000000000000, -0.000000000000000000 ) ) ;
#158 = STYLED_ITEM ( 'NONE', ( #271 ), #62 ) ;
#159 = EDGE_CURVE ( 'NONE', #207, #109, #300, .T. ) ;
#160 = PRESENTATION_STYLE_ASSIGNMENT (( #96 ) ) ;
#161 = SURFACE_STYLE_FILL_AREA ( #235 ) ;
#162 = DIMENSIONAL_EXPONENTS ( 1.000000000000000000, 0.000000000000000000, 0.000000000000000000, 0.000000000000000000, 0.000000000000000000, 0.000000000000000000, 0.000000000000000000 ) ;
#163 = PRESENTATION_LAYER_ASSIGNMENT (  '', '', ( #117 ) ) ;
#164 = FACE_OUTER_BOUND ( 'NONE', #145, .T. ) ;
#165 = DIRECTION ( 'NONE',  ( -1.000000000000000000, 0.000000000000000000, 0.000000000000000000 ) ) ;
#166 = CIRCLE ( 'NONE', #130, 0.1875000000000000278 ) ;
#167 = SURFACE_STYLE_FILL_AREA ( #215 ) ;
#168 = DIRECTION ( 'NONE',  ( -1.000000000000000000, 0.000000000000000000, 0.000000000000000000 ) ) ;
#169 = DIRECTION ( 'NONE',  ( 0.000000000000000000, -0.000000000000000000, 1.000000000000000000 ) ) ;
#170 = FACE_OUTER_BOUND ( 'NONE', #79, .T. ) ;
#171 = ORIENTED_EDGE ( 'NONE', *, *, #159, .F. ) ;
#172 =( NAMED_UNIT ( * ) PLANE_ANGLE_UNIT ( ) SI_UNIT ( $, .RADIAN. ) );
#173 = CARTESIAN_POINT ( 'NONE',  ( 2.296212748401287726E-17, 0.000000000000000000, 0.1875000000000000278 ) ) ;
#174 = EDGE_CURVE ( 'NONE', #109, #296, #69, .T. ) ;
#175 = DIMENSIONAL_EXPONENTS ( 1.000000000000000000, 0.000000000000000000, 0.000000000000000000, 0.000000000000000000, 0.000000000000000000, 0.000000000000000000, 0.000000000000000000 ) ;
#176 = DIRECTION ( 'NONE',  ( 0.000000000000000000, 0.000000000000000000, -1.000000000000000000 ) ) ;
#177 = LENGTH_MEASURE_WITH_UNIT ( LENGTH_MEASURE( 0.02539999999999999897 ), #209 );
#178 = ORIENTED_EDGE ( 'NONE', *, *, #174, .F. ) ;
#179 =( CONVERSION_BASED_UNIT ( 'INCH', #177 ) LENGTH_UNIT ( ) NAMED_UNIT ( #200 ) );
#180 = ORIENTED_EDGE ( 'NONE', *, *, #85, .T. ) ;
#181 =( LENGTH_UNIT ( ) NAMED_UNIT ( * ) SI_UNIT ( $, .METRE. ) );
#182 = UNCERTAINTY_MEASURE_WITH_UNIT (LENGTH_MEASURE( 1.000000000000000082E-05 ), #137, 'distance_accuracy_value', 'NONE');
#183 = LINE ( 'NONE', #204, #73 ) ;
#184 = DIRECTION ( 'NONE',  ( -5.763043760693429322E-17, 1.000000000000000000, -0.000000000000000000 ) ) ;
#185 = EDGE_CURVE ( 'NONE', #81, #107, #183, .T. ) ;
#186 = SURFACE_STYLE_USAGE ( .BOTH. , #115 ) ;
#187 = AXIS2_PLACEMENT_3D ( 'NONE', #247, #288, #7 ) ;
#188 = SURFACE_SIDE_STYLE ('',( #144 ) ) ;
#189 = DIRECTION ( 'NONE',  ( -0.000000000000000000, -1.000000000000000000, -0.000000000000000000 ) ) ;
#190 = CARTESIAN_POINT ( 'NONE',  ( 1.516480271171051896E-32, 0.8749999999999997780, 0.000000000000000000 ) ) ;
#191 = UNCERTAINTY_MEASURE_WITH_UNIT (LENGTH_MEASURE( 1.000000000000000082E-05 ), #104, 'distance_accuracy_value', 'NONE');
#192 =( GEOMETRIC_REPRESENTATION_CONTEXT ( 3 ) GLOBAL_UNCERTAINTY_ASSIGNED_CONTEXT ( ( #275 ) ) GLOBAL_UNIT_ASSIGNED_CONTEXT ( ( #246, #243, #219 ) ) REPRESENTATION_CONTEXT ( 'NONE', 'WORKASPACE' ) );
#193 =( NAMED_UNIT ( * ) PLANE_ANGLE_UNIT ( ) SI_UNIT ( $, .RADIAN. ) );
#194 =( GEOMETRIC_REPRESENTATION_CONTEXT ( 3 ) GLOBAL_UNCERTAINTY_ASSIGNED_CONTEXT ( ( #295 ) ) GLOBAL_UNIT_ASSIGNED_CONTEXT ( ( #37, #193, #54 ) ) REPRESENTATION_CONTEXT ( 'NONE', 'WORKASPACE' ) );
#195 = DIRECTION ( 'NONE',  ( 0.000000000000000000, 0.000000000000000000, -1.000000000000000000 ) ) ;
#196 = DIMENSIONAL_EXPONENTS ( 1.000000000000000000, 0.000000000000000000, 0.000000000000000000, 0.000000000000000000, 0.000000000000000000, 0.000000000000000000, 0.000000000000000000 ) ;
#197 =( NAMED_UNIT ( * ) SI_UNIT ( $, .STERADIAN. ) SOLID_ANGLE_UNIT ( ) );
#198 = CARTESIAN_POINT ( 'NONE',  ( 0.000000000000000000, 0.000000000000000000, 0.000000000000000000 ) ) ;
#199 = ORIENTED_EDGE ( 'NONE', *, *, #78, .T. ) ;
#200 = DIMENSIONAL_EXPONENTS ( 1.000000000000000000, 0.000000000000000000, 0.000000000000000000, 0.000000000000000000, 0.000000000000000000, 0.000000000000000000, 0.000000000000000000 ) ;
#201 = CYLINDRICAL_SURFACE ( 'NONE', #110, 0.1875000000000000833 ) ;
#202 = PRESENTATION_LAYER_ASSIGNMENT (  '', '', ( #5 ) ) ;
#203 = AXIS2_PLACEMENT_3D ( 'NONE', #198, #298, #52 ) ;
#204 = CARTESIAN_POINT ( 'NONE',  ( 0.000000000000000000, 0.000000000000000000, -0.1875000000000000278 ) ) ;
#205 = EDGE_LOOP ( 'NONE', ( #113, #305, #257, #87 ) ) ;
#206 = EDGE_CURVE ( 'NONE', #252, #207, #270, .T. ) ;
#207 = VERTEX_POINT ( 'NONE', #86 ) ;
#208 = PLANE ( 'NONE',  #187 ) ;
#209 =( LENGTH_UNIT ( ) NAMED_UNIT ( * ) SI_UNIT ( $, .METRE. ) );
#210 = CLOSED_SHELL ( 'NONE', ( #6, #120, #48, #306 ) ) ;
#211 = EDGE_CURVE ( 'NONE', #107, #106, #105, .T. ) ;
#212 = PRESENTATION_LAYER_ASSIGNMENT (  '', '', ( #249 ) ) ;
#213 = SURFACE_SIDE_STYLE ('',( #238 ) ) ;
#214 = FILL_AREA_STYLE ('',( #229 ) ) ;
#215 = FILL_AREA_STYLE ('',( #66 ) ) ;
#216 = AXIS2_PLACEMENT_3D ( 'NONE', #35, #75, #155 ) ;
#217 = MANIFOLD_SOLID_BREP ( 'Revolve - Tool Body (Straight Shanked)', #210 ) ;
#218 = UNCERTAINTY_MEASURE_WITH_UNIT (LENGTH_MEASURE( 1.000000000000000082E-05 ), #29, 'distance_accuracy_value', 'NONE');
#219 =( NAMED_UNIT ( * ) SI_UNIT ( $, .STERADIAN. ) SOLID_ANGLE_UNIT ( ) );
#220 = DIRECTION ( 'NONE',  ( 1.000000000000000000, 0.000000000000000000, 0.000000000000000000 ) ) ;
#221 =( LENGTH_UNIT ( ) NAMED_UNIT ( * ) SI_UNIT ( $, .METRE. ) );
#222 = EDGE_LOOP ( 'NONE', ( #111, #180 ) ) ;
#223 = COLOUR_RGB ( '',0.7921568627450980005, 0.8196078431372548767, 0.9333333333333333481 ) ;
#224 = DIMENSIONAL_EXPONENTS ( 1.000000000000000000, 0.000000000000000000, 0.000000000000000000, 0.000000000000000000, 0.000000000000000000, 0.000000000000000000, 0.000000000000000000 ) ;
#225 =( NAMED_UNIT ( * ) SI_UNIT ( $, .STERADIAN. ) SOLID_ANGLE_UNIT ( ) );
#226 = CARTESIAN_POINT ( 'NONE',  ( -1.224646799147353700E-16, 3.000000000000000444, 0.000000000000000000 ) ) ;
#227 = CARTESIAN_POINT ( 'NONE',  ( 0.000000000000000000, 0.000000000000000000, 0.000000000000000000 ) ) ;
#228 = DIMENSIONAL_EXPONENTS ( 1.000000000000000000, 0.000000000000000000, 0.000000000000000000, 0.000000000000000000, 0.000000000000000000, 0.000000000000000000, 0.000000000000000000 ) ;
#229 = FILL_AREA_STYLE_COLOUR ( '', #223 ) ;
#230 = LENGTH_MEASURE_WITH_UNIT ( LENGTH_MEASURE( 0.02539999999999999897 ), #181 );
#231 = ADVANCED_FACE ( 'NONE', ( #256 ), #88, .T. ) ;
#232 = EDGE_LOOP ( 'NONE', ( #10, #56, #151, #34 ) ) ;
#233 = DIMENSIONAL_EXPONENTS ( 1.000000000000000000, 0.000000000000000000, 0.000000000000000000, 0.000000000000000000, 0.000000000000000000, 0.000000000000000000, 0.000000000000000000 ) ;
#234 =( GEOMETRIC_REPRESENTATION_CONTEXT ( 3 ) GLOBAL_UNCERTAINTY_ASSIGNED_CONTEXT ( ( #191 ) ) GLOBAL_UNIT_ASSIGNED_CONTEXT ( ( #104, #12, #225 ) ) REPRESENTATION_CONTEXT ( 'NONE', 'WORKASPACE' ) );
#235 = FILL_AREA_STYLE ('',( #131 ) ) ;
#236 = DIRECTION ( 'NONE',  ( 0.000000000000000000, 0.000000000000000000, -1.000000000000000000 ) ) ;
#237 =( NAMED_UNIT ( * ) SI_UNIT ( $, .STERADIAN. ) SOLID_ANGLE_UNIT ( ) );
#238 = SURFACE_STYLE_FILL_AREA ( #265 ) ;
#239 = STYLED_ITEM ( 'NONE', ( #160 ), #15 ) ;
#240 = MECHANICAL_DESIGN_GEOMETRIC_PRESENTATION_REPRESENTATION (  '', ( #117 ), #118 ) ;
#241 =( LENGTH_UNIT ( ) NAMED_UNIT ( * ) SI_UNIT ( $, .METRE. ) );
#242 = EDGE_CURVE ( 'NONE', #81, #30, #82, .T. ) ;
#243 =( NAMED_UNIT ( * ) PLANE_ANGLE_UNIT ( ) SI_UNIT ( $, .RADIAN. ) );
#244 = MECHANICAL_DESIGN_GEOMETRIC_PRESENTATION_REPRESENTATION (  '', ( #292 ), #142 ) ;
#245 = DIRECTION ( 'NONE',  ( 0.000000000000000000, 0.000000000000000000, 1.000000000000000000 ) ) ;
#246 =( CONVERSION_BASED_UNIT ( 'INCH', #294 ) LENGTH_UNIT ( ) NAMED_UNIT ( #224 ) );
#247 = CARTESIAN_POINT ( 'NONE',  ( 0.000000000000000000, 0.000000000000000000, 0.000000000000000000 ) ) ;
#248 = DIRECTION ( 'NONE',  ( -5.763043760693429322E-17, 1.000000000000000000, -0.000000000000000000 ) ) ;
#249 = STYLED_ITEM ( 'NONE', ( #49 ), #91 ) ;
#250 = PLANE ( 'NONE',  #16 ) ;
#251 = VECTOR ( 'NONE', #157, 39.37007874015748143 ) ;
#252 = VERTEX_POINT ( 'NONE', #60 ) ;
#253 = LENGTH_MEASURE_WITH_UNIT ( LENGTH_MEASURE( 0.02539999999999999897 ), #129 );
#254 = DIRECTION ( 'NONE',  ( -5.763043760693429322E-17, 1.000000000000000000, -0.000000000000000000 ) ) ;
#255 = ORIENTED_EDGE ( 'NONE', *, *, #174, .T. ) ;
#256 = FACE_OUTER_BOUND ( 'NONE', #64, .T. ) ;
#257 = ORIENTED_EDGE ( 'NONE', *, *, #211, .F. ) ;
#258 = CARTESIAN_POINT ( 'NONE',  ( -1.224646799147353700E-16, 3.000000000000000444, 0.000000000000000000 ) ) ;
#259 = PRESENTATION_STYLE_ASSIGNMENT (( #114 ) ) ;
#260 = PRODUCT_DEFINITION_SHAPE ( 'NONE', 'NONE',  #127 ) ;
#261 = AXIS2_PLACEMENT_3D ( 'NONE', #132, #308, #165 ) ;
#262 = AXIS2_PLACEMENT_3D ( 'NONE', #101, #302, #169 ) ;
#263 = EDGE_CURVE ( 'NONE', #30, #106, #122, .T. ) ;
#264 =( CONVERSION_BASED_UNIT ( 'INCH', #24 ) LENGTH_UNIT ( ) NAMED_UNIT ( #196 ) );
#265 = FILL_AREA_STYLE ('',( #93 ) ) ;
#266 = AXIS2_PLACEMENT_3D ( 'NONE', #227, #125, #195 ) ;
#267 = DIRECTION ( 'NONE',  ( -5.763043760693429322E-17, 1.000000000000000000, -0.000000000000000000 ) ) ;
#268 = CARTESIAN_POINT ( 'NONE',  ( 2.296212748401287726E-17, 0.000000000000000000, 0.1875000000000000278 ) ) ;
#269 = PRESENTATION_LAYER_ASSIGNMENT (  '', '', ( #239 ) ) ;
#270 = CIRCLE ( 'NONE', #2, 0.1875000000000000278 ) ;
#271 = PRESENTATION_STYLE_ASSIGNMENT (( #136 ) ) ;
#272 = FILL_AREA_STYLE ('',( #99 ) ) ;
#273 = FACE_OUTER_BOUND ( 'NONE', #232, .T. ) ;
#274 = CARTESIAN_POINT ( 'NONE',  ( 0.000000000000000000, 0.000000000000000000, -0.1875000000000000278 ) ) ;
#275 = UNCERTAINTY_MEASURE_WITH_UNIT (LENGTH_MEASURE( 1.000000000000000082E-05 ), #246, 'distance_accuracy_value', 'NONE');
#276 =( NAMED_UNIT ( * ) SI_UNIT ( $, .STERADIAN. ) SOLID_ANGLE_UNIT ( ) );
#277 = ORIENTED_EDGE ( 'NONE', *, *, #95, .F. ) ;
#278 = FILL_AREA_STYLE_COLOUR ( '', #53 ) ;
#279 = APPLICATION_CONTEXT ( 'automotive_design' ) ;
#280 = VECTOR ( 'NONE', #8, 39.37007874015748143 ) ;
#281 = DIRECTION ( 'NONE',  ( -1.000000000000000000, 0.000000000000000000, 0.000000000000000000 ) ) ;
#282 =( GEOMETRIC_REPRESENTATION_CONTEXT ( 3 ) GLOBAL_UNCERTAINTY_ASSIGNED_CONTEXT ( ( #100 ) ) GLOBAL_UNIT_ASSIGNED_CONTEXT ( ( #264, #3, #286 ) ) REPRESENTATION_CONTEXT ( 'NONE', 'WORKASPACE' ) );
#283 = CIRCLE ( 'NONE', #94, 0.1875000000000000278 ) ;
#284 = LENGTH_MEASURE_WITH_UNIT ( LENGTH_MEASURE( 0.02539999999999999897 ), #74 );
#285 = SURFACE_SIDE_STYLE ('',( #71 ) ) ;
#286 =( NAMED_UNIT ( * ) SI_UNIT ( $, .STERADIAN. ) SOLID_ANGLE_UNIT ( ) );
#287 = PRODUCT_DEFINITION_FORMATION_WITH_SPECIFIED_SOURCE ( 'ANY', '', #13, .NOT_KNOWN. ) ;
#288 = DIRECTION ( 'NONE',  ( 0.000000000000000000, -1.000000000000000000, -0.000000000000000000 ) ) ;
#289 = PRODUCT_DEFINITION_CONTEXT ( 'detailed design', #11, 'design' ) ;
#290 = FACE_OUTER_BOUND ( 'NONE', #84, .T. ) ;
#291 = DIRECTION ( 'NONE',  ( -5.763043760693429322E-17, 1.000000000000000000, -0.000000000000000000 ) ) ;
#292 = STYLED_ITEM ( 'NONE', ( #259 ), #217 ) ;
#293 = SHAPE_DEFINITION_REPRESENTATION ( #260, #68 ) ;
#294 = LENGTH_MEASURE_WITH_UNIT ( LENGTH_MEASURE( 0.02539999999999999897 ), #55 );
#295 = UNCERTAINTY_MEASURE_WITH_UNIT (LENGTH_MEASURE( 1.000000000000000082E-05 ), #37, 'distance_accuracy_value', 'NONE');
#296 = VERTEX_POINT ( 'NONE', #50 ) ;
#297 = CARTESIAN_POINT ( 'NONE',  ( 0.1875000000000000278, 3.000000000000000444, 0.000000000000000000 ) ) ;
#298 = DIRECTION ( 'NONE',  ( -0.000000000000000000, -1.000000000000000000, -0.000000000000000000 ) ) ;
#299 = DIRECTION ( 'NONE',  ( -1.000000000000000000, 0.000000000000000000, 0.000000000000000000 ) ) ;
#300 = LINE ( 'NONE', #116, #251 ) ;
#301 = AXIS2_PLACEMENT_3D ( 'NONE', #31, #189, #176 ) ;
#302 = DIRECTION ( 'NONE',  ( 0.000000000000000000, 1.000000000000000000, 0.000000000000000000 ) ) ;
#303 = CARTESIAN_POINT ( 'NONE',  ( 0.000000000000000000, 0.8750000000000000000, 0.000000000000000000 ) ) ;
#304 = ORIENTED_EDGE ( 'NONE', *, *, #19, .T. ) ;
#305 = ORIENTED_EDGE ( 'NONE', *, *, #263, .T. ) ;
#306 = ADVANCED_FACE ( 'NONE', ( #290 ), #250, .F. ) ;
#307 = DIRECTION ( 'NONE',  ( -1.000000000000000000, 0.000000000000000000, 0.000000000000000000 ) ) ;
#308 = DIRECTION ( 'NONE',  ( -5.763043760693429322E-17, 1.000000000000000000, -0.000000000000000000 ) ) ;
#309 = COLOUR_RGB ( '',1.000000000000000000, 0.000000000000000000, 0.000000000000000000 ) ;
ENDSEC;
END-ISO-10303-21;
