ISO-10303-21;
HEADER;
FILE_DESCRIPTION (( 'STEP AP214' ),
    '1' );
FILE_NAME ('49036.STEP',
    '2023-06-30T21:55:44',
    ( '' ),
    ( '' ),
    'SwSTEP 2.0',
    'SolidWorks 2023',
    '' );
FILE_SCHEMA (( 'AUTOMOTIVE_DESIGN' ));
ENDSEC;

DATA;
#1 = SURFACE_STYLE_USAGE ( .BOTH. , #140 ) ;
#2 = DIRECTION ( 'NONE',  ( -0.000000000000000000, -1.000000000000000000, -0.000000000000000000 ) ) ;
#3 = ORIENTED_EDGE ( 'NONE', *, *, #45, .T. ) ;
#4 = FILL_AREA_STYLE_COLOUR ( '', #284 ) ;
#5 = PRESENTATION_LAYER_ASSIGNMENT (  '', '', ( #232 ) ) ;
#6 = DIRECTION ( 'NONE',  ( 1.000000000000000000, 0.000000000000000000, 0.000000000000000000 ) ) ;
#7 = CARTESIAN_POINT ( 'NONE',  ( -0.06249999999999997224, 2.000000000000000000, 0.000000000000000000 ) ) ;
#8 = DIRECTION ( 'NONE',  ( -1.000000000000000000, -1.224646799147353207E-16, 0.000000000000000000 ) ) ;
#9 = DIRECTION ( 'NONE',  ( 0.000000000000000000, -0.000000000000000000, 1.000000000000000000 ) ) ;
#10 = CARTESIAN_POINT ( 'NONE',  ( -7.654042494670957545E-18, 0.06250000000000001388, 0.000000000000000000 ) ) ;
#11 = EDGE_CURVE ( 'NONE', #44, #160, #268, .T. ) ;
#12 = STYLED_ITEM ( 'NONE', ( #173 ), #315 ) ;
#13 = DIRECTION ( 'NONE',  ( -1.000000000000000000, 0.000000000000000000, 0.000000000000000000 ) ) ;
#14 = CARTESIAN_POINT ( 'NONE',  ( 0.000000000000000000, 0.3750000000000000555, 0.000000000000000000 ) ) ;
#15 = VERTEX_POINT ( 'NONE', #170 ) ;
#16 =( NAMED_UNIT ( * ) PLANE_ANGLE_UNIT ( ) SI_UNIT ( $, .RADIAN. ) );
#17 = CARTESIAN_POINT ( 'NONE',  ( 0.000000000000000000, 0.000000000000000000, 0.000000000000000000 ) ) ;
#18 = DIRECTION ( 'NONE',  ( 0.000000000000000000, 0.000000000000000000, -1.000000000000000000 ) ) ;
#19 = SURFACE_SIDE_STYLE ('',( #339 ) ) ;
#20 = ORIENTED_EDGE ( 'NONE', *, *, #111, .F. ) ;
#21 = CARTESIAN_POINT ( 'NONE',  ( 7.654042494670951382E-18, 0.3750000000000000555, 0.06249999999999995143 ) ) ;
#22 = PRODUCT_RELATED_PRODUCT_CATEGORY ( 'part', '', ( #231 ) ) ;
#23 = AXIS2_PLACEMENT_3D ( 'NONE', #359, #120, #296 ) ;
#24 = SURFACE_STYLE_FILL_AREA ( #217 ) ;
#25 = FILL_AREA_STYLE_COLOUR ( '', #200 ) ;
#26 = DIRECTION ( 'NONE',  ( -1.000000000000000000, 0.000000000000000000, 0.000000000000000000 ) ) ;
#27 = SURFACE_STYLE_FILL_AREA ( #288 ) ;
#28 = UNCERTAINTY_MEASURE_WITH_UNIT (LENGTH_MEASURE( 1.000000000000000082E-05 ), #295, 'distance_accuracy_value', 'NONE');
#29 =( CONVERSION_BASED_UNIT ( 'INCH', #363 ) LENGTH_UNIT ( ) NAMED_UNIT ( #105 ) );
#30 = SURFACE_STYLE_FILL_AREA ( #85 ) ;
#31 = CIRCLE ( 'NONE', #352, 0.06249999999999995143 ) ;
#32 = PLANE ( 'NONE',  #366 ) ;
#33 = EDGE_CURVE ( 'NONE', #160, #206, #312, .T. ) ;
#34 = CARTESIAN_POINT ( 'NONE',  ( 7.654042494670951382E-18, 0.06250000000000001388, 0.06249999999999995143 ) ) ;
#35 = PRODUCT_CONTEXT ( 'NONE', #279, 'mechanical' ) ;
#36 =( GEOMETRIC_REPRESENTATION_CONTEXT ( 3 ) GLOBAL_UNCERTAINTY_ASSIGNED_CONTEXT ( ( #131 ) ) GLOBAL_UNIT_ASSIGNED_CONTEXT ( ( #123, #323, #243 ) ) REPRESENTATION_CONTEXT ( 'NONE', 'WORKASPACE' ) );
#37 = VERTEX_POINT ( 'NONE', #281 ) ;
#38 = FILL_AREA_STYLE ('',( #205 ) ) ;
#39 = FILL_AREA_STYLE_COLOUR ( '', #196 ) ;
#40 = CARTESIAN_POINT ( 'NONE',  ( 0.000000000000000000, 0.000000000000000000, 0.000000000000000000 ) ) ;
#41 = CLOSED_SHELL ( 'NONE', ( #130, #82, #316, #225, #166 ) ) ;
#42 = SURFACE_SIDE_STYLE ('',( #305 ) ) ;
#43 = CIRCLE ( 'NONE', #333, 0.06249999999999981265 ) ;
#44 = VERTEX_POINT ( 'NONE', #21 ) ;
#45 = EDGE_CURVE ( 'NONE', #37, #108, #350, .T. ) ;
#46 = ORIENTED_EDGE ( 'NONE', *, *, #11, .T. ) ;
#47 = DIRECTION ( 'NONE',  ( -1.224646799147353207E-16, 1.000000000000000000, -0.000000000000000000 ) ) ;
#48 = UNCERTAINTY_MEASURE_WITH_UNIT (LENGTH_MEASURE( 1.000000000000000082E-05 ), #291, 'distance_accuracy_value', 'NONE');
#49 = ORIENTED_EDGE ( 'NONE', *, *, #182, .T. ) ;
#50 = STYLED_ITEM ( 'NONE', ( #280 ), #166 ) ;
#51 = MECHANICAL_DESIGN_GEOMETRIC_PRESENTATION_REPRESENTATION (  '', ( #232 ), #36 ) ;
#52 = ORIENTED_EDGE ( 'NONE', *, *, #207, .F. ) ;
#53 = EDGE_CURVE ( 'NONE', #242, #164, #345, .T. ) ;
#54 =( NAMED_UNIT ( * ) PLANE_ANGLE_UNIT ( ) SI_UNIT ( $, .RADIAN. ) );
#55 = SURFACE_SIDE_STYLE ('',( #314 ) ) ;
#56 = MECHANICAL_DESIGN_GEOMETRIC_PRESENTATION_REPRESENTATION (  '', ( #12 ), #233 ) ;
#57 = CARTESIAN_POINT ( 'NONE',  ( -6.123233995736772199E-17, 2.000000000000000000, 0.000000000000000000 ) ) ;
#58 = FACE_OUTER_BOUND ( 'NONE', #65, .T. ) ;
#59 = DIRECTION ( 'NONE',  ( -1.224646799147353207E-16, 1.000000000000000000, -0.000000000000000000 ) ) ;
#60 = MANIFOLD_SOLID_BREP ( 'Revolve - Tool Body (Straight Shanked)', #96 ) ;
#61 = COLOUR_RGB ( '',1.000000000000000000, 0.000000000000000000, 0.000000000000000000 ) ;
#62 = AXIS2_PLACEMENT_3D ( 'NONE', #297, #208, #13 ) ;
#63 = CARTESIAN_POINT ( 'NONE',  ( 0.06249999999999995837, 2.000000000000000000, 7.654042494670954463E-18 ) ) ;
#64 = CARTESIAN_POINT ( 'NONE',  ( -7.654042494670957545E-18, 0.06250000000000001388, 0.000000000000000000 ) ) ;
#65 = EDGE_LOOP ( 'NONE', ( #132, #277, #253, #194, #368 ) ) ;
#66 = DIRECTION ( 'NONE',  ( 0.000000000000000000, 1.000000000000000000, 0.000000000000000000 ) ) ;
#67 =( NAMED_UNIT ( * ) SI_UNIT ( $, .STERADIAN. ) SOLID_ANGLE_UNIT ( ) );
#68 = AXIS2_PLACEMENT_3D ( 'NONE', #17, #148, #145 ) ;
#69 = PRESENTATION_LAYER_ASSIGNMENT (  '', '', ( #178 ) ) ;
#70 =( GEOMETRIC_REPRESENTATION_CONTEXT ( 3 ) GLOBAL_UNCERTAINTY_ASSIGNED_CONTEXT ( ( #263 ) ) GLOBAL_UNIT_ASSIGNED_CONTEXT ( ( #29, #54, #317 ) ) REPRESENTATION_CONTEXT ( 'NONE', 'WORKASPACE' ) );
#71 = ORIENTED_EDGE ( 'NONE', *, *, #11, .F. ) ;
#72 = DIMENSIONAL_EXPONENTS ( 1.000000000000000000, 0.000000000000000000, 0.000000000000000000, 0.000000000000000000, 0.000000000000000000, 0.000000000000000000, 0.000000000000000000 ) ;
#73 = EDGE_CURVE ( 'NONE', #206, #242, #332, .T. ) ;
#74 = EDGE_LOOP ( 'NONE', ( #330, #46, #335, #306, #354 ) ) ;
#75 = CARTESIAN_POINT ( 'NONE',  ( 0.000000000000000000, 0.06250000000000001388, -0.06249999999999995143 ) ) ;
#76 = DIRECTION ( 'NONE',  ( -1.000000000000000000, 0.000000000000000000, 0.000000000000000000 ) ) ;
#77 =( LENGTH_UNIT ( ) NAMED_UNIT ( * ) SI_UNIT ( $, .METRE. ) );
#78 = ORIENTED_EDGE ( 'NONE', *, *, #338, .T. ) ;
#79 = COLOUR_RGB ( '',1.000000000000000000, 0.000000000000000000, 0.000000000000000000 ) ;
#80 = DIRECTION ( 'NONE',  ( 0.000000000000000000, 0.000000000000000000, -1.000000000000000000 ) ) ;
#81 = DIRECTION ( 'NONE',  ( -1.224646799147353207E-16, 1.000000000000000000, -0.000000000000000000 ) ) ;
#82 = ADVANCED_FACE ( 'NONE', ( #58 ), #230, .T. ) ;
#83 =( LENGTH_UNIT ( ) NAMED_UNIT ( * ) SI_UNIT ( $, .METRE. ) );
#84 = STYLED_ITEM ( 'NONE', ( #276 ), #225 ) ;
#85 = FILL_AREA_STYLE ('',( #343 ) ) ;
#86 = ORIENTED_EDGE ( 'NONE', *, *, #251, .T. ) ;
#87 = FACE_OUTER_BOUND ( 'NONE', #102, .T. ) ;
#88 = FACE_OUTER_BOUND ( 'NONE', #331, .T. ) ;
#89 =( GEOMETRIC_REPRESENTATION_CONTEXT ( 3 ) GLOBAL_UNCERTAINTY_ASSIGNED_CONTEXT ( ( #189 ) ) GLOBAL_UNIT_ASSIGNED_CONTEXT ( ( #175, #257, #370 ) ) REPRESENTATION_CONTEXT ( 'NONE', 'WORKASPACE' ) );
#90 = CARTESIAN_POINT ( 'NONE',  ( -3.827021247335479543E-18, 3.414809992080329023E-17, 0.000000000000000000 ) ) ;
#91 = ADVANCED_FACE ( 'NONE', ( #244 ), #212, .F. ) ;
#92 = CYLINDRICAL_SURFACE ( 'NONE', #115, 0.06249999999999991673 ) ;
#93 = LINE ( 'NONE', #294, #327 ) ;
#94 = ORIENTED_EDGE ( 'NONE', *, *, #73, .T. ) ;
#95 = DIRECTION ( 'NONE',  ( -0.000000000000000000, -1.000000000000000000, -0.000000000000000000 ) ) ;
#96 = CLOSED_SHELL ( 'NONE', ( #355, #163, #373, #91 ) ) ;
#97 = CIRCLE ( 'NONE', #245, 0.06249999999999995143 ) ;
#98 = CARTESIAN_POINT ( 'NONE',  ( 0.06249999999999995837, 0.3749999999999999445, 7.654042494670954463E-18 ) ) ;
#99 =( NAMED_UNIT ( * ) PLANE_ANGLE_UNIT ( ) SI_UNIT ( $, .RADIAN. ) );
#100 = DIRECTION ( 'NONE',  ( 0.000000000000000000, 0.000000000000000000, -1.000000000000000000 ) ) ;
#101 = CARTESIAN_POINT ( 'NONE',  ( 0.000000000000000000, 0.06250000000000001388, 0.000000000000000000 ) ) ;
#102 = EDGE_LOOP ( 'NONE', ( #256, #192 ) ) ;
#103 = VERTEX_POINT ( 'NONE', #63 ) ;
#104 =( NAMED_UNIT ( * ) SI_UNIT ( $, .STERADIAN. ) SOLID_ANGLE_UNIT ( ) );
#105 = DIMENSIONAL_EXPONENTS ( 1.000000000000000000, 0.000000000000000000, 0.000000000000000000, 0.000000000000000000, 0.000000000000000000, 0.000000000000000000, 0.000000000000000000 ) ;
#106 = DIRECTION ( 'NONE',  ( -1.224646799147353207E-16, 1.000000000000000000, -0.000000000000000000 ) ) ;
#107 = EDGE_CURVE ( 'NONE', #108, #103, #93, .T. ) ;
#108 = VERTEX_POINT ( 'NONE', #98 ) ;
#109 = AXIS2_PLACEMENT_3D ( 'NONE', #10, #326, #6 ) ;
#110 = CARTESIAN_POINT ( 'NONE',  ( 0.06249999999999996531, 0.06250000000000001388, 0.000000000000000000 ) ) ;
#111 = EDGE_CURVE ( 'NONE', #197, #164, #372, .T. ) ;
#112 =( LENGTH_UNIT ( ) NAMED_UNIT ( * ) SI_UNIT ( $, .METRE. ) );
#113 = DIRECTION ( 'NONE',  ( 0.000000000000000000, 0.000000000000000000, -1.000000000000000000 ) ) ;
#114 = ORIENTED_EDGE ( 'NONE', *, *, #107, .F. ) ;
#115 = AXIS2_PLACEMENT_3D ( 'NONE', #321, #59, #349 ) ;
#116 = LINE ( 'NONE', #202, #174 ) ;
#117 =( LENGTH_UNIT ( ) NAMED_UNIT ( * ) SI_UNIT ( $, .METRE. ) );
#118 = DIRECTION ( 'NONE',  ( -0.000000000000000000, -1.000000000000000000, -0.000000000000000000 ) ) ;
#119 = FACE_OUTER_BOUND ( 'NONE', #247, .T. ) ;
#120 = DIRECTION ( 'NONE',  ( 1.224646799147353207E-16, -1.000000000000000000, 0.000000000000000000 ) ) ;
#121 = AXIS2_PLACEMENT_3D ( 'NONE', #57, #81, #229 ) ;
#122 = SURFACE_STYLE_FILL_AREA ( #38 ) ;
#123 =( CONVERSION_BASED_UNIT ( 'INCH', #152 ) LENGTH_UNIT ( ) NAMED_UNIT ( #169 ) );
#124 = DIRECTION ( 'NONE',  ( 0.000000000000000000, 0.000000000000000000, 1.000000000000000000 ) ) ;
#125 =( NAMED_UNIT ( * ) PLANE_ANGLE_UNIT ( ) SI_UNIT ( $, .RADIAN. ) );
#126 = MECHANICAL_DESIGN_GEOMETRIC_PRESENTATION_REPRESENTATION (  '', ( #84 ), #300 ) ;
#127 = LENGTH_MEASURE_WITH_UNIT ( LENGTH_MEASURE( 0.02539999999999999897 ), #77 );
#128 = EDGE_CURVE ( 'NONE', #160, #44, #142, .T. ) ;
#129 = EDGE_LOOP ( 'NONE', ( #86, #340 ) ) ;
#130 = ADVANCED_FACE ( 'NONE', ( #351 ), #209, .T. ) ;
#131 = UNCERTAINTY_MEASURE_WITH_UNIT (LENGTH_MEASURE( 1.000000000000000082E-05 ), #123, 'distance_accuracy_value', 'NONE');
#132 = ORIENTED_EDGE ( 'NONE', *, *, #128, .T. ) ;
#133 = SURFACE_STYLE_USAGE ( .BOTH. , #159 ) ;
#134 = MECHANICAL_DESIGN_GEOMETRIC_PRESENTATION_REPRESENTATION (  '', ( #203 ), #70 ) ;
#135 = CARTESIAN_POINT ( 'NONE',  ( 1.377727649040771896E-16, 0.3749999999999999445, 0.000000000000000000 ) ) ;
#136 = COLOUR_RGB ( '',0.7921568627450980005, 0.8196078431372548767, 0.9333333333333333481 ) ;
#137 = CARTESIAN_POINT ( 'NONE',  ( 0.000000000000000000, 0.3750000000000000555, 0.000000000000000000 ) ) ;
#138 = DIMENSIONAL_EXPONENTS ( 1.000000000000000000, 0.000000000000000000, 0.000000000000000000, 0.000000000000000000, 0.000000000000000000, 0.000000000000000000, 0.000000000000000000 ) ;
#139 = PRESENTATION_STYLE_ASSIGNMENT (( #320 ) ) ;
#140 = SURFACE_SIDE_STYLE ('',( #27 ) ) ;
#141 = UNCERTAINTY_MEASURE_WITH_UNIT (LENGTH_MEASURE( 1.000000000000000082E-05 ), #172, 'distance_accuracy_value', 'NONE');
#142 = CIRCLE ( 'NONE', #150, 0.06249999999999995143 ) ;
#143 = EDGE_CURVE ( 'NONE', #242, #319, #310, .T. ) ;
#144 = UNCERTAINTY_MEASURE_WITH_UNIT (LENGTH_MEASURE( 1.000000000000000082E-05 ), #246, 'distance_accuracy_value', 'NONE');
#145 = DIRECTION ( 'NONE',  ( 0.000000000000000000, 0.000000000000000000, -1.000000000000000000 ) ) ;
#146 = DIRECTION ( 'NONE',  ( -1.224646799147353207E-16, 1.000000000000000000, -0.000000000000000000 ) ) ;
#147 = CARTESIAN_POINT ( 'NONE',  ( 1.377727649040771896E-16, 0.3750000000000000555, 0.000000000000000000 ) ) ;
#148 = DIRECTION ( 'NONE',  ( -0.000000000000000000, -1.000000000000000000, -0.000000000000000000 ) ) ;
#149 = DIRECTION ( 'NONE',  ( 1.000000000000000000, 0.000000000000000000, 0.000000000000000000 ) ) ;
#150 = AXIS2_PLACEMENT_3D ( 'NONE', #14, #95, #328 ) ;
#151 = ORIENTED_EDGE ( 'NONE', *, *, #111, .T. ) ;
#152 = LENGTH_MEASURE_WITH_UNIT ( LENGTH_MEASURE( 0.02539999999999999897 ), #186 );
#153 = ORIENTED_EDGE ( 'NONE', *, *, #128, .F. ) ;
#154 = CARTESIAN_POINT ( 'NONE',  ( -7.654042494670957545E-18, 0.06250000000000001388, 0.000000000000000000 ) ) ;
#155 = AXIS2_PLACEMENT_3D ( 'NONE', #137, #215, #223 ) ;
#156 = STYLED_ITEM ( 'NONE', ( #139 ), #82 ) ;
#157 = PRESENTATION_STYLE_ASSIGNMENT (( #308 ) ) ;
#158 = APPLICATION_CONTEXT ( 'automotive_design' ) ;
#159 = SURFACE_SIDE_STYLE ('',( #24 ) ) ;
#160 = VERTEX_POINT ( 'NONE', #236 ) ;
#161 = DIMENSIONAL_EXPONENTS ( 1.000000000000000000, 0.000000000000000000, 0.000000000000000000, 0.000000000000000000, 0.000000000000000000, 0.000000000000000000, 0.000000000000000000 ) ;
#162 = DIRECTION ( 'NONE',  ( 0.000000000000000000, 0.000000000000000000, -1.000000000000000000 ) ) ;
#163 = ADVANCED_FACE ( 'NONE', ( #87 ), #32, .F. ) ;
#164 = VERTEX_POINT ( 'NONE', #90 ) ;
#165 = FACE_OUTER_BOUND ( 'NONE', #74, .T. ) ;
#166 = ADVANCED_FACE ( 'NONE', ( #255 ), #336, .T. ) ;
#167 = AXIS2_PLACEMENT_3D ( 'NONE', #64, #183, #237 ) ;
#168 = LENGTH_MEASURE_WITH_UNIT ( LENGTH_MEASURE( 0.02539999999999999897 ), #83 );
#169 = DIMENSIONAL_EXPONENTS ( 1.000000000000000000, 0.000000000000000000, 0.000000000000000000, 0.000000000000000000, 0.000000000000000000, 0.000000000000000000, 0.000000000000000000 ) ;
#170 = CARTESIAN_POINT ( 'NONE',  ( -0.06250000000000006939, 2.000000000000000000, 0.000000000000000000 ) ) ;
#171 = FACE_OUTER_BOUND ( 'NONE', #285, .T. ) ;
#172 =( CONVERSION_BASED_UNIT ( 'INCH', #313 ) LENGTH_UNIT ( ) NAMED_UNIT ( #138 ) );
#173 = PRESENTATION_STYLE_ASSIGNMENT (( #342 ) ) ;
#174 = VECTOR ( 'NONE', #235, 39.37007874015748143 ) ;
#175 =( CONVERSION_BASED_UNIT ( 'INCH', #286 ) LENGTH_UNIT ( ) NAMED_UNIT ( #191 ) );
#176 = EDGE_CURVE ( 'NONE', #319, #197, #31, .T. ) ;
#177 = MECHANICAL_DESIGN_GEOMETRIC_PRESENTATION_REPRESENTATION (  '', ( #50 ), #188 ) ;
#178 = STYLED_ITEM ( 'NONE', ( #258 ), #316 ) ;
#179 = DIRECTION ( 'NONE',  ( 0.000000000000000000, 0.000000000000000000, -1.000000000000000000 ) ) ;
#180 = LENGTH_MEASURE_WITH_UNIT ( LENGTH_MEASURE( 0.02539999999999999897 ), #117 );
#181 = EDGE_LOOP ( 'NONE', ( #20, #49, #94, #213 ) ) ;
#182 = EDGE_CURVE ( 'NONE', #197, #206, #97, .T. ) ;
#183 = DIRECTION ( 'NONE',  ( 1.224646799147353207E-16, -0.000000000000000000, 1.000000000000000000 ) ) ;
#184 = SHAPE_DEFINITION_REPRESENTATION ( #260, #318 ) ;
#185 = PRESENTATION_STYLE_ASSIGNMENT (( #267 ) ) ;
#186 =( LENGTH_UNIT ( ) NAMED_UNIT ( * ) SI_UNIT ( $, .METRE. ) );
#187 = DIRECTION ( 'NONE',  ( -0.000000000000000000, -1.000000000000000000, -0.000000000000000000 ) ) ;
#188 =( GEOMETRIC_REPRESENTATION_CONTEXT ( 3 ) GLOBAL_UNCERTAINTY_ASSIGNED_CONTEXT ( ( #218 ) ) GLOBAL_UNIT_ASSIGNED_CONTEXT ( ( #214, #367, #104 ) ) REPRESENTATION_CONTEXT ( 'NONE', 'WORKASPACE' ) );
#189 = UNCERTAINTY_MEASURE_WITH_UNIT (LENGTH_MEASURE( 1.000000000000000082E-05 ), #175, 'distance_accuracy_value', 'NONE');
#190 = ORIENTED_EDGE ( 'NONE', *, *, #338, .F. ) ;
#191 = DIMENSIONAL_EXPONENTS ( 1.000000000000000000, 0.000000000000000000, 0.000000000000000000, 0.000000000000000000, 0.000000000000000000, 0.000000000000000000, 0.000000000000000000 ) ;
#192 = ORIENTED_EDGE ( 'NONE', *, *, #271, .F. ) ;
#193 = CARTESIAN_POINT ( 'NONE',  ( -6.123233995736772199E-17, 2.000000000000000000, 0.000000000000000000 ) ) ;
#194 = ORIENTED_EDGE ( 'NONE', *, *, #73, .F. ) ;
#195 = DIRECTION ( 'NONE',  ( -1.224646799147353207E-16, 1.000000000000000000, -0.000000000000000000 ) ) ;
#196 = COLOUR_RGB ( '',1.000000000000000000, 0.000000000000000000, 0.000000000000000000 ) ;
#197 = VERTEX_POINT ( 'NONE', #304 ) ;
#198 = AXIS2_PLACEMENT_3D ( 'NONE', #261, #66, #9 ) ;
#199 = DIRECTION ( 'NONE',  ( -1.000000000000000000, 0.000000000000000000, 0.000000000000000000 ) ) ;
#200 = COLOUR_RGB ( '',0.7921568627450980005, 0.8196078431372548767, 0.9333333333333333481 ) ;
#201 = PRESENTATION_LAYER_ASSIGNMENT (  '', '', ( #50 ) ) ;
#202 = CARTESIAN_POINT ( 'NONE',  ( 7.654042494670951382E-18, 0.000000000000000000, 0.06249999999999995143 ) ) ;
#203 = STYLED_ITEM ( 'NONE', ( #157 ), #60 ) ;
#204 = VECTOR ( 'NONE', #146, 39.37007874015748143 ) ;
#205 = FILL_AREA_STYLE_COLOUR ( '', #61 ) ;
#206 = VERTEX_POINT ( 'NONE', #75 ) ;
#207 = EDGE_CURVE ( 'NONE', #103, #15, #303, .T. ) ;
#208 = DIRECTION ( 'NONE',  ( -1.224646799147353207E-16, 1.000000000000000000, -0.000000000000000000 ) ) ;
#209 = SPHERICAL_SURFACE ( 'NONE', #109, 0.06249999999999997918 ) ;
#210 = AXIS2_PLACEMENT_3D ( 'NONE', #356, #118, #179 ) ;
#211 =( GEOMETRIC_REPRESENTATION_CONTEXT ( 3 ) GLOBAL_UNCERTAINTY_ASSIGNED_CONTEXT ( ( #141 ) ) GLOBAL_UNIT_ASSIGNED_CONTEXT ( ( #172, #125, #67 ) ) REPRESENTATION_CONTEXT ( 'NONE', 'WORKASPACE' ) );
#212 = PLANE ( 'NONE',  #23 ) ;
#213 = ORIENTED_EDGE ( 'NONE', *, *, #53, .T. ) ;
#214 =( CONVERSION_BASED_UNIT ( 'INCH', #301 ) LENGTH_UNIT ( ) NAMED_UNIT ( #161 ) );
#215 = DIRECTION ( 'NONE',  ( -0.000000000000000000, -1.000000000000000000, -0.000000000000000000 ) ) ;
#216 = PRESENTATION_LAYER_ASSIGNMENT (  '', '', ( #12 ) ) ;
#217 = FILL_AREA_STYLE ('',( #39 ) ) ;
#218 = UNCERTAINTY_MEASURE_WITH_UNIT (LENGTH_MEASURE( 1.000000000000000082E-05 ), #214, 'distance_accuracy_value', 'NONE');
#219 = ORIENTED_EDGE ( 'NONE', *, *, #271, .T. ) ;
#220 = CARTESIAN_POINT ( 'NONE',  ( 0.000000000000000000, 0.06250000000000001388, 0.000000000000000000 ) ) ;
#221 = FILL_AREA_STYLE ('',( #25 ) ) ;
#222 = DIRECTION ( 'NONE',  ( -0.000000000000000000, -1.000000000000000000, -0.000000000000000000 ) ) ;
#223 = DIRECTION ( 'NONE',  ( 0.000000000000000000, 0.000000000000000000, -1.000000000000000000 ) ) ;
#224 = PLANE ( 'NONE',  #198 ) ;
#225 = ADVANCED_FACE ( 'NONE', ( #165 ), #362, .T. ) ;
#226 = AXIS2_PLACEMENT_3D ( 'NONE', #40, #311, #80 ) ;
#227 =( LENGTH_UNIT ( ) NAMED_UNIT ( * ) SI_UNIT ( $, .METRE. ) );
#228 = CARTESIAN_POINT ( 'NONE',  ( 1.377727649040771896E-16, 0.3749999999999999445, 0.000000000000000000 ) ) ;
#229 = DIRECTION ( 'NONE',  ( -1.000000000000000000, 0.000000000000000000, 0.000000000000000000 ) ) ;
#230 = CYLINDRICAL_SURFACE ( 'NONE', #68, 0.06249999999999995143 ) ;
#231 = PRODUCT ( '49036', '49036', '', ( #35 ) ) ;
#232 = STYLED_ITEM ( 'NONE', ( #185 ), #130 ) ;
#233 =( GEOMETRIC_REPRESENTATION_CONTEXT ( 3 ) GLOBAL_UNCERTAINTY_ASSIGNED_CONTEXT ( ( #48 ) ) GLOBAL_UNIT_ASSIGNED_CONTEXT ( ( #291, #344, #290 ) ) REPRESENTATION_CONTEXT ( 'NONE', 'WORKASPACE' ) );
#234 = ORIENTED_EDGE ( 'NONE', *, *, #107, .T. ) ;
#235 = DIRECTION ( 'NONE',  ( -0.000000000000000000, -1.000000000000000000, -0.000000000000000000 ) ) ;
#236 = CARTESIAN_POINT ( 'NONE',  ( 0.000000000000000000, 0.3750000000000000555, -0.06249999999999995143 ) ) ;
#237 = DIRECTION ( 'NONE',  ( 1.000000000000000000, 0.000000000000000000, -1.224646799147353454E-16 ) ) ;
#238 = VECTOR ( 'NONE', #187, 39.37007874015748143 ) ;
#239 = AXIS2_PLACEMENT_3D ( 'NONE', #193, #47, #274 ) ;
#240 = AXIS2_PLACEMENT_3D ( 'NONE', #266, #124, #149 ) ;
#241 = CYLINDRICAL_SURFACE ( 'NONE', #62, 0.06249999999999991673 ) ;
#242 = VERTEX_POINT ( 'NONE', #110 ) ;
#243 =( NAMED_UNIT ( * ) SI_UNIT ( $, .STERADIAN. ) SOLID_ANGLE_UNIT ( ) );
#244 = FACE_OUTER_BOUND ( 'NONE', #129, .T. ) ;
#245 = AXIS2_PLACEMENT_3D ( 'NONE', #220, #222, #162 ) ;
#246 =( CONVERSION_BASED_UNIT ( 'INCH', #127 ) LENGTH_UNIT ( ) NAMED_UNIT ( #358 ) );
#247 = EDGE_LOOP ( 'NONE', ( #114, #219, #78, #52 ) ) ;
#248 = DIRECTION ( 'NONE',  ( 1.000000000000000000, 0.000000000000000000, 0.000000000000000000 ) ) ;
#249 = SURFACE_STYLE_USAGE ( .BOTH. , #19 ) ;
#250 = ORIENTED_EDGE ( 'NONE', *, *, #251, .F. ) ;
#251 = EDGE_CURVE ( 'NONE', #15, #103, #289, .T. ) ;
#252 = AXIS2_PLACEMENT_3D ( 'NONE', #154, #307, #248 ) ;
#253 = ORIENTED_EDGE ( 'NONE', *, *, #143, .F. ) ;
#254 = PRODUCT_DEFINITION ( 'UNKNOWN', '', #347, #259 ) ;
#255 = FACE_OUTER_BOUND ( 'NONE', #181, .T. ) ;
#256 = ORIENTED_EDGE ( 'NONE', *, *, #45, .F. ) ;
#257 =( NAMED_UNIT ( * ) PLANE_ANGLE_UNIT ( ) SI_UNIT ( $, .RADIAN. ) );
#258 = PRESENTATION_STYLE_ASSIGNMENT (( #1 ) ) ;
#259 = PRODUCT_DEFINITION_CONTEXT ( 'detailed design', #158, 'design' ) ;
#260 = PRODUCT_DEFINITION_SHAPE ( 'NONE', 'NONE',  #254 ) ;
#261 = CARTESIAN_POINT ( 'NONE',  ( 0.000000000000000000, 0.3750000000000000555, 0.000000000000000000 ) ) ;
#262 = FILL_AREA_STYLE ('',( #341 ) ) ;
#263 = UNCERTAINTY_MEASURE_WITH_UNIT (LENGTH_MEASURE( 1.000000000000000082E-05 ), #29, 'distance_accuracy_value', 'NONE');
#264 = SURFACE_SIDE_STYLE ('',( #30 ) ) ;
#265 = DIRECTION ( 'NONE',  ( -1.224646799147353207E-16, 1.000000000000000000, 0.000000000000000000 ) ) ;
#266 = CARTESIAN_POINT ( 'NONE',  ( 0.000000000000000000, 0.000000000000000000, 0.000000000000000000 ) ) ;
#267 = SURFACE_STYLE_USAGE ( .BOTH. , #353 ) ;
#268 = CIRCLE ( 'NONE', #155, 0.06249999999999995143 ) ;
#269 = AXIS2_PLACEMENT_3D ( 'NONE', #302, #2, #113 ) ;
#270 = APPLICATION_PROTOCOL_DEFINITION ( 'draft international standard', 'automotive_design', 1998, #158 ) ;
#271 = EDGE_CURVE ( 'NONE', #108, #37, #43, .T. ) ;
#272 =( LENGTH_UNIT ( ) NAMED_UNIT ( * ) SI_UNIT ( $, .METRE. ) );
#273 = COLOUR_RGB ( '',1.000000000000000000, 0.000000000000000000, 0.000000000000000000 ) ;
#274 = DIRECTION ( 'NONE',  ( -1.000000000000000000, 0.000000000000000000, 0.000000000000000000 ) ) ;
#275 = EDGE_CURVE ( 'NONE', #44, #319, #116, .T. ) ;
#276 = PRESENTATION_STYLE_ASSIGNMENT (( #249 ) ) ;
#277 = ORIENTED_EDGE ( 'NONE', *, *, #275, .T. ) ;
#278 = DIMENSIONAL_EXPONENTS ( 1.000000000000000000, 0.000000000000000000, 0.000000000000000000, 0.000000000000000000, 0.000000000000000000, 0.000000000000000000, 0.000000000000000000 ) ;
#279 = APPLICATION_CONTEXT ( 'automotive_design' ) ;
#280 = PRESENTATION_STYLE_ASSIGNMENT (( #133 ) ) ;
#281 = CARTESIAN_POINT ( 'NONE',  ( -0.06249999999999967387, 0.3749999999999999445, 0.000000000000000000 ) ) ;
#282 = MECHANICAL_DESIGN_GEOMETRIC_PRESENTATION_REPRESENTATION (  '', ( #156 ), #211 ) ;
#283 = FILL_AREA_STYLE_COLOUR ( '', #79 ) ;
#284 = COLOUR_RGB ( '',1.000000000000000000, 0.000000000000000000, 0.000000000000000000 ) ;
#285 = EDGE_LOOP ( 'NONE', ( #153, #71 ) ) ;
#286 = LENGTH_MEASURE_WITH_UNIT ( LENGTH_MEASURE( 0.02539999999999999897 ), #112 );
#287 = CARTESIAN_POINT ( 'NONE',  ( 0.000000000000000000, 0.000000000000000000, -0.06249999999999995143 ) ) ;
#288 = FILL_AREA_STYLE ('',( #4 ) ) ;
#289 = CIRCLE ( 'NONE', #121, 0.06250000000000001388 ) ;
#290 =( NAMED_UNIT ( * ) SI_UNIT ( $, .STERADIAN. ) SOLID_ANGLE_UNIT ( ) );
#291 =( CONVERSION_BASED_UNIT ( 'INCH', #168 ) LENGTH_UNIT ( ) NAMED_UNIT ( #72 ) );
#292 =( NAMED_UNIT ( * ) SI_UNIT ( $, .STERADIAN. ) SOLID_ANGLE_UNIT ( ) );
#293 = PRESENTATION_LAYER_ASSIGNMENT (  '', '', ( #84 ) ) ;
#294 = CARTESIAN_POINT ( 'NONE',  ( 0.06249999999999985428, 2.000000000000000000, 7.654042494670946760E-18 ) ) ;
#295 =( CONVERSION_BASED_UNIT ( 'INCH', #180 ) LENGTH_UNIT ( ) NAMED_UNIT ( #278 ) );
#296 = DIRECTION ( 'NONE',  ( 1.000000000000000000, 1.224646799147353207E-16, 0.000000000000000000 ) ) ;
#297 = CARTESIAN_POINT ( 'NONE',  ( -6.123233995736772199E-17, 2.000000000000000000, 0.000000000000000000 ) ) ;
#298 = ORIENTED_EDGE ( 'NONE', *, *, #53, .F. ) ;
#299 = PRESENTATION_LAYER_ASSIGNMENT (  '', '', ( #203 ) ) ;
#300 =( GEOMETRIC_REPRESENTATION_CONTEXT ( 3 ) GLOBAL_UNCERTAINTY_ASSIGNED_CONTEXT ( ( #144 ) ) GLOBAL_UNIT_ASSIGNED_CONTEXT ( ( #246, #99, #329 ) ) REPRESENTATION_CONTEXT ( 'NONE', 'WORKASPACE' ) );
#301 = LENGTH_MEASURE_WITH_UNIT ( LENGTH_MEASURE( 0.02539999999999999897 ), #272 );
#302 = CARTESIAN_POINT ( 'NONE',  ( 0.000000000000000000, 0.06250000000000001388, 0.000000000000000000 ) ) ;
#303 = CIRCLE ( 'NONE', #239, 0.06250000000000001388 ) ;
#304 = CARTESIAN_POINT ( 'NONE',  ( -0.06249999999999996531, 0.06250000000000001388, 7.654042494670952923E-18 ) ) ;
#305 = SURFACE_STYLE_FILL_AREA ( #221 ) ;
#306 = ORIENTED_EDGE ( 'NONE', *, *, #182, .F. ) ;
#307 = DIRECTION ( 'NONE',  ( 0.000000000000000000, 0.000000000000000000, 1.000000000000000000 ) ) ;
#308 = SURFACE_STYLE_USAGE ( .BOTH. , #42 ) ;
#309 = AXIS2_PLACEMENT_3D ( 'NONE', #135, #106, #26 ) ;
#310 = CIRCLE ( 'NONE', #210, 0.06249999999999995143 ) ;
#311 = DIRECTION ( 'NONE',  ( -0.000000000000000000, -1.000000000000000000, -0.000000000000000000 ) ) ;
#312 = LINE ( 'NONE', #287, #238 ) ;
#313 = LENGTH_MEASURE_WITH_UNIT ( LENGTH_MEASURE( 0.02539999999999999897 ), #227 );
#314 = SURFACE_STYLE_FILL_AREA ( #262 ) ;
#315 = MANIFOLD_SOLID_BREP ( 'Revolve - Cutting Edge', #41 ) ;
#316 = ADVANCED_FACE ( 'NONE', ( #171 ), #224, .T. ) ;
#317 =( NAMED_UNIT ( * ) SI_UNIT ( $, .STERADIAN. ) SOLID_ANGLE_UNIT ( ) );
#318 = ADVANCED_BREP_SHAPE_REPRESENTATION ( '49036', ( #315, #60, #240 ), #360 ) ;
#319 = VERTEX_POINT ( 'NONE', #34 ) ;
#320 = SURFACE_STYLE_USAGE ( .BOTH. , #264 ) ;
#321 = CARTESIAN_POINT ( 'NONE',  ( -6.123233995736772199E-17, 2.000000000000000000, 0.000000000000000000 ) ) ;
#322 = MECHANICAL_DESIGN_GEOMETRIC_PRESENTATION_REPRESENTATION (  '', ( #178 ), #89 ) ;
#323 =( NAMED_UNIT ( * ) PLANE_ANGLE_UNIT ( ) SI_UNIT ( $, .RADIAN. ) );
#324 = DIRECTION ( 'NONE',  ( -1.224646799147353207E-16, 1.000000000000000000, -0.000000000000000000 ) ) ;
#325 = APPLICATION_PROTOCOL_DEFINITION ( 'draft international standard', 'automotive_design', 1998, #279 ) ;
#326 = DIRECTION ( 'NONE',  ( 0.000000000000000000, 0.000000000000000000, 1.000000000000000000 ) ) ;
#327 = VECTOR ( 'NONE', #324, 39.37007874015748143 ) ;
#328 = DIRECTION ( 'NONE',  ( 0.000000000000000000, 0.000000000000000000, -1.000000000000000000 ) ) ;
#329 =( NAMED_UNIT ( * ) SI_UNIT ( $, .STERADIAN. ) SOLID_ANGLE_UNIT ( ) );
#330 = ORIENTED_EDGE ( 'NONE', *, *, #275, .F. ) ;
#331 = EDGE_LOOP ( 'NONE', ( #3, #234, #250, #190 ) ) ;
#332 = CIRCLE ( 'NONE', #269, 0.06249999999999995143 ) ;
#333 = AXIS2_PLACEMENT_3D ( 'NONE', #228, #195, #199 ) ;
#334 = FILL_AREA_STYLE ('',( #283 ) ) ;
#335 = ORIENTED_EDGE ( 'NONE', *, *, #33, .T. ) ;
#336 = SPHERICAL_SURFACE ( 'NONE', #252, 0.06249999999999997918 ) ;
#337 =( LENGTH_UNIT ( ) NAMED_UNIT ( * ) SI_UNIT ( $, .METRE. ) );
#338 = EDGE_CURVE ( 'NONE', #37, #15, #348, .T. ) ;
#339 = SURFACE_STYLE_FILL_AREA ( #334 ) ;
#340 = ORIENTED_EDGE ( 'NONE', *, *, #207, .T. ) ;
#341 = FILL_AREA_STYLE_COLOUR ( '', #136 ) ;
#342 = SURFACE_STYLE_USAGE ( .BOTH. , #55 ) ;
#343 = FILL_AREA_STYLE_COLOUR ( '', #273 ) ;
#344 =( NAMED_UNIT ( * ) PLANE_ANGLE_UNIT ( ) SI_UNIT ( $, .RADIAN. ) );
#345 = CIRCLE ( 'NONE', #371, 0.06249999999999997918 ) ;
#346 = PRESENTATION_LAYER_ASSIGNMENT (  '', '', ( #156 ) ) ;
#347 = PRODUCT_DEFINITION_FORMATION_WITH_SPECIFIED_SOURCE ( 'ANY', '', #231, .NOT_KNOWN. ) ;
#348 = LINE ( 'NONE', #7, #204 ) ;
#349 = DIRECTION ( 'NONE',  ( -1.000000000000000000, 0.000000000000000000, 0.000000000000000000 ) ) ;
#350 = CIRCLE ( 'NONE', #309, 0.06249999999999981265 ) ;
#351 = FACE_OUTER_BOUND ( 'NONE', #357, .T. ) ;
#352 = AXIS2_PLACEMENT_3D ( 'NONE', #101, #364, #18 ) ;
#353 = SURFACE_SIDE_STYLE ('',( #122 ) ) ;
#354 = ORIENTED_EDGE ( 'NONE', *, *, #176, .F. ) ;
#355 = ADVANCED_FACE ( 'NONE', ( #88 ), #241, .T. ) ;
#356 = CARTESIAN_POINT ( 'NONE',  ( 0.000000000000000000, 0.06250000000000001388, 0.000000000000000000 ) ) ;
#357 = EDGE_LOOP ( 'NONE', ( #365, #151, #298, #369 ) ) ;
#358 = DIMENSIONAL_EXPONENTS ( 1.000000000000000000, 0.000000000000000000, 0.000000000000000000, 0.000000000000000000, 0.000000000000000000, 0.000000000000000000, 0.000000000000000000 ) ;
#359 = CARTESIAN_POINT ( 'NONE',  ( 0.06249999999999995143, 2.000000000000000000, 0.000000000000000000 ) ) ;
#360 =( GEOMETRIC_REPRESENTATION_CONTEXT ( 3 ) GLOBAL_UNCERTAINTY_ASSIGNED_CONTEXT ( ( #28 ) ) GLOBAL_UNIT_ASSIGNED_CONTEXT ( ( #295, #16, #292 ) ) REPRESENTATION_CONTEXT ( 'NONE', 'WORKASPACE' ) );
#361 = CARTESIAN_POINT ( 'NONE',  ( -7.654042494670957545E-18, 0.06250000000000001388, 0.000000000000000000 ) ) ;
#362 = CYLINDRICAL_SURFACE ( 'NONE', #226, 0.06249999999999995143 ) ;
#363 = LENGTH_MEASURE_WITH_UNIT ( LENGTH_MEASURE( 0.02539999999999999897 ), #337 );
#364 = DIRECTION ( 'NONE',  ( -0.000000000000000000, -1.000000000000000000, -0.000000000000000000 ) ) ;
#365 = ORIENTED_EDGE ( 'NONE', *, *, #176, .T. ) ;
#366 = AXIS2_PLACEMENT_3D ( 'NONE', #147, #265, #8 ) ;
#367 =( NAMED_UNIT ( * ) PLANE_ANGLE_UNIT ( ) SI_UNIT ( $, .RADIAN. ) );
#368 = ORIENTED_EDGE ( 'NONE', *, *, #33, .F. ) ;
#369 = ORIENTED_EDGE ( 'NONE', *, *, #143, .T. ) ;
#370 =( NAMED_UNIT ( * ) SI_UNIT ( $, .STERADIAN. ) SOLID_ANGLE_UNIT ( ) );
#371 = AXIS2_PLACEMENT_3D ( 'NONE', #361, #100, #76 ) ;
#372 = CIRCLE ( 'NONE', #167, 0.06249999999999997918 ) ;
#373 = ADVANCED_FACE ( 'NONE', ( #119 ), #92, .T. ) ;
ENDSEC;
END-ISO-10303-21;
