ISO-10303-21;
HEADER;
FILE_DESCRIPTION (( 'STEP AP214' ),
    '1' );
FILE_NAME ('03435.STEP',
    '2023-06-22T15:17:41',
    ( '' ),
    ( '' ),
    'SwSTEP 2.0',
    'SolidWorks 2023',
    '' );
FILE_SCHEMA (( 'AUTOMOTIVE_DESIGN' ));
ENDSEC;

DATA;
#1 = STYLED_ITEM ( 'NONE', ( #178 ), #30 ) ;
#2 = CIRCLE ( 'NONE', #8, 0.2499999999999996947 ) ;
#3 = DIRECTION ( 'NONE',  ( -1.000000000000000000, 1.632862398863137527E-16, 0.000000000000000000 ) ) ;
#4 = VERTEX_POINT ( 'NONE', #296 ) ;
#5 = FILL_AREA_STYLE ('',( #209 ) ) ;
#6 =( NAMED_UNIT ( * ) PLANE_ANGLE_UNIT ( ) SI_UNIT ( $, .RADIAN. ) );
#7 = MECHANICAL_DESIGN_GEOMETRIC_PRESENTATION_REPRESENTATION (  '', ( #91 ), #231 ) ;
#8 = AXIS2_PLACEMENT_3D ( 'NONE', #126, #287, #235 ) ;
#9 = CARTESIAN_POINT ( 'NONE',  ( 0.000000000000000000, 0.000000000000000000, 0.000000000000000000 ) ) ;
#10 = EDGE_LOOP ( 'NONE', ( #245, #217, #88, #94 ) ) ;
#11 =( CONVERSION_BASED_UNIT ( 'INCH', #37 ) LENGTH_UNIT ( ) NAMED_UNIT ( #98 ) );
#12 =( CONVERSION_BASED_UNIT ( 'INCH', #220 ) LENGTH_UNIT ( ) NAMED_UNIT ( #64 ) );
#13 = EDGE_LOOP ( 'NONE', ( #236, #298, #307, #116 ) ) ;
#14 = STYLED_ITEM ( 'NONE', ( #24 ), #54 ) ;
#15 =( GEOMETRIC_REPRESENTATION_CONTEXT ( 3 ) GLOBAL_UNCERTAINTY_ASSIGNED_CONTEXT ( ( #173 ) ) GLOBAL_UNIT_ASSIGNED_CONTEXT ( ( #190, #261, #188 ) ) REPRESENTATION_CONTEXT ( 'NONE', 'WORKASPACE' ) );
#16 = CARTESIAN_POINT ( 'NONE',  ( 0.000000000000000000, 0.6250000000000000000, 0.000000000000000000 ) ) ;
#17 = DIRECTION ( 'NONE',  ( -0.000000000000000000, -1.000000000000000000, -0.000000000000000000 ) ) ;
#18 = DIMENSIONAL_EXPONENTS ( 1.000000000000000000, 0.000000000000000000, 0.000000000000000000, 0.000000000000000000, 0.000000000000000000, 0.000000000000000000, 0.000000000000000000 ) ;
#19 = EDGE_CURVE ( 'NONE', #59, #285, #292, .T. ) ;
#20 = CARTESIAN_POINT ( 'NONE',  ( 3.061616997868383141E-16, 2.500000000000000000, 0.000000000000000000 ) ) ;
#21 = DIMENSIONAL_EXPONENTS ( 1.000000000000000000, 0.000000000000000000, 0.000000000000000000, 0.000000000000000000, 0.000000000000000000, 0.000000000000000000, 0.000000000000000000 ) ;
#22 = MECHANICAL_DESIGN_GEOMETRIC_PRESENTATION_REPRESENTATION (  '', ( #14 ), #27 ) ;
#23 = PLANE ( 'NONE',  #232 ) ;
#24 = PRESENTATION_STYLE_ASSIGNMENT (( #258 ) ) ;
#25 = DIRECTION ( 'NONE',  ( 1.000000000000000000, 0.000000000000000000, 0.000000000000000000 ) ) ;
#26 = DIRECTION ( 'NONE',  ( -1.000000000000000000, 0.000000000000000000, 0.000000000000000000 ) ) ;
#27 =( GEOMETRIC_REPRESENTATION_CONTEXT ( 3 ) GLOBAL_UNCERTAINTY_ASSIGNED_CONTEXT ( ( #163 ) ) GLOBAL_UNIT_ASSIGNED_CONTEXT ( ( #229, #123, #305 ) ) REPRESENTATION_CONTEXT ( 'NONE', 'WORKASPACE' ) );
#28 = CARTESIAN_POINT ( 'NONE',  ( 0.000000000000000000, 0.000000000000000000, -0.2500000000000000000 ) ) ;
#29 = AXIS2_PLACEMENT_3D ( 'NONE', #67, #202, #25 ) ;
#30 = ADVANCED_FACE ( 'NONE', ( #157 ), #266, .T. ) ;
#31 = AXIS2_PLACEMENT_3D ( 'NONE', #9, #61, #272 ) ;
#32 = SURFACE_STYLE_FILL_AREA ( #143 ) ;
#33 = SURFACE_STYLE_FILL_AREA ( #85 ) ;
#34 =( LENGTH_UNIT ( ) NAMED_UNIT ( * ) SI_UNIT ( $, .METRE. ) );
#35 = CIRCLE ( 'NONE', #92, 0.2499999999999996947 ) ;
#36 = FILL_AREA_STYLE_COLOUR ( '', #294 ) ;
#37 = LENGTH_MEASURE_WITH_UNIT ( LENGTH_MEASURE( 0.02539999999999999897 ), #96 );
#38 = ADVANCED_FACE ( 'NONE', ( #181 ), #273, .T. ) ;
#39 = CARTESIAN_POINT ( 'NONE',  ( 0.000000000000000000, 0.6250000000000000000, 0.000000000000000000 ) ) ;
#40 = APPLICATION_PROTOCOL_DEFINITION ( 'draft international standard', 'automotive_design', 1998, #164 ) ;
#41 = ORIENTED_EDGE ( 'NONE', *, *, #286, .F. ) ;
#42 = PRODUCT_DEFINITION_SHAPE ( 'NONE', 'NONE',  #89 ) ;
#43 = DIRECTION ( 'NONE',  ( 1.632862398863137527E-16, 1.000000000000000000, -0.000000000000000000 ) ) ;
#44 = DIMENSIONAL_EXPONENTS ( 1.000000000000000000, 0.000000000000000000, 0.000000000000000000, 0.000000000000000000, 0.000000000000000000, 0.000000000000000000, 0.000000000000000000 ) ;
#45 = VECTOR ( 'NONE', #206, 39.37007874015748143 ) ;
#46 = COLOUR_RGB ( '',1.000000000000000000, 0.000000000000000000, 0.000000000000000000 ) ;
#47 = EDGE_CURVE ( 'NONE', #160, #90, #172, .T. ) ;
#48 = PRESENTATION_LAYER_ASSIGNMENT (  '', '', ( #237 ) ) ;
#49 = PRESENTATION_STYLE_ASSIGNMENT (( #144 ) ) ;
#50 =( NAMED_UNIT ( * ) PLANE_ANGLE_UNIT ( ) SI_UNIT ( $, .RADIAN. ) );
#51 = MANIFOLD_SOLID_BREP ( 'Revolve - Tool Body (Straight Shanked)', #249 ) ;
#52 = PLANE ( 'NONE',  #233 ) ;
#53 = AXIS2_PLACEMENT_3D ( 'NONE', #125, #104, #299 ) ;
#54 = MANIFOLD_SOLID_BREP ( 'Revolve - Cutting Edge', #71 ) ;
#55 = MECHANICAL_DESIGN_GEOMETRIC_PRESENTATION_REPRESENTATION (  '', ( #283 ), #198 ) ;
#56 = ORIENTED_EDGE ( 'NONE', *, *, #47, .F. ) ;
#57 = EDGE_CURVE ( 'NONE', #4, #160, #60, .T. ) ;
#58 =( CONVERSION_BASED_UNIT ( 'INCH', #291 ) LENGTH_UNIT ( ) NAMED_UNIT ( #186 ) );
#59 = VERTEX_POINT ( 'NONE', #68 ) ;
#60 = CIRCLE ( 'NONE', #267, 0.2500000000000000000 ) ;
#61 = DIRECTION ( 'NONE',  ( -0.000000000000000000, -1.000000000000000000, -0.000000000000000000 ) ) ;
#62 = DIRECTION ( 'NONE',  ( -0.000000000000000000, -1.000000000000000000, -0.000000000000000000 ) ) ;
#63 = FILL_AREA_STYLE ('',( #36 ) ) ;
#64 = DIMENSIONAL_EXPONENTS ( 1.000000000000000000, 0.000000000000000000, 0.000000000000000000, 0.000000000000000000, 0.000000000000000000, 0.000000000000000000, 0.000000000000000000 ) ;
#65 = CARTESIAN_POINT ( 'NONE',  ( 0.2500000000000000000, 2.500000000000000000, 0.000000000000000000 ) ) ;
#66 = EDGE_LOOP ( 'NONE', ( #81, #240 ) ) ;
#67 = CARTESIAN_POINT ( 'NONE',  ( 0.000000000000000000, 0.000000000000000000, 0.000000000000000000 ) ) ;
#68 = CARTESIAN_POINT ( 'NONE',  ( 3.061616997868383018E-17, 0.6250000000000000000, 0.2500000000000000000 ) ) ;
#69 = SURFACE_SIDE_STYLE ('',( #276 ) ) ;
#70 =( NAMED_UNIT ( * ) PLANE_ANGLE_UNIT ( ) SI_UNIT ( $, .RADIAN. ) );
#71 = CLOSED_SHELL ( 'NONE', ( #161, #112, #30, #256 ) ) ;
#72 = DIMENSIONAL_EXPONENTS ( 1.000000000000000000, 0.000000000000000000, 0.000000000000000000, 0.000000000000000000, 0.000000000000000000, 0.000000000000000000, 0.000000000000000000 ) ;
#73 =( CONVERSION_BASED_UNIT ( 'INCH', #303 ) LENGTH_UNIT ( ) NAMED_UNIT ( #18 ) );
#74 = PRESENTATION_STYLE_ASSIGNMENT (( #207 ) ) ;
#75 = ADVANCED_FACE ( 'NONE', ( #122 ), #201, .T. ) ;
#76 =( LENGTH_UNIT ( ) NAMED_UNIT ( * ) SI_UNIT ( $, .METRE. ) );
#77 = EDGE_CURVE ( 'NONE', #195, #59, #224, .T. ) ;
#78 = PRESENTATION_LAYER_ASSIGNMENT (  '', '', ( #274 ) ) ;
#79 = SURFACE_SIDE_STYLE ('',( #32 ) ) ;
#80 = PRESENTATION_STYLE_ASSIGNMENT (( #127 ) ) ;
#81 = ORIENTED_EDGE ( 'NONE', *, *, #131, .T. ) ;
#82 = FACE_OUTER_BOUND ( 'NONE', #166, .T. ) ;
#83 = EDGE_LOOP ( 'NONE', ( #214, #145 ) ) ;
#84 = UNCERTAINTY_MEASURE_WITH_UNIT (LENGTH_MEASURE( 1.000000000000000082E-05 ), #187, 'distance_accuracy_value', 'NONE');
#85 = FILL_AREA_STYLE ('',( #297 ) ) ;
#86 = DIRECTION ( 'NONE',  ( -1.000000000000000000, 0.000000000000000000, 0.000000000000000000 ) ) ;
#87 = DIRECTION ( 'NONE',  ( 1.632862398863137527E-16, 1.000000000000000000, -0.000000000000000000 ) ) ;
#88 = ORIENTED_EDGE ( 'NONE', *, *, #131, .F. ) ;
#89 = PRODUCT_DEFINITION ( 'UNKNOWN', '', #225, #155 ) ;
#90 = VERTEX_POINT ( 'NONE', #182 ) ;
#91 = STYLED_ITEM ( 'NONE', ( #80 ), #112 ) ;
#92 = AXIS2_PLACEMENT_3D ( 'NONE', #171, #87, #133 ) ;
#93 = CARTESIAN_POINT ( 'NONE',  ( 0.000000000000000000, 0.000000000000000000, -0.2500000000000000000 ) ) ;
#94 = ORIENTED_EDGE ( 'NONE', *, *, #101, .F. ) ;
#95 = UNCERTAINTY_MEASURE_WITH_UNIT (LENGTH_MEASURE( 1.000000000000000082E-05 ), #12, 'distance_accuracy_value', 'NONE');
#96 =( LENGTH_UNIT ( ) NAMED_UNIT ( * ) SI_UNIT ( $, .METRE. ) );
#97 =( NAMED_UNIT ( * ) PLANE_ANGLE_UNIT ( ) SI_UNIT ( $, .RADIAN. ) );
#98 = DIMENSIONAL_EXPONENTS ( 1.000000000000000000, 0.000000000000000000, 0.000000000000000000, 0.000000000000000000, 0.000000000000000000, 0.000000000000000000, 0.000000000000000000 ) ;
#99 = DIRECTION ( 'NONE',  ( -0.000000000000000000, -1.000000000000000000, -0.000000000000000000 ) ) ;
#100 = AXIS2_PLACEMENT_3D ( 'NONE', #270, #247, #135 ) ;
#101 = EDGE_CURVE ( 'NONE', #4, #222, #228, .T. ) ;
#102 =( LENGTH_UNIT ( ) NAMED_UNIT ( * ) SI_UNIT ( $, .METRE. ) );
#103 = ADVANCED_BREP_SHAPE_REPRESENTATION ( '03435', ( #54, #51, #29 ), #111 ) ;
#104 = DIRECTION ( 'NONE',  ( 1.632862398863137527E-16, 1.000000000000000000, -0.000000000000000000 ) ) ;
#105 = ORIENTED_EDGE ( 'NONE', *, *, #168, .F. ) ;
#106 = VECTOR ( 'NONE', #43, 39.37007874015748143 ) ;
#107 = LENGTH_MEASURE_WITH_UNIT ( LENGTH_MEASURE( 0.02539999999999999897 ), #208 );
#108 = DIRECTION ( 'NONE',  ( 0.000000000000000000, 1.000000000000000000, 0.000000000000000000 ) ) ;
#109 = LINE ( 'NONE', #28, #301 ) ;
#110 = CARTESIAN_POINT ( 'NONE',  ( 0.000000000000000000, 0.6250000000000000000, -0.2500000000000000000 ) ) ;
#111 =( GEOMETRIC_REPRESENTATION_CONTEXT ( 3 ) GLOBAL_UNCERTAINTY_ASSIGNED_CONTEXT ( ( #275 ) ) GLOBAL_UNIT_ASSIGNED_CONTEXT ( ( #58, #196, #268 ) ) REPRESENTATION_CONTEXT ( 'NONE', 'WORKASPACE' ) );
#112 = ADVANCED_FACE ( 'NONE', ( #140 ), #23, .T. ) ;
#113 = DIRECTION ( 'NONE',  ( 0.000000000000000000, -1.000000000000000000, -0.000000000000000000 ) ) ;
#114 = ORIENTED_EDGE ( 'NONE', *, *, #286, .T. ) ;
#115 = DIRECTION ( 'NONE',  ( 0.000000000000000000, 0.000000000000000000, -1.000000000000000000 ) ) ;
#116 = ORIENTED_EDGE ( 'NONE', *, *, #308, .F. ) ;
#117 =( GEOMETRIC_REPRESENTATION_CONTEXT ( 3 ) GLOBAL_UNCERTAINTY_ASSIGNED_CONTEXT ( ( #95 ) ) GLOBAL_UNIT_ASSIGNED_CONTEXT ( ( #12, #97, #269 ) ) REPRESENTATION_CONTEXT ( 'NONE', 'WORKASPACE' ) );
#118 = AXIS2_PLACEMENT_3D ( 'NONE', #65, #174, #119 ) ;
#119 = DIRECTION ( 'NONE',  ( 1.000000000000000000, -1.632862398863137527E-16, 0.000000000000000000 ) ) ;
#120 = DIRECTION ( 'NONE',  ( 0.000000000000000000, 0.000000000000000000, -1.000000000000000000 ) ) ;
#121 = UNCERTAINTY_MEASURE_WITH_UNIT (LENGTH_MEASURE( 1.000000000000000082E-05 ), #73, 'distance_accuracy_value', 'NONE');
#122 = FACE_OUTER_BOUND ( 'NONE', #10, .T. ) ;
#123 =( NAMED_UNIT ( * ) PLANE_ANGLE_UNIT ( ) SI_UNIT ( $, .RADIAN. ) );
#124 = SURFACE_SIDE_STYLE ('',( #278 ) ) ;
#125 = CARTESIAN_POINT ( 'NONE',  ( 3.061616997868383141E-16, 2.500000000000000000, 0.000000000000000000 ) ) ;
#126 = CARTESIAN_POINT ( 'NONE',  ( 3.061616997868383141E-16, 2.500000000000000000, 0.000000000000000000 ) ) ;
#127 = SURFACE_STYLE_USAGE ( .BOTH. , #79 ) ;
#128 = FACE_OUTER_BOUND ( 'NONE', #154, .T. ) ;
#129 = ORIENTED_EDGE ( 'NONE', *, *, #77, .T. ) ;
#130 = ADVANCED_FACE ( 'NONE', ( #128 ), #52, .F. ) ;
#131 = EDGE_CURVE ( 'NONE', #222, #90, #2, .T. ) ;
#132 = SURFACE_SIDE_STYLE ('',( #33 ) ) ;
#133 = DIRECTION ( 'NONE',  ( -1.000000000000000000, 0.000000000000000000, 0.000000000000000000 ) ) ;
#134 = SURFACE_STYLE_FILL_AREA ( #63 ) ;
#135 = DIRECTION ( 'NONE',  ( 0.000000000000000000, 0.000000000000000000, -1.000000000000000000 ) ) ;
#136 = CARTESIAN_POINT ( 'NONE',  ( 0.000000000000000000, 0.000000000000000000, 0.000000000000000000 ) ) ;
#137 = PRESENTATION_LAYER_ASSIGNMENT (  '', '', ( #14 ) ) ;
#138 = ORIENTED_EDGE ( 'NONE', *, *, #227, .F. ) ;
#139 = PRODUCT_CONTEXT ( 'NONE', #164, 'mechanical' ) ;
#140 = FACE_OUTER_BOUND ( 'NONE', #83, .T. ) ;
#141 = DIRECTION ( 'NONE',  ( 1.632862398863137527E-16, 1.000000000000000000, -0.000000000000000000 ) ) ;
#142 = PRESENTATION_LAYER_ASSIGNMENT (  '', '', ( #283 ) ) ;
#143 = FILL_AREA_STYLE ('',( #288 ) ) ;
#144 = SURFACE_STYLE_USAGE ( .BOTH. , #306 ) ;
#145 = ORIENTED_EDGE ( 'NONE', *, *, #223, .F. ) ;
#146 = DIRECTION ( 'NONE',  ( -0.000000000000000000, -1.000000000000000000, -0.000000000000000000 ) ) ;
#147 = MECHANICAL_DESIGN_GEOMETRIC_PRESENTATION_REPRESENTATION (  '', ( #237 ), #15 ) ;
#148 = DIRECTION ( 'NONE',  ( 0.000000000000000000, 0.000000000000000000, -1.000000000000000000 ) ) ;
#149 =( LENGTH_UNIT ( ) NAMED_UNIT ( * ) SI_UNIT ( $, .METRE. ) );
#150 = EDGE_LOOP ( 'NONE', ( #199, #170 ) ) ;
#151 = PRODUCT ( '03435', '03435', '', ( #139 ) ) ;
#152 =( GEOMETRIC_REPRESENTATION_CONTEXT ( 3 ) GLOBAL_UNCERTAINTY_ASSIGNED_CONTEXT ( ( #121 ) ) GLOBAL_UNIT_ASSIGNED_CONTEXT ( ( #73, #70, #254 ) ) REPRESENTATION_CONTEXT ( 'NONE', 'WORKASPACE' ) );
#153 = AXIS2_PLACEMENT_3D ( 'NONE', #263, #146, #148 ) ;
#154 = EDGE_LOOP ( 'NONE', ( #226, #41 ) ) ;
#155 = PRODUCT_DEFINITION_CONTEXT ( 'detailed design', #238, 'design' ) ;
#156 = FACE_OUTER_BOUND ( 'NONE', #66, .T. ) ;
#157 = FACE_OUTER_BOUND ( 'NONE', #13, .T. ) ;
#158 = DIRECTION ( 'NONE',  ( 0.000000000000000000, 0.000000000000000000, -1.000000000000000000 ) ) ;
#159 = SURFACE_SIDE_STYLE ('',( #134 ) ) ;
#160 = VERTEX_POINT ( 'NONE', #309 ) ;
#161 = ADVANCED_FACE ( 'NONE', ( #82 ), #260, .T. ) ;
#162 = DIRECTION ( 'NONE',  ( 0.000000000000000000, 0.000000000000000000, -1.000000000000000000 ) ) ;
#163 = UNCERTAINTY_MEASURE_WITH_UNIT (LENGTH_MEASURE( 1.000000000000000082E-05 ), #229, 'distance_accuracy_value', 'NONE');
#164 = APPLICATION_CONTEXT ( 'automotive_design' ) ;
#165 = EDGE_CURVE ( 'NONE', #195, #271, #109, .T. ) ;
#166 = EDGE_LOOP ( 'NONE', ( #129, #242, #105, #250 ) ) ;
#167 = SURFACE_STYLE_FILL_AREA ( #5 ) ;
#168 = EDGE_CURVE ( 'NONE', #271, #285, #185, .T. ) ;
#169 = CIRCLE ( 'NONE', #205, 0.2500000000000000000 ) ;
#170 = ORIENTED_EDGE ( 'NONE', *, *, #308, .T. ) ;
#171 = CARTESIAN_POINT ( 'NONE',  ( 3.061616997868383141E-16, 2.500000000000000000, 0.000000000000000000 ) ) ;
#172 = LINE ( 'NONE', #203, #45 ) ;
#173 = UNCERTAINTY_MEASURE_WITH_UNIT (LENGTH_MEASURE( 1.000000000000000082E-05 ), #190, 'distance_accuracy_value', 'NONE');
#174 = DIRECTION ( 'NONE',  ( -1.632862398863137527E-16, -1.000000000000000000, 0.000000000000000000 ) ) ;
#175 = DIRECTION ( 'NONE',  ( -0.000000000000000000, -1.000000000000000000, -0.000000000000000000 ) ) ;
#176 = COLOUR_RGB ( '',1.000000000000000000, 0.000000000000000000, 0.000000000000000000 ) ;
#177 = CIRCLE ( 'NONE', #212, 0.2500000000000000000 ) ;
#178 = PRESENTATION_STYLE_ASSIGNMENT (( #265 ) ) ;
#179 = CARTESIAN_POINT ( 'NONE',  ( 3.061616997868383018E-17, 0.000000000000000000, 0.2500000000000000000 ) ) ;
#180 = PLANE ( 'NONE',  #216 ) ;
#181 = FACE_OUTER_BOUND ( 'NONE', #290, .T. ) ;
#182 = CARTESIAN_POINT ( 'NONE',  ( 0.2500000000000000000, 2.500000000000000000, 3.061616997868382402E-17 ) ) ;
#183 = CARTESIAN_POINT ( 'NONE',  ( 0.000000000000000000, 0.6250000000000000000, 0.000000000000000000 ) ) ;
#184 = CARTESIAN_POINT ( 'NONE',  ( 0.000000000000000000, 0.6250000000000000000, 0.000000000000000000 ) ) ;
#185 = CIRCLE ( 'NONE', #31, 0.2500000000000000000 ) ;
#186 = DIMENSIONAL_EXPONENTS ( 1.000000000000000000, 0.000000000000000000, 0.000000000000000000, 0.000000000000000000, 0.000000000000000000, 0.000000000000000000, 0.000000000000000000 ) ;
#187 =( CONVERSION_BASED_UNIT ( 'INCH', #210 ) LENGTH_UNIT ( ) NAMED_UNIT ( #21 ) );
#188 =( NAMED_UNIT ( * ) SI_UNIT ( $, .STERADIAN. ) SOLID_ANGLE_UNIT ( ) );
#189 = DIRECTION ( 'NONE',  ( 0.000000000000000000, -0.000000000000000000, 1.000000000000000000 ) ) ;
#190 =( CONVERSION_BASED_UNIT ( 'INCH', #107 ) LENGTH_UNIT ( ) NAMED_UNIT ( #72 ) );
#191 = AXIS2_PLACEMENT_3D ( 'NONE', #136, #17, #120 ) ;
#192 = COLOUR_RGB ( '',0.7921568627450980005, 0.8196078431372548767, 0.9333333333333333481 ) ;
#193 = DIRECTION ( 'NONE',  ( 1.632862398863137527E-16, 1.000000000000000000, -0.000000000000000000 ) ) ;
#194 = DIRECTION ( 'NONE',  ( -1.000000000000000000, 0.000000000000000000, 0.000000000000000000 ) ) ;
#195 = VERTEX_POINT ( 'NONE', #110 ) ;
#196 =( NAMED_UNIT ( * ) PLANE_ANGLE_UNIT ( ) SI_UNIT ( $, .RADIAN. ) );
#197 =( NAMED_UNIT ( * ) SI_UNIT ( $, .STERADIAN. ) SOLID_ANGLE_UNIT ( ) );
#198 =( GEOMETRIC_REPRESENTATION_CONTEXT ( 3 ) GLOBAL_UNCERTAINTY_ASSIGNED_CONTEXT ( ( #264 ) ) GLOBAL_UNIT_ASSIGNED_CONTEXT ( ( #11, #6, #197 ) ) REPRESENTATION_CONTEXT ( 'NONE', 'WORKASPACE' ) );
#199 = ORIENTED_EDGE ( 'NONE', *, *, #168, .T. ) ;
#200 = CARTESIAN_POINT ( 'NONE',  ( -0.2499999999999993894, 2.500000000000000000, 0.000000000000000000 ) ) ;
#201 = CYLINDRICAL_SURFACE ( 'NONE', #53, 0.2499999999999998612 ) ;
#202 = DIRECTION ( 'NONE',  ( 0.000000000000000000, 0.000000000000000000, 1.000000000000000000 ) ) ;
#203 = CARTESIAN_POINT ( 'NONE',  ( 0.2500000000000001665, 2.500000000000000000, 3.061616997868381785E-17 ) ) ;
#204 = MECHANICAL_DESIGN_GEOMETRIC_PRESENTATION_REPRESENTATION (  '', ( #1 ), #117 ) ;
#205 = AXIS2_PLACEMENT_3D ( 'NONE', #16, #293, #194 ) ;
#206 = DIRECTION ( 'NONE',  ( 1.632862398863137527E-16, 1.000000000000000000, -0.000000000000000000 ) ) ;
#207 = SURFACE_STYLE_USAGE ( .BOTH. , #124 ) ;
#208 =( LENGTH_UNIT ( ) NAMED_UNIT ( * ) SI_UNIT ( $, .METRE. ) );
#209 = FILL_AREA_STYLE_COLOUR ( '', #46 ) ;
#210 = LENGTH_MEASURE_WITH_UNIT ( LENGTH_MEASURE( 0.02539999999999999897 ), #76 );
#211 = VECTOR ( 'NONE', #175, 39.37007874015748143 ) ;
#212 = AXIS2_PLACEMENT_3D ( 'NONE', #39, #62, #158 ) ;
#213 = DIRECTION ( 'NONE',  ( 1.632862398863137527E-16, 1.000000000000000000, -0.000000000000000000 ) ) ;
#214 = ORIENTED_EDGE ( 'NONE', *, *, #77, .F. ) ;
#215 = SURFACE_STYLE_USAGE ( .BOTH. , #132 ) ;
#216 = AXIS2_PLACEMENT_3D ( 'NONE', #241, #113, #115 ) ;
#217 = ORIENTED_EDGE ( 'NONE', *, *, #47, .T. ) ;
#218 = ADVANCED_FACE ( 'NONE', ( #156 ), #221, .F. ) ;
#219 = PRESENTATION_STYLE_ASSIGNMENT (( #215 ) ) ;
#220 = LENGTH_MEASURE_WITH_UNIT ( LENGTH_MEASURE( 0.02539999999999999897 ), #34 );
#221 = PLANE ( 'NONE',  #118 ) ;
#222 = VERTEX_POINT ( 'NONE', #200 ) ;
#223 = EDGE_CURVE ( 'NONE', #59, #195, #177, .T. ) ;
#224 = CIRCLE ( 'NONE', #262, 0.2500000000000000000 ) ;
#225 = PRODUCT_DEFINITION_FORMATION_WITH_SPECIFIED_SOURCE ( 'ANY', '', #151, .NOT_KNOWN. ) ;
#226 = ORIENTED_EDGE ( 'NONE', *, *, #57, .F. ) ;
#227 = EDGE_CURVE ( 'NONE', #90, #222, #35, .T. ) ;
#228 = LINE ( 'NONE', #253, #106 ) ;
#229 =( CONVERSION_BASED_UNIT ( 'INCH', #257 ) LENGTH_UNIT ( ) NAMED_UNIT ( #44 ) );
#230 = FILL_AREA_STYLE ('',( #252 ) ) ;
#231 =( GEOMETRIC_REPRESENTATION_CONTEXT ( 3 ) GLOBAL_UNCERTAINTY_ASSIGNED_CONTEXT ( ( #84 ) ) GLOBAL_UNIT_ASSIGNED_CONTEXT ( ( #187, #50, #284 ) ) REPRESENTATION_CONTEXT ( 'NONE', 'WORKASPACE' ) );
#232 = AXIS2_PLACEMENT_3D ( 'NONE', #239, #108, #189 ) ;
#233 = AXIS2_PLACEMENT_3D ( 'NONE', #234, #213, #3 ) ;
#234 = CARTESIAN_POINT ( 'NONE',  ( 3.332799517026350012E-33, 0.6250000000000000000, 0.000000000000000000 ) ) ;
#235 = DIRECTION ( 'NONE',  ( -1.000000000000000000, 0.000000000000000000, 0.000000000000000000 ) ) ;
#236 = ORIENTED_EDGE ( 'NONE', *, *, #19, .F. ) ;
#237 = STYLED_ITEM ( 'NONE', ( #49 ), #161 ) ;
#238 = APPLICATION_CONTEXT ( 'automotive_design' ) ;
#239 = CARTESIAN_POINT ( 'NONE',  ( 0.000000000000000000, 0.6250000000000000000, 0.000000000000000000 ) ) ;
#240 = ORIENTED_EDGE ( 'NONE', *, *, #227, .T. ) ;
#241 = CARTESIAN_POINT ( 'NONE',  ( 0.000000000000000000, 0.000000000000000000, 0.000000000000000000 ) ) ;
#242 = ORIENTED_EDGE ( 'NONE', *, *, #19, .T. ) ;
#243 = AXIS2_PLACEMENT_3D ( 'NONE', #20, #193, #86 ) ;
#244 = FACE_OUTER_BOUND ( 'NONE', #150, .T. ) ;
#245 = ORIENTED_EDGE ( 'NONE', *, *, #57, .T. ) ;
#246 = CARTESIAN_POINT ( 'NONE',  ( 3.061616997868383018E-17, 0.000000000000000000, 0.2500000000000000000 ) ) ;
#247 = DIRECTION ( 'NONE',  ( -0.000000000000000000, -1.000000000000000000, -0.000000000000000000 ) ) ;
#248 = SHAPE_DEFINITION_REPRESENTATION ( #42, #103 ) ;
#249 = CLOSED_SHELL ( 'NONE', ( #75, #130, #38, #218 ) ) ;
#250 = ORIENTED_EDGE ( 'NONE', *, *, #165, .F. ) ;
#251 = APPLICATION_PROTOCOL_DEFINITION ( 'draft international standard', 'automotive_design', 1998, #238 ) ;
#252 = FILL_AREA_STYLE_COLOUR ( '', #192 ) ;
#253 = CARTESIAN_POINT ( 'NONE',  ( -0.2499999999999995559, 2.500000000000000000, 0.000000000000000000 ) ) ;
#254 =( NAMED_UNIT ( * ) SI_UNIT ( $, .STERADIAN. ) SOLID_ANGLE_UNIT ( ) );
#255 = PRESENTATION_LAYER_ASSIGNMENT (  '', '', ( #91 ) ) ;
#256 = ADVANCED_FACE ( 'NONE', ( #244 ), #180, .T. ) ;
#257 = LENGTH_MEASURE_WITH_UNIT ( LENGTH_MEASURE( 0.02539999999999999897 ), #102 );
#258 = SURFACE_STYLE_USAGE ( .BOTH. , #69 ) ;
#259 = DIRECTION ( 'NONE',  ( -0.000000000000000000, -1.000000000000000000, -0.000000000000000000 ) ) ;
#260 = CYLINDRICAL_SURFACE ( 'NONE', #153, 0.2500000000000000000 ) ;
#261 =( NAMED_UNIT ( * ) PLANE_ANGLE_UNIT ( ) SI_UNIT ( $, .RADIAN. ) );
#262 = AXIS2_PLACEMENT_3D ( 'NONE', #183, #99, #162 ) ;
#263 = CARTESIAN_POINT ( 'NONE',  ( 0.000000000000000000, 0.000000000000000000, 0.000000000000000000 ) ) ;
#264 = UNCERTAINTY_MEASURE_WITH_UNIT (LENGTH_MEASURE( 1.000000000000000082E-05 ), #11, 'distance_accuracy_value', 'NONE');
#265 = SURFACE_STYLE_USAGE ( .BOTH. , #159 ) ;
#266 = CYLINDRICAL_SURFACE ( 'NONE', #191, 0.2500000000000000000 ) ;
#267 = AXIS2_PLACEMENT_3D ( 'NONE', #184, #141, #26 ) ;
#268 =( NAMED_UNIT ( * ) SI_UNIT ( $, .STERADIAN. ) SOLID_ANGLE_UNIT ( ) );
#269 =( NAMED_UNIT ( * ) SI_UNIT ( $, .STERADIAN. ) SOLID_ANGLE_UNIT ( ) );
#270 = CARTESIAN_POINT ( 'NONE',  ( 0.000000000000000000, 0.000000000000000000, 0.000000000000000000 ) ) ;
#271 = VERTEX_POINT ( 'NONE', #93 ) ;
#272 = DIRECTION ( 'NONE',  ( 0.000000000000000000, 0.000000000000000000, -1.000000000000000000 ) ) ;
#273 = CYLINDRICAL_SURFACE ( 'NONE', #243, 0.2499999999999998612 ) ;
#274 = STYLED_ITEM ( 'NONE', ( #74 ), #51 ) ;
#275 = UNCERTAINTY_MEASURE_WITH_UNIT (LENGTH_MEASURE( 1.000000000000000082E-05 ), #58, 'distance_accuracy_value', 'NONE');
#276 = SURFACE_STYLE_FILL_AREA ( #230 ) ;
#277 = PRODUCT_RELATED_PRODUCT_CATEGORY ( 'part', '', ( #151 ) ) ;
#278 = SURFACE_STYLE_FILL_AREA ( #281 ) ;
#279 = COLOUR_RGB ( '',0.7921568627450980005, 0.8196078431372548767, 0.9333333333333333481 ) ;
#280 = COLOUR_RGB ( '',1.000000000000000000, 0.000000000000000000, 0.000000000000000000 ) ;
#281 = FILL_AREA_STYLE ('',( #304 ) ) ;
#282 = MECHANICAL_DESIGN_GEOMETRIC_PRESENTATION_REPRESENTATION (  '', ( #274 ), #152 ) ;
#283 = STYLED_ITEM ( 'NONE', ( #219 ), #256 ) ;
#284 =( NAMED_UNIT ( * ) SI_UNIT ( $, .STERADIAN. ) SOLID_ANGLE_UNIT ( ) );
#285 = VERTEX_POINT ( 'NONE', #179 ) ;
#286 = EDGE_CURVE ( 'NONE', #160, #4, #169, .T. ) ;
#287 = DIRECTION ( 'NONE',  ( 1.632862398863137527E-16, 1.000000000000000000, -0.000000000000000000 ) ) ;
#288 = FILL_AREA_STYLE_COLOUR ( '', #176 ) ;
#289 = ORIENTED_EDGE ( 'NONE', *, *, #101, .T. ) ;
#290 = EDGE_LOOP ( 'NONE', ( #56, #114, #289, #138 ) ) ;
#291 = LENGTH_MEASURE_WITH_UNIT ( LENGTH_MEASURE( 0.02539999999999999897 ), #149 );
#292 = LINE ( 'NONE', #246, #211 ) ;
#293 = DIRECTION ( 'NONE',  ( 1.632862398863137527E-16, 1.000000000000000000, -0.000000000000000000 ) ) ;
#294 = COLOUR_RGB ( '',1.000000000000000000, 0.000000000000000000, 0.000000000000000000 ) ;
#295 = CIRCLE ( 'NONE', #100, 0.2500000000000000000 ) ;
#296 = CARTESIAN_POINT ( 'NONE',  ( -0.2500000000000000000, 0.6250000000000000000, 0.000000000000000000 ) ) ;
#297 = FILL_AREA_STYLE_COLOUR ( '', #280 ) ;
#298 = ORIENTED_EDGE ( 'NONE', *, *, #223, .T. ) ;
#299 = DIRECTION ( 'NONE',  ( -1.000000000000000000, 0.000000000000000000, 0.000000000000000000 ) ) ;
#300 = PRESENTATION_LAYER_ASSIGNMENT (  '', '', ( #1 ) ) ;
#301 = VECTOR ( 'NONE', #259, 39.37007874015748143 ) ;
#302 =( LENGTH_UNIT ( ) NAMED_UNIT ( * ) SI_UNIT ( $, .METRE. ) );
#303 = LENGTH_MEASURE_WITH_UNIT ( LENGTH_MEASURE( 0.02539999999999999897 ), #302 );
#304 = FILL_AREA_STYLE_COLOUR ( '', #279 ) ;
#305 =( NAMED_UNIT ( * ) SI_UNIT ( $, .STERADIAN. ) SOLID_ANGLE_UNIT ( ) );
#306 = SURFACE_SIDE_STYLE ('',( #167 ) ) ;
#307 = ORIENTED_EDGE ( 'NONE', *, *, #165, .T. ) ;
#308 = EDGE_CURVE ( 'NONE', #285, #271, #295, .T. ) ;
#309 = CARTESIAN_POINT ( 'NONE',  ( 0.2500000000000000000, 0.6250000000000000000, 3.061616997868382402E-17 ) ) ;
ENDSEC;
END-ISO-10303-21;
