ISO-10303-21;
HEADER;
FILE_DESCRIPTION (( 'STEP AP214' ),
    '1' );
FILE_NAME ('03610.STEP',
    '2023-06-22T15:32:34',
    ( '' ),
    ( '' ),
    'SwSTEP 2.0',
    'SolidWorks 2023',
    '' );
FILE_SCHEMA (( 'AUTOMOTIVE_DESIGN' ));
ENDSEC;

DATA;
#1 =( NAMED_UNIT ( * ) PLANE_ANGLE_UNIT ( ) SI_UNIT ( $, .RADIAN. ) );
#2 = AXIS2_PLACEMENT_3D ( 'NONE', #117, #22, #184 ) ;
#3 = SURFACE_STYLE_FILL_AREA ( #212 ) ;
#4 = DIRECTION ( 'NONE',  ( 0.000000000000000000, 0.000000000000000000, -1.000000000000000000 ) ) ;
#5 = STYLED_ITEM ( 'NONE', ( #275 ), #182 ) ;
#6 = FACE_OUTER_BOUND ( 'NONE', #183, .T. ) ;
#7 = ORIENTED_EDGE ( 'NONE', *, *, #214, .F. ) ;
#8 = FILL_AREA_STYLE ('',( #248 ) ) ;
#9 = AXIS2_PLACEMENT_3D ( 'NONE', #260, #17, #48 ) ;
#10 = EDGE_CURVE ( 'NONE', #30, #228, #105, .T. ) ;
#11 = PRESENTATION_STYLE_ASSIGNMENT (( #129 ) ) ;
#12 =( LENGTH_UNIT ( ) NAMED_UNIT ( * ) SI_UNIT ( $, .METRE. ) );
#13 = ORIENTED_EDGE ( 'NONE', *, *, #175, .T. ) ;
#14 =( GEOMETRIC_REPRESENTATION_CONTEXT ( 3 ) GLOBAL_UNCERTAINTY_ASSIGNED_CONTEXT ( ( #41 ) ) GLOBAL_UNIT_ASSIGNED_CONTEXT ( ( #252, #142, #203 ) ) REPRESENTATION_CONTEXT ( 'NONE', 'WORKASPACE' ) );
#15 = ADVANCED_FACE ( 'NONE', ( #206 ), #49, .T. ) ;
#16 = VERTEX_POINT ( 'NONE', #236 ) ;
#17 = DIRECTION ( 'NONE',  ( -0.000000000000000000, -1.000000000000000000, -0.000000000000000000 ) ) ;
#18 = ORIENTED_EDGE ( 'NONE', *, *, #38, .T. ) ;
#19 = VERTEX_POINT ( 'NONE', #44 ) ;
#20 = PRODUCT_RELATED_PRODUCT_CATEGORY ( 'part', '', ( #72 ) ) ;
#21 = COLOUR_RGB ( '',1.000000000000000000, 0.000000000000000000, 0.000000000000000000 ) ;
#22 = DIRECTION ( 'NONE',  ( -4.453261087808560759E-17, 1.000000000000000000, -0.000000000000000000 ) ) ;
#23 = UNCERTAINTY_MEASURE_WITH_UNIT (LENGTH_MEASURE( 1.000000000000000082E-05 ), #92, 'distance_accuracy_value', 'NONE');
#24 = DIRECTION ( 'NONE',  ( -4.453261087808560759E-17, 1.000000000000000000, -0.000000000000000000 ) ) ;
#25 = FILL_AREA_STYLE_COLOUR ( '', #100 ) ;
#26 = DIMENSIONAL_EXPONENTS ( 1.000000000000000000, 0.000000000000000000, 0.000000000000000000, 0.000000000000000000, 0.000000000000000000, 0.000000000000000000, 0.000000000000000000 ) ;
#27 = PRESENTATION_LAYER_ASSIGNMENT (  '', '', ( #32 ) ) ;
#28 = DIRECTION ( 'NONE',  ( -1.000000000000000000, 0.000000000000000000, 0.000000000000000000 ) ) ;
#29 = DIRECTION ( 'NONE',  ( -1.000000000000000000, 0.000000000000000000, 0.000000000000000000 ) ) ;
#30 = VERTEX_POINT ( 'NONE', #61 ) ;
#31 = CARTESIAN_POINT ( 'NONE',  ( 0.000000000000000000, 0.000000000000000000, 0.000000000000000000 ) ) ;
#32 = STYLED_ITEM ( 'NONE', ( #115 ), #294 ) ;
#33 =( NAMED_UNIT ( * ) SI_UNIT ( $, .STERADIAN. ) SOLID_ANGLE_UNIT ( ) );
#34 = AXIS2_PLACEMENT_3D ( 'NONE', #139, #306, #289 ) ;
#35 = SURFACE_STYLE_FILL_AREA ( #8 ) ;
#36 = MANIFOLD_SOLID_BREP ( 'Revolve - Cutting Edge', #272 ) ;
#37 =( NAMED_UNIT ( * ) PLANE_ANGLE_UNIT ( ) SI_UNIT ( $, .RADIAN. ) );
#38 = EDGE_CURVE ( 'NONE', #181, #19, #307, .T. ) ;
#39 =( LENGTH_UNIT ( ) NAMED_UNIT ( * ) SI_UNIT ( $, .METRE. ) );
#40 = AXIS2_PLACEMENT_3D ( 'NONE', #141, #164, #66 ) ;
#41 = UNCERTAINTY_MEASURE_WITH_UNIT (LENGTH_MEASURE( 1.000000000000000082E-05 ), #252, 'distance_accuracy_value', 'NONE');
#42 = ORIENTED_EDGE ( 'NONE', *, *, #154, .F. ) ;
#43 = ADVANCED_FACE ( 'NONE', ( #301 ), #46, .T. ) ;
#44 = CARTESIAN_POINT ( 'NONE',  ( 0.000000000000000000, 0.000000000000000000, -0.3125000000000000000 ) ) ;
#45 =( GEOMETRIC_REPRESENTATION_CONTEXT ( 3 ) GLOBAL_UNCERTAINTY_ASSIGNED_CONTEXT ( ( #180 ) ) GLOBAL_UNIT_ASSIGNED_CONTEXT ( ( #173, #37, #155 ) ) REPRESENTATION_CONTEXT ( 'NONE', 'WORKASPACE' ) );
#46 = CYLINDRICAL_SURFACE ( 'NONE', #34, 0.3125000000000000555 ) ;
#47 = FILL_AREA_STYLE_COLOUR ( '', #160 ) ;
#48 = DIRECTION ( 'NONE',  ( 0.000000000000000000, 0.000000000000000000, -1.000000000000000000 ) ) ;
#49 = CYLINDRICAL_SURFACE ( 'NONE', #172, 0.3125000000000000555 ) ;
#50 = AXIS2_PLACEMENT_3D ( 'NONE', #102, #216, #29 ) ;
#51 = DIRECTION ( 'NONE',  ( -4.453261087808560759E-17, 1.000000000000000000, 0.000000000000000000 ) ) ;
#52 = PLANE ( 'NONE',  #82 ) ;
#53 = DIMENSIONAL_EXPONENTS ( 1.000000000000000000, 0.000000000000000000, 0.000000000000000000, 0.000000000000000000, 0.000000000000000000, 0.000000000000000000, 0.000000000000000000 ) ;
#54 = SURFACE_SIDE_STYLE ('',( #241 ) ) ;
#55 = PRESENTATION_LAYER_ASSIGNMENT (  '', '', ( #234 ) ) ;
#56 = DIRECTION ( 'NONE',  ( 0.000000000000000000, 0.000000000000000000, -1.000000000000000000 ) ) ;
#57 = ORIENTED_EDGE ( 'NONE', *, *, #38, .F. ) ;
#58 = APPLICATION_CONTEXT ( 'automotive_design' ) ;
#59 = CARTESIAN_POINT ( 'NONE',  ( 0.000000000000000000, 3.250000000000000000, 0.000000000000000000 ) ) ;
#60 = CIRCLE ( 'NONE', #179, 0.3125000000000000000 ) ;
#61 = CARTESIAN_POINT ( 'NONE',  ( -0.3125000000000002776, 6.000000000000000888, 0.000000000000000000 ) ) ;
#62 = DIRECTION ( 'NONE',  ( -1.000000000000000000, 0.000000000000000000, 0.000000000000000000 ) ) ;
#63 =( GEOMETRIC_REPRESENTATION_CONTEXT ( 3 ) GLOBAL_UNCERTAINTY_ASSIGNED_CONTEXT ( ( #156 ) ) GLOBAL_UNIT_ASSIGNED_CONTEXT ( ( #113, #302, #282 ) ) REPRESENTATION_CONTEXT ( 'NONE', 'WORKASPACE' ) );
#64 = ORIENTED_EDGE ( 'NONE', *, *, #65, .F. ) ;
#65 = EDGE_CURVE ( 'NONE', #201, #19, #166, .T. ) ;
#66 = DIRECTION ( 'NONE',  ( 0.000000000000000000, 0.000000000000000000, -1.000000000000000000 ) ) ;
#67 = PRESENTATION_STYLE_ASSIGNMENT (( #124 ) ) ;
#68 = CIRCLE ( 'NONE', #254, 0.3125000000000000000 ) ;
#69 = SHAPE_DEFINITION_REPRESENTATION ( #208, #274 ) ;
#70 = CARTESIAN_POINT ( 'NONE',  ( 0.000000000000000000, 0.000000000000000000, 0.000000000000000000 ) ) ;
#71 = DIRECTION ( 'NONE',  ( -1.000000000000000000, -4.453261087808560759E-17, 0.000000000000000000 ) ) ;
#72 = PRODUCT ( '03610', '03610', '', ( #121 ) ) ;
#73 = CIRCLE ( 'NONE', #195, 0.3125000000000000000 ) ;
#74 = ADVANCED_FACE ( 'NONE', ( #191 ), #167, .T. ) ;
#75 = APPLICATION_CONTEXT ( 'automotive_design' ) ;
#76 = DIRECTION ( 'NONE',  ( 1.000000000000000000, 0.000000000000000000, 0.000000000000000000 ) ) ;
#77 = FILL_AREA_STYLE ('',( #213 ) ) ;
#78 = EDGE_LOOP ( 'NONE', ( #13, #244, #232, #57 ) ) ;
#79 = CARTESIAN_POINT ( 'NONE',  ( 0.000000000000000000, 3.250000000000000000, 0.000000000000000000 ) ) ;
#80 = ORIENTED_EDGE ( 'NONE', *, *, #95, .T. ) ;
#81 = SURFACE_SIDE_STYLE ('',( #295 ) ) ;
#82 = AXIS2_PLACEMENT_3D ( 'NONE', #79, #297, #130 ) ;
#83 = FACE_OUTER_BOUND ( 'NONE', #78, .T. ) ;
#84 = CARTESIAN_POINT ( 'NONE',  ( -0.3125000000000002220, 6.000000000000000888, 0.000000000000000000 ) ) ;
#85 = SURFACE_SIDE_STYLE ('',( #35 ) ) ;
#86 = PRESENTATION_LAYER_ASSIGNMENT (  '', '', ( #273 ) ) ;
#87 = COLOUR_RGB ( '',0.7921568627450980005, 0.8196078431372548767, 0.9333333333333333481 ) ;
#88 =( NAMED_UNIT ( * ) PLANE_ANGLE_UNIT ( ) SI_UNIT ( $, .RADIAN. ) );
#89 = ORIENTED_EDGE ( 'NONE', *, *, #10, .T. ) ;
#90 = FILL_AREA_STYLE ('',( #47 ) ) ;
#91 = UNCERTAINTY_MEASURE_WITH_UNIT (LENGTH_MEASURE( 1.000000000000000082E-05 ), #152, 'distance_accuracy_value', 'NONE');
#92 =( CONVERSION_BASED_UNIT ( 'INCH', #229 ) LENGTH_UNIT ( ) NAMED_UNIT ( #26 ) );
#93 = EDGE_LOOP ( 'NONE', ( #107, #230, #283, #140 ) ) ;
#94 = VECTOR ( 'NONE', #265, 39.37007874015748143 ) ;
#95 = EDGE_CURVE ( 'NONE', #228, #30, #143, .T. ) ;
#96 = DIRECTION ( 'NONE',  ( -0.000000000000000000, -1.000000000000000000, -0.000000000000000000 ) ) ;
#97 = DIRECTION ( 'NONE',  ( -0.000000000000000000, -1.000000000000000000, -0.000000000000000000 ) ) ;
#98 = UNCERTAINTY_MEASURE_WITH_UNIT (LENGTH_MEASURE( 1.000000000000000082E-05 ), #162, 'distance_accuracy_value', 'NONE');
#99 = CARTESIAN_POINT ( 'NONE',  ( 0.3125000000000000000, 6.000000000000000888, 0.000000000000000000 ) ) ;
#100 = COLOUR_RGB ( '',1.000000000000000000, 0.000000000000000000, 0.000000000000000000 ) ;
#101 = LINE ( 'NONE', #288, #94 ) ;
#102 = CARTESIAN_POINT ( 'NONE',  ( -1.224646799147354440E-16, 6.000000000000000888, 0.000000000000000000 ) ) ;
#103 = EDGE_CURVE ( 'NONE', #19, #201, #169, .T. ) ;
#104 = COLOUR_RGB ( '',1.000000000000000000, 0.000000000000000000, 0.000000000000000000 ) ;
#105 = CIRCLE ( 'NONE', #2, 0.3125000000000001665 ) ;
#106 = PLANE ( 'NONE',  #137 ) ;
#107 = ORIENTED_EDGE ( 'NONE', *, *, #214, .T. ) ;
#108 = DIRECTION ( 'NONE',  ( -4.453261087808560759E-17, 1.000000000000000000, -0.000000000000000000 ) ) ;
#109 = PRODUCT_DEFINITION ( 'UNKNOWN', '', #196, #235 ) ;
#110 = AXIS2_PLACEMENT_3D ( 'NONE', #31, #120, #151 ) ;
#111 = MECHANICAL_DESIGN_GEOMETRIC_PRESENTATION_REPRESENTATION (  '', ( #234 ), #280 ) ;
#112 = ORIENTED_EDGE ( 'NONE', *, *, #148, .T. ) ;
#113 =( CONVERSION_BASED_UNIT ( 'INCH', #158 ) LENGTH_UNIT ( ) NAMED_UNIT ( #53 ) );
#114 = EDGE_LOOP ( 'NONE', ( #7, #304 ) ) ;
#115 = PRESENTATION_STYLE_ASSIGNMENT (( #176 ) ) ;
#116 = COLOUR_RGB ( '',0.7921568627450980005, 0.8196078431372548767, 0.9333333333333333481 ) ;
#117 = CARTESIAN_POINT ( 'NONE',  ( -1.224646799147354440E-16, 6.000000000000000888, 0.000000000000000000 ) ) ;
#118 = ADVANCED_FACE ( 'NONE', ( #6 ), #106, .F. ) ;
#119 = SURFACE_SIDE_STYLE ('',( #3 ) ) ;
#120 = DIRECTION ( 'NONE',  ( 0.000000000000000000, -1.000000000000000000, -0.000000000000000000 ) ) ;
#121 = PRODUCT_CONTEXT ( 'NONE', #75, 'mechanical' ) ;
#122 = LENGTH_MEASURE_WITH_UNIT ( LENGTH_MEASURE( 0.02539999999999999897 ), #268 );
#123 = EDGE_LOOP ( 'NONE', ( #42, #112, #293, #171 ) ) ;
#124 = SURFACE_STYLE_USAGE ( .BOTH. , #54 ) ;
#125 = ORIENTED_EDGE ( 'NONE', *, *, #303, .F. ) ;
#126 = MECHANICAL_DESIGN_GEOMETRIC_PRESENTATION_REPRESENTATION (  '', ( #5 ), #45 ) ;
#127 =( NAMED_UNIT ( * ) PLANE_ANGLE_UNIT ( ) SI_UNIT ( $, .RADIAN. ) );
#128 = ADVANCED_FACE ( 'NONE', ( #243 ), #207, .F. ) ;
#129 = SURFACE_STYLE_USAGE ( .BOTH. , #85 ) ;
#130 = DIRECTION ( 'NONE',  ( 0.000000000000000000, -0.000000000000000000, 1.000000000000000000 ) ) ;
#131 = VECTOR ( 'NONE', #96, 39.37007874015748143 ) ;
#132 = CARTESIAN_POINT ( 'NONE',  ( 0.3125000000000000000, 6.000000000000000888, 3.827021247335479543E-17 ) ) ;
#133 = DIRECTION ( 'NONE',  ( -0.000000000000000000, -1.000000000000000000, -0.000000000000000000 ) ) ;
#134 = FACE_OUTER_BOUND ( 'NONE', #270, .T. ) ;
#135 = DIRECTION ( 'NONE',  ( -4.453261087808560759E-17, 1.000000000000000000, -0.000000000000000000 ) ) ;
#136 = MECHANICAL_DESIGN_GEOMETRIC_PRESENTATION_REPRESENTATION (  '', ( #256 ), #14 ) ;
#137 = AXIS2_PLACEMENT_3D ( 'NONE', #99, #145, #263 ) ;
#138 = SURFACE_STYLE_FILL_AREA ( #90 ) ;
#139 = CARTESIAN_POINT ( 'NONE',  ( -1.224646799147354440E-16, 6.000000000000000888, 0.000000000000000000 ) ) ;
#140 = ORIENTED_EDGE ( 'NONE', *, *, #264, .F. ) ;
#141 = CARTESIAN_POINT ( 'NONE',  ( 0.000000000000000000, 0.000000000000000000, 0.000000000000000000 ) ) ;
#142 =( NAMED_UNIT ( * ) PLANE_ANGLE_UNIT ( ) SI_UNIT ( $, .RADIAN. ) );
#143 = CIRCLE ( 'NONE', #50, 0.3125000000000001665 ) ;
#144 = CARTESIAN_POINT ( 'NONE',  ( 0.000000000000000000, 3.250000000000000000, 0.000000000000000000 ) ) ;
#145 = DIRECTION ( 'NONE',  ( 4.453261087808560759E-17, -1.000000000000000000, 0.000000000000000000 ) ) ;
#146 = DIRECTION ( 'NONE',  ( -0.000000000000000000, -1.000000000000000000, -0.000000000000000000 ) ) ;
#147 = AXIS2_PLACEMENT_3D ( 'NONE', #149, #51, #71 ) ;
#148 = EDGE_CURVE ( 'NONE', #16, #150, #60, .T. ) ;
#149 = CARTESIAN_POINT ( 'NONE',  ( 3.098677236904669840E-34, 3.250000000000000000, 0.000000000000000000 ) ) ;
#150 = VERTEX_POINT ( 'NONE', #185 ) ;
#151 = DIRECTION ( 'NONE',  ( 0.000000000000000000, 0.000000000000000000, -1.000000000000000000 ) ) ;
#152 =( CONVERSION_BASED_UNIT ( 'INCH', #292 ) LENGTH_UNIT ( ) NAMED_UNIT ( #284 ) );
#153 =( LENGTH_UNIT ( ) NAMED_UNIT ( * ) SI_UNIT ( $, .METRE. ) );
#154 = EDGE_CURVE ( 'NONE', #16, #228, #101, .T. ) ;
#155 =( NAMED_UNIT ( * ) SI_UNIT ( $, .STERADIAN. ) SOLID_ANGLE_UNIT ( ) );
#156 = UNCERTAINTY_MEASURE_WITH_UNIT (LENGTH_MEASURE( 1.000000000000000082E-05 ), #113, 'distance_accuracy_value', 'NONE');
#157 = ORIENTED_EDGE ( 'NONE', *, *, #199, .T. ) ;
#158 = LENGTH_MEASURE_WITH_UNIT ( LENGTH_MEASURE( 0.02539999999999999897 ), #12 );
#159 = LENGTH_MEASURE_WITH_UNIT ( LENGTH_MEASURE( 0.02539999999999999897 ), #259 );
#160 = COLOUR_RGB ( '',1.000000000000000000, 0.000000000000000000, 0.000000000000000000 ) ;
#161 = CARTESIAN_POINT ( 'NONE',  ( 0.000000000000000000, 0.000000000000000000, -0.3125000000000000000 ) ) ;
#162 =( CONVERSION_BASED_UNIT ( 'INCH', #205 ) LENGTH_UNIT ( ) NAMED_UNIT ( #233 ) );
#163 = SURFACE_STYLE_FILL_AREA ( #225 ) ;
#164 = DIRECTION ( 'NONE',  ( -0.000000000000000000, -1.000000000000000000, -0.000000000000000000 ) ) ;
#165 = AXIS2_PLACEMENT_3D ( 'NONE', #70, #170, #76 ) ;
#166 = CIRCLE ( 'NONE', #200, 0.3125000000000000000 ) ;
#167 = PLANE ( 'NONE',  #110 ) ;
#168 = DIRECTION ( 'NONE',  ( -0.000000000000000000, -1.000000000000000000, -0.000000000000000000 ) ) ;
#169 = CIRCLE ( 'NONE', #192, 0.3125000000000000000 ) ;
#170 = DIRECTION ( 'NONE',  ( 0.000000000000000000, 0.000000000000000000, 1.000000000000000000 ) ) ;
#171 = ORIENTED_EDGE ( 'NONE', *, *, #95, .F. ) ;
#172 = AXIS2_PLACEMENT_3D ( 'NONE', #308, #135, #62 ) ;
#173 =( CONVERSION_BASED_UNIT ( 'INCH', #298 ) LENGTH_UNIT ( ) NAMED_UNIT ( #239 ) );
#174 = CYLINDRICAL_SURFACE ( 'NONE', #9, 0.3125000000000000000 ) ;
#175 = EDGE_CURVE ( 'NONE', #181, #257, #73, .T. ) ;
#176 = SURFACE_STYLE_USAGE ( .BOTH. , #251 ) ;
#177 = SURFACE_SIDE_STYLE ('',( #163 ) ) ;
#178 = DIMENSIONAL_EXPONENTS ( 1.000000000000000000, 0.000000000000000000, 0.000000000000000000, 0.000000000000000000, 0.000000000000000000, 0.000000000000000000, 0.000000000000000000 ) ;
#179 = AXIS2_PLACEMENT_3D ( 'NONE', #144, #24, #28 ) ;
#180 = UNCERTAINTY_MEASURE_WITH_UNIT (LENGTH_MEASURE( 1.000000000000000082E-05 ), #173, 'distance_accuracy_value', 'NONE');
#181 = VERTEX_POINT ( 'NONE', #189 ) ;
#182 = ADVANCED_FACE ( 'NONE', ( #238 ), #52, .T. ) ;
#183 = EDGE_LOOP ( 'NONE', ( #89, #80 ) ) ;
#184 = DIRECTION ( 'NONE',  ( -1.000000000000000000, 0.000000000000000000, 0.000000000000000000 ) ) ;
#185 = CARTESIAN_POINT ( 'NONE',  ( -0.3125000000000000000, 3.250000000000000000, 0.000000000000000000 ) ) ;
#186 = STYLED_ITEM ( 'NONE', ( #220 ), #285 ) ;
#187 = CLOSED_SHELL ( 'NONE', ( #43, #128, #15, #118 ) ) ;
#188 =( NAMED_UNIT ( * ) SI_UNIT ( $, .STERADIAN. ) SOLID_ANGLE_UNIT ( ) );
#189 = CARTESIAN_POINT ( 'NONE',  ( 0.000000000000000000, 3.250000000000000000, -0.3125000000000000000 ) ) ;
#190 = APPLICATION_PROTOCOL_DEFINITION ( 'draft international standard', 'automotive_design', 1998, #75 ) ;
#191 = FACE_OUTER_BOUND ( 'NONE', #215, .T. ) ;
#192 = AXIS2_PLACEMENT_3D ( 'NONE', #290, #146, #4 ) ;
#193 = ORIENTED_EDGE ( 'NONE', *, *, #175, .F. ) ;
#194 = FILL_AREA_STYLE ('',( #222 ) ) ;
#195 = AXIS2_PLACEMENT_3D ( 'NONE', #266, #168, #210 ) ;
#196 = PRODUCT_DEFINITION_FORMATION_WITH_SPECIFIED_SOURCE ( 'ANY', '', #72, .NOT_KNOWN. ) ;
#197 = DIRECTION ( 'NONE',  ( -4.453261087808560759E-17, 1.000000000000000000, -0.000000000000000000 ) ) ;
#198 = MECHANICAL_DESIGN_GEOMETRIC_PRESENTATION_REPRESENTATION (  '', ( #186 ), #287 ) ;
#199 = EDGE_CURVE ( 'NONE', #257, #181, #68, .T. ) ;
#200 = AXIS2_PLACEMENT_3D ( 'NONE', #286, #237, #56 ) ;
#201 = VERTEX_POINT ( 'NONE', #223 ) ;
#202 =( LENGTH_UNIT ( ) NAMED_UNIT ( * ) SI_UNIT ( $, .METRE. ) );
#203 =( NAMED_UNIT ( * ) SI_UNIT ( $, .STERADIAN. ) SOLID_ANGLE_UNIT ( ) );
#204 = SURFACE_STYLE_USAGE ( .BOTH. , #177 ) ;
#205 = LENGTH_MEASURE_WITH_UNIT ( LENGTH_MEASURE( 0.02539999999999999897 ), #249 );
#206 = FACE_OUTER_BOUND ( 'NONE', #123, .T. ) ;
#207 = PLANE ( 'NONE',  #147 ) ;
#208 = PRODUCT_DEFINITION_SHAPE ( 'NONE', 'NONE',  #109 ) ;
#209 = DIMENSIONAL_EXPONENTS ( 1.000000000000000000, 0.000000000000000000, 0.000000000000000000, 0.000000000000000000, 0.000000000000000000, 0.000000000000000000, 0.000000000000000000 ) ;
#210 = DIRECTION ( 'NONE',  ( 0.000000000000000000, 0.000000000000000000, -1.000000000000000000 ) ) ;
#211 = MECHANICAL_DESIGN_GEOMETRIC_PRESENTATION_REPRESENTATION (  '', ( #273 ), #226 ) ;
#212 = FILL_AREA_STYLE ('',( #25 ) ) ;
#213 = FILL_AREA_STYLE_COLOUR ( '', #21 ) ;
#214 = EDGE_CURVE ( 'NONE', #150, #16, #246, .T. ) ;
#215 = EDGE_LOOP ( 'NONE', ( #291, #261 ) ) ;
#216 = DIRECTION ( 'NONE',  ( -4.453261087808560759E-17, 1.000000000000000000, -0.000000000000000000 ) ) ;
#217 = VECTOR ( 'NONE', #108, 39.37007874015748143 ) ;
#218 = ORIENTED_EDGE ( 'NONE', *, *, #199, .F. ) ;
#219 = DIRECTION ( 'NONE',  ( 0.000000000000000000, 0.000000000000000000, -1.000000000000000000 ) ) ;
#220 = PRESENTATION_STYLE_ASSIGNMENT (( #247 ) ) ;
#221 = SURFACE_STYLE_USAGE ( .BOTH. , #119 ) ;
#222 = FILL_AREA_STYLE_COLOUR ( '', #104 ) ;
#223 = CARTESIAN_POINT ( 'NONE',  ( 3.827021247335478926E-17, 0.000000000000000000, 0.3125000000000000000 ) ) ;
#224 =( NAMED_UNIT ( * ) SI_UNIT ( $, .STERADIAN. ) SOLID_ANGLE_UNIT ( ) );
#225 = FILL_AREA_STYLE ('',( #250 ) ) ;
#226 =( GEOMETRIC_REPRESENTATION_CONTEXT ( 3 ) GLOBAL_UNCERTAINTY_ASSIGNED_CONTEXT ( ( #305 ) ) GLOBAL_UNIT_ASSIGNED_CONTEXT ( ( #309, #1, #188 ) ) REPRESENTATION_CONTEXT ( 'NONE', 'WORKASPACE' ) );
#227 = CARTESIAN_POINT ( 'NONE',  ( 3.827021247335478926E-17, 0.000000000000000000, 0.3125000000000000000 ) ) ;
#228 = VERTEX_POINT ( 'NONE', #132 ) ;
#229 = LENGTH_MEASURE_WITH_UNIT ( LENGTH_MEASURE( 0.02539999999999999897 ), #202 );
#230 = ORIENTED_EDGE ( 'NONE', *, *, #154, .T. ) ;
#231 =( NAMED_UNIT ( * ) SI_UNIT ( $, .STERADIAN. ) SOLID_ANGLE_UNIT ( ) );
#232 = ORIENTED_EDGE ( 'NONE', *, *, #103, .F. ) ;
#233 = DIMENSIONAL_EXPONENTS ( 1.000000000000000000, 0.000000000000000000, 0.000000000000000000, 0.000000000000000000, 0.000000000000000000, 0.000000000000000000, 0.000000000000000000 ) ;
#234 = STYLED_ITEM ( 'NONE', ( #11 ), #240 ) ;
#235 = PRODUCT_DEFINITION_CONTEXT ( 'detailed design', #58, 'design' ) ;
#236 = CARTESIAN_POINT ( 'NONE',  ( 0.3125000000000000000, 3.250000000000000000, 3.827021247335479543E-17 ) ) ;
#237 = DIRECTION ( 'NONE',  ( -0.000000000000000000, -1.000000000000000000, -0.000000000000000000 ) ) ;
#238 = FACE_OUTER_BOUND ( 'NONE', #281, .T. ) ;
#239 = DIMENSIONAL_EXPONENTS ( 1.000000000000000000, 0.000000000000000000, 0.000000000000000000, 0.000000000000000000, 0.000000000000000000, 0.000000000000000000, 0.000000000000000000 ) ;
#240 = MANIFOLD_SOLID_BREP ( 'Revolve - Tool Body (Straight Shanked)', #187 ) ;
#241 = SURFACE_STYLE_FILL_AREA ( #77 ) ;
#242 = MECHANICAL_DESIGN_GEOMETRIC_PRESENTATION_REPRESENTATION (  '', ( #32 ), #267 ) ;
#243 = FACE_OUTER_BOUND ( 'NONE', #114, .T. ) ;
#244 = ORIENTED_EDGE ( 'NONE', *, *, #303, .T. ) ;
#245 = CARTESIAN_POINT ( 'NONE',  ( 0.000000000000000000, 3.250000000000000000, 0.000000000000000000 ) ) ;
#246 = CIRCLE ( 'NONE', #277, 0.3125000000000000000 ) ;
#247 = SURFACE_STYLE_USAGE ( .BOTH. , #81 ) ;
#248 = FILL_AREA_STYLE_COLOUR ( '', #116 ) ;
#249 =( LENGTH_UNIT ( ) NAMED_UNIT ( * ) SI_UNIT ( $, .METRE. ) );
#250 = FILL_AREA_STYLE_COLOUR ( '', #87 ) ;
#251 = SURFACE_SIDE_STYLE ('',( #138 ) ) ;
#252 =( CONVERSION_BASED_UNIT ( 'INCH', #159 ) LENGTH_UNIT ( ) NAMED_UNIT ( #178 ) );
#253 = PRESENTATION_LAYER_ASSIGNMENT (  '', '', ( #256 ) ) ;
#254 = AXIS2_PLACEMENT_3D ( 'NONE', #245, #133, #219 ) ;
#255 = LINE ( 'NONE', #227, #131 ) ;
#256 = STYLED_ITEM ( 'NONE', ( #279 ), #36 ) ;
#257 = VERTEX_POINT ( 'NONE', #276 ) ;
#258 =( NAMED_UNIT ( * ) PLANE_ANGLE_UNIT ( ) SI_UNIT ( $, .RADIAN. ) );
#259 =( LENGTH_UNIT ( ) NAMED_UNIT ( * ) SI_UNIT ( $, .METRE. ) );
#260 = CARTESIAN_POINT ( 'NONE',  ( 0.000000000000000000, 0.000000000000000000, 0.000000000000000000 ) ) ;
#261 = ORIENTED_EDGE ( 'NONE', *, *, #65, .T. ) ;
#262 = PRESENTATION_LAYER_ASSIGNMENT (  '', '', ( #5 ) ) ;
#263 = DIRECTION ( 'NONE',  ( 1.000000000000000000, 4.453261087808560759E-17, 0.000000000000000000 ) ) ;
#264 = EDGE_CURVE ( 'NONE', #150, #30, #296, .T. ) ;
#265 = DIRECTION ( 'NONE',  ( -4.453261087808560759E-17, 1.000000000000000000, -0.000000000000000000 ) ) ;
#266 = CARTESIAN_POINT ( 'NONE',  ( 0.000000000000000000, 3.250000000000000000, 0.000000000000000000 ) ) ;
#267 =( GEOMETRIC_REPRESENTATION_CONTEXT ( 3 ) GLOBAL_UNCERTAINTY_ASSIGNED_CONTEXT ( ( #23 ) ) GLOBAL_UNIT_ASSIGNED_CONTEXT ( ( #92, #88, #224 ) ) REPRESENTATION_CONTEXT ( 'NONE', 'WORKASPACE' ) );
#268 =( LENGTH_UNIT ( ) NAMED_UNIT ( * ) SI_UNIT ( $, .METRE. ) );
#269 = APPLICATION_PROTOCOL_DEFINITION ( 'draft international standard', 'automotive_design', 1998, #58 ) ;
#270 = EDGE_LOOP ( 'NONE', ( #125, #157, #18, #64 ) ) ;
#271 = DIRECTION ( 'NONE',  ( -1.000000000000000000, 0.000000000000000000, 0.000000000000000000 ) ) ;
#272 = CLOSED_SHELL ( 'NONE', ( #285, #182, #294, #74 ) ) ;
#273 = STYLED_ITEM ( 'NONE', ( #67 ), #74 ) ;
#274 = ADVANCED_BREP_SHAPE_REPRESENTATION ( '03610', ( #36, #240, #165 ), #63 ) ;
#275 = PRESENTATION_STYLE_ASSIGNMENT (( #221 ) ) ;
#276 = CARTESIAN_POINT ( 'NONE',  ( 3.827021247335478926E-17, 3.250000000000000000, 0.3125000000000000000 ) ) ;
#277 = AXIS2_PLACEMENT_3D ( 'NONE', #59, #197, #271 ) ;
#278 = CYLINDRICAL_SURFACE ( 'NONE', #40, 0.3125000000000000000 ) ;
#279 = PRESENTATION_STYLE_ASSIGNMENT (( #204 ) ) ;
#280 =( GEOMETRIC_REPRESENTATION_CONTEXT ( 3 ) GLOBAL_UNCERTAINTY_ASSIGNED_CONTEXT ( ( #91 ) ) GLOBAL_UNIT_ASSIGNED_CONTEXT ( ( #152, #127, #33 ) ) REPRESENTATION_CONTEXT ( 'NONE', 'WORKASPACE' ) );
#281 = EDGE_LOOP ( 'NONE', ( #193, #218 ) ) ;
#282 =( NAMED_UNIT ( * ) SI_UNIT ( $, .STERADIAN. ) SOLID_ANGLE_UNIT ( ) );
#283 = ORIENTED_EDGE ( 'NONE', *, *, #10, .F. ) ;
#284 = DIMENSIONAL_EXPONENTS ( 1.000000000000000000, 0.000000000000000000, 0.000000000000000000, 0.000000000000000000, 0.000000000000000000, 0.000000000000000000, 0.000000000000000000 ) ;
#285 = ADVANCED_FACE ( 'NONE', ( #83 ), #174, .T. ) ;
#286 = CARTESIAN_POINT ( 'NONE',  ( 0.000000000000000000, 0.000000000000000000, 0.000000000000000000 ) ) ;
#287 =( GEOMETRIC_REPRESENTATION_CONTEXT ( 3 ) GLOBAL_UNCERTAINTY_ASSIGNED_CONTEXT ( ( #98 ) ) GLOBAL_UNIT_ASSIGNED_CONTEXT ( ( #162, #258, #231 ) ) REPRESENTATION_CONTEXT ( 'NONE', 'WORKASPACE' ) );
#288 = CARTESIAN_POINT ( 'NONE',  ( 0.3124999999999999445, 6.000000000000000888, 3.827021247335479543E-17 ) ) ;
#289 = DIRECTION ( 'NONE',  ( -1.000000000000000000, 0.000000000000000000, 0.000000000000000000 ) ) ;
#290 = CARTESIAN_POINT ( 'NONE',  ( 0.000000000000000000, 0.000000000000000000, 0.000000000000000000 ) ) ;
#291 = ORIENTED_EDGE ( 'NONE', *, *, #103, .T. ) ;
#292 = LENGTH_MEASURE_WITH_UNIT ( LENGTH_MEASURE( 0.02539999999999999897 ), #153 );
#293 = ORIENTED_EDGE ( 'NONE', *, *, #264, .T. ) ;
#294 = ADVANCED_FACE ( 'NONE', ( #134 ), #278, .T. ) ;
#295 = SURFACE_STYLE_FILL_AREA ( #194 ) ;
#296 = LINE ( 'NONE', #84, #217 ) ;
#297 = DIRECTION ( 'NONE',  ( 0.000000000000000000, 1.000000000000000000, 0.000000000000000000 ) ) ;
#298 = LENGTH_MEASURE_WITH_UNIT ( LENGTH_MEASURE( 0.02539999999999999897 ), #39 );
#299 = PRESENTATION_LAYER_ASSIGNMENT (  '', '', ( #186 ) ) ;
#300 = VECTOR ( 'NONE', #97, 39.37007874015748143 ) ;
#301 = FACE_OUTER_BOUND ( 'NONE', #93, .T. ) ;
#302 =( NAMED_UNIT ( * ) PLANE_ANGLE_UNIT ( ) SI_UNIT ( $, .RADIAN. ) );
#303 = EDGE_CURVE ( 'NONE', #257, #201, #255, .T. ) ;
#304 = ORIENTED_EDGE ( 'NONE', *, *, #148, .F. ) ;
#305 = UNCERTAINTY_MEASURE_WITH_UNIT (LENGTH_MEASURE( 1.000000000000000082E-05 ), #309, 'distance_accuracy_value', 'NONE');
#306 = DIRECTION ( 'NONE',  ( -4.453261087808560759E-17, 1.000000000000000000, -0.000000000000000000 ) ) ;
#307 = LINE ( 'NONE', #161, #300 ) ;
#308 = CARTESIAN_POINT ( 'NONE',  ( -1.224646799147354440E-16, 6.000000000000000888, 0.000000000000000000 ) ) ;
#309 =( CONVERSION_BASED_UNIT ( 'INCH', #122 ) LENGTH_UNIT ( ) NAMED_UNIT ( #209 ) );
ENDSEC;
END-ISO-10303-21;
