ISO-10303-21;
HEADER;
FILE_DESCRIPTION (( 'STEP AP214' ),
    '1' );
FILE_NAME ('Micro_BEM-156-02.STEP',
    '2021-09-03T13:02:47',
    ( '' ),
    ( '' ),
    'SwSTEP 2.0',
    'SolidWorks 2020',
    '' );
FILE_SCHEMA (( 'AUTOMOTIVE_DESIGN' ));
ENDSEC;

DATA;
#1 = ORIENTED_EDGE ( 'NONE', *, *, #289, .T. ) ;
#2 = FACE_OUTER_BOUND ( 'NONE', #131, .T. ) ;
#3 = EDGE_LOOP ( 'NONE', ( #138, #50, #320 ) ) ;
#4 = FACE_OUTER_BOUND ( 'NONE', #201, .T. ) ;
#5 = DIRECTION ( 'NONE',  ( -1.000000000000000000, 0.0000000000000000000, 2.188366338220633428E-16 ) ) ;
#6 = DIRECTION ( 'NONE',  ( 1.000000000000000000, 0.0000000000000000000, 0.0000000000000000000 ) ) ;
#7 = AXIS2_PLACEMENT_3D ( 'NONE', #232, #310, #80 ) ;
#8 = CIRCLE ( 'NONE', #307, 0.07802190000000000514 ) ;
#9 = CIRCLE ( 'NONE', #325, 0.09375000000000001388 ) ;
#10 = CARTESIAN_POINT ( 'NONE',  ( 0.0000000000000000000, 0.0000000000000000000, 2.000000000000000000 ) ) ;
#11 = FILL_AREA_STYLE_COLOUR ( '', #269 ) ;
#12 = CARTESIAN_POINT ( 'NONE',  ( 0.0000000000000000000, 0.0000000000000000000, 2.000000000000000000 ) ) ;
#13 = CARTESIAN_POINT ( 'NONE',  ( -0.07802189999999993575, 1.051799537592296220E-17, 0.5629999999999999449 ) ) ;
#14 = PRODUCT_CONTEXT ( 'NONE', #56, 'mechanical' ) ;
#15 = VECTOR ( 'NONE', #311, 39.37007874015748143 ) ;
#16 = LINE ( 'NONE', #113, #185 ) ;
#17 = EDGE_CURVE ( 'NONE', #37, #102, #16, .T. ) ;
#18 = DIRECTION ( 'NONE',  ( 1.000000000000000000, 0.0000000000000000000, 0.0000000000000000000 ) ) ;
#19 =( CONVERSION_BASED_UNIT ( 'INCH', #242 ) LENGTH_UNIT ( ) NAMED_UNIT ( #272 ) );
#20 = PRESENTATION_LAYER_ASSIGNMENT (  '', '', ( #84 ) ) ;
#21 = EDGE_LOOP ( 'NONE', ( #149, #222, #276, #305 ) ) ;
#22 = DIRECTION ( 'NONE',  ( 0.0000000000000000000, 1.000000000000000000, 0.0000000000000000000 ) ) ;
#23 = EDGE_CURVE ( 'NONE', #236, #48, #263, .T. ) ;
#24 = VERTEX_POINT ( 'NONE', #36 ) ;
#25 = CARTESIAN_POINT ( 'NONE',  ( 0.0000000000000000000, 0.0000000000000000000, 0.0000000000000000000 ) ) ;
#26 = ORIENTED_EDGE ( 'NONE', *, *, #23, .T. ) ;
#27 = DIRECTION ( 'NONE',  ( 0.0000000000000000000, 0.0000000000000000000, -1.000000000000000000 ) ) ;
#28 = AXIS2_PLACEMENT_3D ( 'NONE', #94, #22, #215 ) ;
#29 = VERTEX_POINT ( 'NONE', #284 ) ;
#30 = EDGE_CURVE ( 'NONE', #225, #177, #82, .T. ) ;
#31 = ORIENTED_EDGE ( 'NONE', *, *, #237, .F. ) ;
#32 = CYLINDRICAL_SURFACE ( 'NONE', #83, 0.07802190000000000514 ) ;
#33 = DIRECTION ( 'NONE',  ( 1.000000000000000000, 0.0000000000000000000, 0.0000000000000000000 ) ) ;
#34 =( GEOMETRIC_REPRESENTATION_CONTEXT ( 3 ) GLOBAL_UNCERTAINTY_ASSIGNED_CONTEXT ( ( #287 ) ) GLOBAL_UNIT_ASSIGNED_CONTEXT ( ( #208, #234, #139 ) ) REPRESENTATION_CONTEXT ( 'NONE', 'WORKASPACE' ) );
#35 = DIRECTION ( 'NONE',  ( -1.000000000000000000, 0.0000000000000000000, 0.0000000000000000000 ) ) ;
#36 = CARTESIAN_POINT ( 'NONE',  ( 1.433239051475923482E-17, 0.0000000000000000000, 0.0000000000000000000 ) ) ;
#37 = VERTEX_POINT ( 'NONE', #13 ) ;
#38 = AXIS2_PLACEMENT_3D ( 'NONE', #144, #297, #196 ) ;
#39 = EDGE_CURVE ( 'NONE', #102, #278, #270, .T. ) ;
#40 = DIRECTION ( 'NONE',  ( -1.000000000000000000, 0.0000000000000000000, 0.0000000000000000000 ) ) ;
#41 = CIRCLE ( 'NONE', #294, 0.07874999999999980627 ) ;
#42 = CARTESIAN_POINT ( 'NONE',  ( 0.07802190000000007453, 0.0000000000000000000, 0.5629999999999999449 ) ) ;
#43 =( LENGTH_UNIT ( ) NAMED_UNIT ( * ) SI_UNIT ( $, .METRE. ) );
#44 = DIRECTION ( 'NONE',  ( 1.000000000000000000, 0.0000000000000000000, 0.0000000000000000000 ) ) ;
#45 = CARTESIAN_POINT ( 'NONE',  ( 0.0000000000000000000, 0.0000000000000000000, 2.000000000000000000 ) ) ;
#46 = ORIENTED_EDGE ( 'NONE', *, *, #289, .F. ) ;
#47 = DIRECTION ( 'NONE',  ( -1.000000000000000000, 1.224646799147353207E-16, 0.0000000000000000000 ) ) ;
#48 = VERTEX_POINT ( 'NONE', #313 ) ;
#49 = CARTESIAN_POINT ( 'NONE',  ( 9.554927009839488851E-18, 0.0000000000000000000, 0.07802190000000000514 ) ) ;
#50 = ORIENTED_EDGE ( 'NONE', *, *, #140, .T. ) ;
#51 = SURFACE_STYLE_FILL_AREA ( #132 ) ;
#52 = AXIS2_PLACEMENT_3D ( 'NONE', #304, #250, #5 ) ;
#53 = EDGE_LOOP ( 'NONE', ( #180, #75, #46 ) ) ;
#54 = DIRECTION ( 'NONE',  ( -1.000000000000000000, 0.0000000000000000000, 1.224646799147353207E-16 ) ) ;
#55 = DIRECTION ( 'NONE',  ( -0.7071067811865463515, 0.0000000000000000000, -0.7071067811865486830 ) ) ;
#56 = APPLICATION_CONTEXT ( 'automotive_design' ) ;
#57 = EDGE_LOOP ( 'NONE', ( #31, #123, #257, #98 ) ) ;
#58 = VECTOR ( 'NONE', #55, 39.37007874015748143 ) ;
#59 = AXIS2_PLACEMENT_3D ( 'NONE', #137, #161, #6 ) ;
#60 = CARTESIAN_POINT ( 'NONE',  ( -0.07802190000000000514, 0.0000000000000000000, 9.554927009839488851E-18 ) ) ;
#61 = SHAPE_DEFINITION_REPRESENTATION ( #158, #99 ) ;
#62 = DIRECTION ( 'NONE',  ( 0.0000000000000000000, 0.0000000000000000000, -1.000000000000000000 ) ) ;
#63 = EDGE_CURVE ( 'NONE', #37, #308, #253, .T. ) ;
#64 = AXIS2_PLACEMENT_3D ( 'NONE', #172, #221, #124 ) ;
#65 = CARTESIAN_POINT ( 'NONE',  ( 0.09375000000000009714, 1.148106374200644787E-17, 0.6521984875871288390 ) ) ;
#66 = ADVANCED_FACE ( 'NONE', ( #157 ), #233, .T. ) ;
#67 = VECTOR ( 'NONE', #74, 39.37007874015748143 ) ;
#68 = CARTESIAN_POINT ( 'NONE',  ( 0.07802190000000000514, 9.554927009839488851E-18, -9.554927009839488851E-18 ) ) ;
#69 = DIMENSIONAL_EXPONENTS ( 1.000000000000000000, 0.0000000000000000000, 0.0000000000000000000, 0.0000000000000000000, 0.0000000000000000000, 0.0000000000000000000, 0.0000000000000000000 ) ;
#70 = DIRECTION ( 'NONE',  ( -1.000000000000000000, 0.0000000000000000000, 2.188366338220633428E-16 ) ) ;
#71 = CARTESIAN_POINT ( 'NONE',  ( 0.0000000000000000000, 0.0000000000000000000, 1.984999999999999654 ) ) ;
#72 = ADVANCED_FACE ( 'NONE', ( #235 ), #73, .T. ) ;
#73 = CONICAL_SURFACE ( 'NONE', #97, 0.07874999999999980627, 0.7853981633974466137 ) ;
#74 = DIRECTION ( 'NONE',  ( 0.1736481776669313026, 0.0000000000000000000, 0.9848077530122077983 ) ) ;
#75 = ORIENTED_EDGE ( 'NONE', *, *, #134, .T. ) ;
#76 = ORIENTED_EDGE ( 'NONE', *, *, #86, .T. ) ;
#77 = DIRECTION ( 'NONE',  ( -1.000000000000000000, 0.0000000000000000000, 1.224646799147353207E-16 ) ) ;
#78 = CONICAL_SURFACE ( 'NONE', #170, 0.07802190000000000514, 0.1745329251994338082 ) ;
#79 = ORIENTED_EDGE ( 'NONE', *, *, #39, .F. ) ;
#80 = DIRECTION ( 'NONE',  ( 1.000000000000000000, 0.0000000000000000000, 0.0000000000000000000 ) ) ;
#81 = ADVANCED_FACE ( 'NONE', ( #136 ), #286, .T. ) ;
#82 = LINE ( 'NONE', #212, #58 ) ;
#83 = AXIS2_PLACEMENT_3D ( 'NONE', #256, #229, #77 ) ;
#84 = STYLED_ITEM ( 'NONE', ( #283 ), #99 ) ;
#85 = CARTESIAN_POINT ( 'NONE',  ( 0.07874999999999980627, 9.644093543285380530E-18, 2.000000000000000000 ) ) ;
#86 = EDGE_CURVE ( 'NONE', #37, #29, #135, .T. ) ;
#87 = EDGE_CURVE ( 'NONE', #225, #236, #41, .T. ) ;
#88 = MANIFOLD_SOLID_BREP ( 'Fillet1', #145 ) ;
#89 = VECTOR ( 'NONE', #175, 39.37007874015748143 ) ;
#90 = DIRECTION ( 'NONE',  ( 0.0000000000000000000, 0.0000000000000000000, 1.000000000000000000 ) ) ;
#91 = CARTESIAN_POINT ( 'NONE',  ( -0.09375000000000001388, 0.0000000000000000000, 1.984999999999999654 ) ) ;
#92 = DIRECTION ( 'NONE',  ( 1.000000000000000000, 0.0000000000000000000, 0.0000000000000000000 ) ) ;
#93 = ADVANCED_FACE ( 'NONE', ( #4 ), #32, .T. ) ;
#94 = CARTESIAN_POINT ( 'NONE',  ( 9.554927009839488851E-18, 0.0000000000000000000, 0.07802190000000000514 ) ) ;
#95 = ORIENTED_EDGE ( 'NONE', *, *, #324, .T. ) ;
#96 = SPHERICAL_SURFACE ( 'NONE', #28, 0.07802190000000000514 ) ;
#97 = AXIS2_PLACEMENT_3D ( 'NONE', #10, #62, #184 ) ;
#98 = ORIENTED_EDGE ( 'NONE', *, *, #267, .F. ) ;
#99 = ADVANCED_BREP_SHAPE_REPRESENTATION ( 'Micro_BEM-156-02', ( #88, #59 ), #302 ) ;
#100 = ORIENTED_EDGE ( 'NONE', *, *, #122, .F. ) ;
#101 = CARTESIAN_POINT ( 'NONE',  ( 6.894761479199598081E-17, 0.0000000000000000000, 0.5629999999999999449 ) ) ;
#102 = VERTEX_POINT ( 'NONE', #126 ) ;
#103 = EDGE_LOOP ( 'NONE', ( #280, #249, #227, #174 ) ) ;
#104 =( CONVERSION_BASED_UNIT ( 'INCH', #279 ) LENGTH_UNIT ( ) NAMED_UNIT ( #194 ) );
#105 = SURFACE_STYLE_FILL_AREA ( #285 ) ;
#106 = AXIS2_PLACEMENT_3D ( 'NONE', #108, #288, #207 ) ;
#107 = CIRCLE ( 'NONE', #318, 0.09375000000000001388 ) ;
#108 = CARTESIAN_POINT ( 'NONE',  ( 6.894761479199598081E-17, 0.0000000000000000000, 0.5629999999999999449 ) ) ;
#109 = SURFACE_SIDE_STYLE ('',( #105 ) ) ;
#110 = DIRECTION ( 'NONE',  ( 0.0000000000000000000, 0.0000000000000000000, 1.000000000000000000 ) ) ;
#111 = ORIENTED_EDGE ( 'NONE', *, *, #86, .F. ) ;
#112 = AXIS2_PLACEMENT_3D ( 'NONE', #265, #188, #33 ) ;
#113 = CARTESIAN_POINT ( 'NONE',  ( -0.07802189999999993575, 9.554927009839488851E-18, 0.5629999999999999449 ) ) ;
#114 = AXIS2_PLACEMENT_3D ( 'NONE', #210, #182, #35 ) ;
#115 = AXIS2_PLACEMENT_3D ( 'NONE', #295, #217, #44 ) ;
#116 = DIRECTION ( 'NONE',  ( 0.0000000000000000000, 0.0000000000000000000, -1.000000000000000000 ) ) ;
#117 = EDGE_CURVE ( 'NONE', #29, #300, #231, .T. ) ;
#118 = LINE ( 'NONE', #68, #146 ) ;
#119 = CARTESIAN_POINT ( 'NONE',  ( 0.07874999999999980627, 1.056257864264590573E-17, 2.000000000000000000 ) ) ;
#120 = AXIS2_PLACEMENT_3D ( 'NONE', #25, #281, #54 ) ;
#121 = CARTESIAN_POINT ( 'NONE',  ( 0.0000000000000000000, 0.0000000000000000000, 2.000000000000000000 ) ) ;
#122 = EDGE_CURVE ( 'NONE', #177, #102, #128, .T. ) ;
#123 = ORIENTED_EDGE ( 'NONE', *, *, #216, .T. ) ;
#124 = DIRECTION ( 'NONE',  ( 1.000000000000000000, 0.0000000000000000000, -0.0000000000000000000 ) ) ;
#125 = EDGE_LOOP ( 'NONE', ( #159, #26, #203, #282 ) ) ;
#126 = CARTESIAN_POINT ( 'NONE',  ( -0.09374999999999991673, 0.0000000000000000000, 0.6521984875871288390 ) ) ;
#127 = ORIENTED_EDGE ( 'NONE', *, *, #17, .F. ) ;
#128 = LINE ( 'NONE', #205, #89 ) ;
#129 = ADVANCED_FACE ( 'NONE', ( #179 ), #275, .T. ) ;
#130 = PRODUCT_DEFINITION_CONTEXT ( 'detailed design', #299, 'design' ) ;
#131 = EDGE_LOOP ( 'NONE', ( #127, #312, #303, #154 ) ) ;
#132 = FILL_AREA_STYLE ('',( #323 ) ) ;
#133 = SURFACE_SIDE_STYLE ('',( #51 ) ) ;
#134 = EDGE_CURVE ( 'NONE', #24, #29, #274, .T. ) ;
#135 = LINE ( 'NONE', #60, #268 ) ;
#136 = FACE_OUTER_BOUND ( 'NONE', #220, .T. ) ;
#137 = CARTESIAN_POINT ( 'NONE',  ( 0.0000000000000000000, 0.0000000000000000000, 0.0000000000000000000 ) ) ;
#138 = ORIENTED_EDGE ( 'NONE', *, *, #134, .F. ) ;
#139 =( NAMED_UNIT ( * ) SI_UNIT ( $, .STERADIAN. ) SOLID_ANGLE_UNIT ( ) );
#140 = EDGE_CURVE ( 'NONE', #24, #300, #316, .T. ) ;
#141 = DIRECTION ( 'NONE',  ( 0.0000000000000000000, 0.0000000000000000000, -1.000000000000000000 ) ) ;
#142 = AXIS2_PLACEMENT_3D ( 'NONE', #49, #223, #47 ) ;
#143 = FACE_OUTER_BOUND ( 'NONE', #125, .T. ) ;
#144 = CARTESIAN_POINT ( 'NONE',  ( 7.987127902323220081E-17, 0.0000000000000000000, 0.6521984875871288390 ) ) ;
#145 = CLOSED_SHELL ( 'NONE', ( #66, #129, #187, #309, #81, #200, #173, #72, #167, #93, #189 ) ) ;
#146 = VECTOR ( 'NONE', #166, 39.37007874015748143 ) ;
#147 = ORIENTED_EDGE ( 'NONE', *, *, #117, .T. ) ;
#148 = CYLINDRICAL_SURFACE ( 'NONE', #211, 0.09375000000000001388 ) ;
#149 = ORIENTED_EDGE ( 'NONE', *, *, #23, .F. ) ;
#150 =( LENGTH_UNIT ( ) NAMED_UNIT ( * ) SI_UNIT ( $, .METRE. ) );
#151 = SURFACE_STYLE_USAGE ( .BOTH. , #133 ) ;
#152 = ORIENTED_EDGE ( 'NONE', *, *, #262, .T. ) ;
#153 =( NAMED_UNIT ( * ) SI_UNIT ( $, .STERADIAN. ) SOLID_ANGLE_UNIT ( ) );
#154 = ORIENTED_EDGE ( 'NONE', *, *, #267, .T. ) ;
#155 = CARTESIAN_POINT ( 'NONE',  ( 9.554927009839488851E-18, 0.0000000000000000000, 0.07802190000000000514 ) ) ;
#156 =( NAMED_UNIT ( * ) SI_UNIT ( $, .STERADIAN. ) SOLID_ANGLE_UNIT ( ) );
#157 = FACE_OUTER_BOUND ( 'NONE', #53, .T. ) ;
#158 = PRODUCT_DEFINITION_SHAPE ( 'NONE', 'NONE',  #238 ) ;
#159 = ORIENTED_EDGE ( 'NONE', *, *, #292, .F. ) ;
#160 = STYLED_ITEM ( 'NONE', ( #226 ), #88 ) ;
#161 = DIRECTION ( 'NONE',  ( 0.0000000000000000000, 0.0000000000000000000, 1.000000000000000000 ) ) ;
#162 = DIRECTION ( 'NONE',  ( -0.1736481776669311083, 2.126576849575782084E-17, 0.9848077530122080203 ) ) ;
#163 = AXIS2_PLACEMENT_3D ( 'NONE', #155, #252, #27 ) ;
#164 = CARTESIAN_POINT ( 'NONE',  ( 0.07802190000000001902, 9.554927009839488851E-18, 0.07802189999999999126 ) ) ;
#165 = CARTESIAN_POINT ( 'NONE',  ( 0.09375000000000001388, 1.148106374200643863E-17, 2.000000000000000000 ) ) ;
#166 = DIRECTION ( 'NONE',  ( -1.224646799147353207E-16, -0.0000000000000000000, -1.000000000000000000 ) ) ;
#167 = ADVANCED_FACE ( 'NONE', ( #2 ), #78, .T. ) ;
#168 = CARTESIAN_POINT ( 'NONE',  ( 6.894761479199598081E-17, 0.0000000000000000000, 0.5629999999999999449 ) ) ;
#169 =( GEOMETRIC_REPRESENTATION_CONTEXT ( 3 ) GLOBAL_UNCERTAINTY_ASSIGNED_CONTEXT ( ( #176 ) ) GLOBAL_UNIT_ASSIGNED_CONTEXT ( ( #104, #277, #153 ) ) REPRESENTATION_CONTEXT ( 'NONE', 'WORKASPACE' ) );
#170 = AXIS2_PLACEMENT_3D ( 'NONE', #101, #202, #306 ) ;
#171 = EDGE_LOOP ( 'NONE', ( #246, #95, #1, #111 ) ) ;
#172 = CARTESIAN_POINT ( 'NONE',  ( 0.0000000000000000000, 0.0000000000000000000, 2.000000000000000000 ) ) ;
#173 = ADVANCED_FACE ( 'NONE', ( #197 ), #293, .T. ) ;
#174 = ORIENTED_EDGE ( 'NONE', *, *, #228, .F. ) ;
#175 = DIRECTION ( 'NONE',  ( -0.0000000000000000000, -0.0000000000000000000, -1.000000000000000000 ) ) ;
#176 = UNCERTAINTY_MEASURE_WITH_UNIT (LENGTH_MEASURE( 1.000000000000000082E-05 ), #104, 'distance_accuracy_value', 'NONE');
#177 = VERTEX_POINT ( 'NONE', #91 ) ;
#178 = AXIS2_PLACEMENT_3D ( 'NONE', #168, #273, #214 ) ;
#179 = FACE_OUTER_BOUND ( 'NONE', #171, .T. ) ;
#180 = ORIENTED_EDGE ( 'NONE', *, *, #140, .F. ) ;
#181 = SURFACE_STYLE_USAGE ( .BOTH. , #109 ) ;
#182 = DIRECTION ( 'NONE',  ( -0.0000000000000000000, -0.0000000000000000000, -1.000000000000000000 ) ) ;
#183 =( NAMED_UNIT ( * ) PLANE_ANGLE_UNIT ( ) SI_UNIT ( $, .RADIAN. ) );
#184 = DIRECTION ( 'NONE',  ( -1.000000000000000000, 0.0000000000000000000, 0.0000000000000000000 ) ) ;
#185 = VECTOR ( 'NONE', #162, 39.37007874015747433 ) ;
#186 = CIRCLE ( 'NONE', #244, 0.07874999999999980627 ) ;
#187 = ADVANCED_FACE ( 'NONE', ( #319 ), #213, .T. ) ;
#188 = DIRECTION ( 'NONE',  ( -1.224646799147353207E-16, -0.0000000000000000000, -1.000000000000000000 ) ) ;
#189 = ADVANCED_FACE ( 'NONE', ( #321 ), #96, .T. ) ;
#190 = VECTOR ( 'NONE', #240, 39.37007874015748143 ) ;
#191 = MECHANICAL_DESIGN_GEOMETRIC_PRESENTATION_REPRESENTATION (  '', ( #84 ), #34 ) ;
#192 = CARTESIAN_POINT ( 'NONE',  ( 0.0000000000000000000, 0.0000000000000000000, 1.984999999999999654 ) ) ;
#193 = LINE ( 'NONE', #165, #190 ) ;
#194 = DIMENSIONAL_EXPONENTS ( 1.000000000000000000, 0.0000000000000000000, 0.0000000000000000000, 0.0000000000000000000, 0.0000000000000000000, 0.0000000000000000000, 0.0000000000000000000 ) ;
#195 = PRODUCT_DEFINITION_FORMATION_WITH_SPECIFIED_SOURCE ( 'ANY', '', #261, .NOT_KNOWN. ) ;
#196 = DIRECTION ( 'NONE',  ( 1.000000000000000000, 0.0000000000000000000, 0.0000000000000000000 ) ) ;
#197 = FACE_OUTER_BOUND ( 'NONE', #198, .T. ) ;
#198 = EDGE_LOOP ( 'NONE', ( #255, #322 ) ) ;
#199 = FACE_OUTER_BOUND ( 'NONE', #57, .T. ) ;
#200 = ADVANCED_FACE ( 'NONE', ( #199 ), #148, .T. ) ;
#201 = EDGE_LOOP ( 'NONE', ( #204, #152, #76, #147 ) ) ;
#202 = DIRECTION ( 'NONE',  ( 1.224646799147353207E-16, 0.0000000000000000000, 1.000000000000000000 ) ) ;
#203 = ORIENTED_EDGE ( 'NONE', *, *, #245, .F. ) ;
#204 = ORIENTED_EDGE ( 'NONE', *, *, #324, .F. ) ;
#205 = CARTESIAN_POINT ( 'NONE',  ( -0.09375000000000001388, 0.0000000000000000000, 2.000000000000000000 ) ) ;
#206 = APPLICATION_PROTOCOL_DEFINITION ( 'draft international standard', 'automotive_design', 1998, #299 ) ;
#207 = DIRECTION ( 'NONE',  ( -1.000000000000000000, 0.0000000000000000000, 0.0000000000000000000 ) ) ;
#208 =( CONVERSION_BASED_UNIT ( 'INCH', #266 ) LENGTH_UNIT ( ) NAMED_UNIT ( #69 ) );
#209 = DIRECTION ( 'NONE',  ( 1.000000000000000000, 0.0000000000000000000, 0.0000000000000000000 ) ) ;
#210 = CARTESIAN_POINT ( 'NONE',  ( 0.0000000000000000000, 0.0000000000000000000, 2.000000000000000000 ) ) ;
#211 = AXIS2_PLACEMENT_3D ( 'NONE', #317, #315, #40 ) ;
#212 = CARTESIAN_POINT ( 'NONE',  ( -0.07874999999999980627, 0.0000000000000000000, 2.000000000000000000 ) ) ;
#213 = CONICAL_SURFACE ( 'NONE', #115, 0.07802190000000000514, 0.1745329251994338082 ) ;
#214 = DIRECTION ( 'NONE',  ( -1.000000000000000000, 0.0000000000000000000, 0.0000000000000000000 ) ) ;
#215 = DIRECTION ( 'NONE',  ( 1.000000000000000000, 0.0000000000000000000, 0.0000000000000000000 ) ) ;
#216 = EDGE_CURVE ( 'NONE', #48, #177, #9, .T. ) ;
#217 = DIRECTION ( 'NONE',  ( 1.224646799147353207E-16, 0.0000000000000000000, 1.000000000000000000 ) ) ;
#218 = CONICAL_SURFACE ( 'NONE', #296, 0.07874999999999980627, 0.7853981633974466137 ) ;
#219 = DIRECTION ( 'NONE',  ( 1.224646799147353207E-16, 0.0000000000000000000, 1.000000000000000000 ) ) ;
#220 = EDGE_LOOP ( 'NONE', ( #260, #251, #79, #100 ) ) ;
#221 = DIRECTION ( 'NONE',  ( 0.0000000000000000000, 0.0000000000000000000, 1.000000000000000000 ) ) ;
#222 = ORIENTED_EDGE ( 'NONE', *, *, #87, .F. ) ;
#223 = DIRECTION ( 'NONE',  ( 1.224646799147353207E-16, 1.000000000000000000, -0.0000000000000000000 ) ) ;
#224 = COLOUR_RGB ( '',0.7921568627450980005, 0.8196078431372548767, 0.9333333333333333481 ) ;
#225 = VERTEX_POINT ( 'NONE', #298 ) ;
#226 = PRESENTATION_STYLE_ASSIGNMENT (( #151 ) ) ;
#227 = ORIENTED_EDGE ( 'NONE', *, *, #39, .T. ) ;
#228 = EDGE_CURVE ( 'NONE', #308, #278, #247, .T. ) ;
#229 = DIRECTION ( 'NONE',  ( -1.224646799147353207E-16, -0.0000000000000000000, -1.000000000000000000 ) ) ;
#230 = APPLICATION_PROTOCOL_DEFINITION ( 'draft international standard', 'automotive_design', 1998, #56 ) ;
#231 = CIRCLE ( 'NONE', #52, 0.07802190000000000514 ) ;
#232 = CARTESIAN_POINT ( 'NONE',  ( 9.554927009839488851E-18, 0.0000000000000000000, 0.07802190000000000514 ) ) ;
#233 = SPHERICAL_SURFACE ( 'NONE', #7, 0.07802190000000000514 ) ;
#234 =( NAMED_UNIT ( * ) PLANE_ANGLE_UNIT ( ) SI_UNIT ( $, .RADIAN. ) );
#235 = FACE_OUTER_BOUND ( 'NONE', #21, .T. ) ;
#236 = VERTEX_POINT ( 'NONE', #119 ) ;
#237 = EDGE_CURVE ( 'NONE', #48, #278, #193, .T. ) ;
#238 = PRODUCT_DEFINITION ( 'UNKNOWN', '', #195, #130 ) ;
#239 = PRESENTATION_LAYER_ASSIGNMENT (  '', '', ( #160 ) ) ;
#240 = DIRECTION ( 'NONE',  ( -0.0000000000000000000, -0.0000000000000000000, -1.000000000000000000 ) ) ;
#241 = DIRECTION ( 'NONE',  ( 0.0000000000000000000, 0.0000000000000000000, -1.000000000000000000 ) ) ;
#242 = LENGTH_MEASURE_WITH_UNIT ( LENGTH_MEASURE( 0.02539999999999999897 ), #43 );
#243 = DIRECTION ( 'NONE',  ( -1.000000000000000000, 0.0000000000000000000, 0.0000000000000000000 ) ) ;
#244 = AXIS2_PLACEMENT_3D ( 'NONE', #45, #90, #18 ) ;
#245 = EDGE_CURVE ( 'NONE', #177, #48, #107, .T. ) ;
#246 = ORIENTED_EDGE ( 'NONE', *, *, #63, .T. ) ;
#247 = LINE ( 'NONE', #42, #67 ) ;
#248 = PRODUCT_RELATED_PRODUCT_CATEGORY ( 'part', '', ( #261 ) ) ;
#249 = ORIENTED_EDGE ( 'NONE', *, *, #17, .T. ) ;
#250 = DIRECTION ( 'NONE',  ( 1.224646799147353207E-16, 0.0000000000000000000, 1.000000000000000000 ) ) ;
#251 = ORIENTED_EDGE ( 'NONE', *, *, #237, .T. ) ;
#252 = DIRECTION ( 'NONE',  ( 0.0000000000000000000, -1.000000000000000000, 0.0000000000000000000 ) ) ;
#253 = CIRCLE ( 'NONE', #106, 0.07802190000000000514 ) ;
#254 = CIRCLE ( 'NONE', #38, 0.09375000000000001388 ) ;
#255 = ORIENTED_EDGE ( 'NONE', *, *, #87, .T. ) ;
#256 = CARTESIAN_POINT ( 'NONE',  ( 0.0000000000000000000, 0.0000000000000000000, 0.0000000000000000000 ) ) ;
#257 = ORIENTED_EDGE ( 'NONE', *, *, #122, .T. ) ;
#258 =( LENGTH_UNIT ( ) NAMED_UNIT ( * ) SI_UNIT ( $, .METRE. ) );
#259 = UNCERTAINTY_MEASURE_WITH_UNIT (LENGTH_MEASURE( 1.000000000000000082E-05 ), #19, 'distance_accuracy_value', 'NONE');
#260 = ORIENTED_EDGE ( 'NONE', *, *, #245, .T. ) ;
#261 = PRODUCT ( 'Micro_BEM-156-02', 'Micro_BEM-156-02', '', ( #14 ) ) ;
#262 = EDGE_CURVE ( 'NONE', #308, #37, #291, .T. ) ;
#263 = LINE ( 'NONE', #85, #15 ) ;
#264 = DIRECTION ( 'NONE',  ( -1.224646799147353207E-16, -0.0000000000000000000, -1.000000000000000000 ) ) ;
#265 = CARTESIAN_POINT ( 'NONE',  ( 7.987127902323220081E-17, 0.0000000000000000000, 0.6521984875871288390 ) ) ;
#266 = LENGTH_MEASURE_WITH_UNIT ( LENGTH_MEASURE( 0.02539999999999999897 ), #258 );
#267 = EDGE_CURVE ( 'NONE', #278, #102, #254, .T. ) ;
#268 = VECTOR ( 'NONE', #264, 39.37007874015748143 ) ;
#269 = COLOUR_RGB ( '',0.7921568627450980005, 0.8196078431372548767, 0.9333333333333333481 ) ;
#270 = CIRCLE ( 'NONE', #112, 0.09375000000000001388 ) ;
#271 = CARTESIAN_POINT ( 'NONE',  ( 0.07802190000000007453, 0.0000000000000000000, 0.5629999999999999449 ) ) ;
#272 = DIMENSIONAL_EXPONENTS ( 1.000000000000000000, 0.0000000000000000000, 0.0000000000000000000, 0.0000000000000000000, 0.0000000000000000000, 0.0000000000000000000, 0.0000000000000000000 ) ;
#273 = DIRECTION ( 'NONE',  ( -1.224646799147353207E-16, -0.0000000000000000000, -1.000000000000000000 ) ) ;
#274 = CIRCLE ( 'NONE', #142, 0.07802190000000000514 ) ;
#275 = CYLINDRICAL_SURFACE ( 'NONE', #120, 0.07802190000000000514 ) ;
#276 = ORIENTED_EDGE ( 'NONE', *, *, #30, .T. ) ;
#277 =( NAMED_UNIT ( * ) PLANE_ANGLE_UNIT ( ) SI_UNIT ( $, .RADIAN. ) );
#278 = VERTEX_POINT ( 'NONE', #65 ) ;
#279 = LENGTH_MEASURE_WITH_UNIT ( LENGTH_MEASURE( 0.02539999999999999897 ), #150 );
#280 = ORIENTED_EDGE ( 'NONE', *, *, #63, .F. ) ;
#281 = DIRECTION ( 'NONE',  ( -1.224646799147353207E-16, -0.0000000000000000000, -1.000000000000000000 ) ) ;
#282 = ORIENTED_EDGE ( 'NONE', *, *, #30, .F. ) ;
#283 = PRESENTATION_STYLE_ASSIGNMENT (( #181 ) ) ;
#284 = CARTESIAN_POINT ( 'NONE',  ( -0.07802189999999999126, 0.0000000000000000000, 0.07802190000000001902 ) ) ;
#285 = FILL_AREA_STYLE ('',( #11 ) ) ;
#286 = CYLINDRICAL_SURFACE ( 'NONE', #114, 0.09375000000000001388 ) ;
#287 = UNCERTAINTY_MEASURE_WITH_UNIT (LENGTH_MEASURE( 1.000000000000000082E-05 ), #208, 'distance_accuracy_value', 'NONE');
#288 = DIRECTION ( 'NONE',  ( -1.224646799147353207E-16, -0.0000000000000000000, -1.000000000000000000 ) ) ;
#289 = EDGE_CURVE ( 'NONE', #300, #29, #8, .T. ) ;
#290 = MECHANICAL_DESIGN_GEOMETRIC_PRESENTATION_REPRESENTATION (  '', ( #160 ), #169 ) ;
#291 = CIRCLE ( 'NONE', #178, 0.07802190000000000514 ) ;
#292 = EDGE_CURVE ( 'NONE', #236, #225, #186, .T. ) ;
#293 = PLANE ( 'NONE',  #64 ) ;
#294 = AXIS2_PLACEMENT_3D ( 'NONE', #12, #110, #209 ) ;
#295 = CARTESIAN_POINT ( 'NONE',  ( 6.894761479199598081E-17, 0.0000000000000000000, 0.5629999999999999449 ) ) ;
#296 = AXIS2_PLACEMENT_3D ( 'NONE', #121, #241, #243 ) ;
#297 = DIRECTION ( 'NONE',  ( -1.224646799147353207E-16, -0.0000000000000000000, -1.000000000000000000 ) ) ;
#298 = CARTESIAN_POINT ( 'NONE',  ( -0.07874999999999980627, 0.0000000000000000000, 2.000000000000000000 ) ) ;
#299 = APPLICATION_CONTEXT ( 'automotive_design' ) ;
#300 = VERTEX_POINT ( 'NONE', #164 ) ;
#301 = DIRECTION ( 'NONE',  ( 1.000000000000000000, 0.0000000000000000000, 0.0000000000000000000 ) ) ;
#302 =( GEOMETRIC_REPRESENTATION_CONTEXT ( 3 ) GLOBAL_UNCERTAINTY_ASSIGNED_CONTEXT ( ( #259 ) ) GLOBAL_UNIT_ASSIGNED_CONTEXT ( ( #19, #183, #156 ) ) REPRESENTATION_CONTEXT ( 'NONE', 'WORKASPACE' ) );
#303 = ORIENTED_EDGE ( 'NONE', *, *, #228, .T. ) ;
#304 = CARTESIAN_POINT ( 'NONE',  ( 9.554927009839488851E-18, 0.0000000000000000000, 0.07802190000000000514 ) ) ;
#305 = ORIENTED_EDGE ( 'NONE', *, *, #216, .F. ) ;
#306 = DIRECTION ( 'NONE',  ( 1.000000000000000000, 0.0000000000000000000, 0.0000000000000000000 ) ) ;
#307 = AXIS2_PLACEMENT_3D ( 'NONE', #314, #219, #70 ) ;
#308 = VERTEX_POINT ( 'NONE', #271 ) ;
#309 = ADVANCED_FACE ( 'NONE', ( #143 ), #218, .T. ) ;
#310 = DIRECTION ( 'NONE',  ( 0.0000000000000000000, 1.000000000000000000, 0.0000000000000000000 ) ) ;
#311 = DIRECTION ( 'NONE',  ( 0.7071067811865463515, 8.659560562354916834E-17, -0.7071067811865486830 ) ) ;
#312 = ORIENTED_EDGE ( 'NONE', *, *, #262, .F. ) ;
#313 = CARTESIAN_POINT ( 'NONE',  ( 0.09375000000000001388, 1.148106374200643863E-17, 1.984999999999999654 ) ) ;
#314 = CARTESIAN_POINT ( 'NONE',  ( 9.554927009839488851E-18, 0.0000000000000000000, 0.07802190000000000514 ) ) ;
#315 = DIRECTION ( 'NONE',  ( -0.0000000000000000000, -0.0000000000000000000, -1.000000000000000000 ) ) ;
#316 = CIRCLE ( 'NONE', #163, 0.07802190000000000514 ) ;
#317 = CARTESIAN_POINT ( 'NONE',  ( 0.0000000000000000000, 0.0000000000000000000, 2.000000000000000000 ) ) ;
#318 = AXIS2_PLACEMENT_3D ( 'NONE', #71, #116, #92 ) ;
#319 = FACE_OUTER_BOUND ( 'NONE', #103, .T. ) ;
#320 = ORIENTED_EDGE ( 'NONE', *, *, #117, .F. ) ;
#321 = FACE_OUTER_BOUND ( 'NONE', #3, .T. ) ;
#322 = ORIENTED_EDGE ( 'NONE', *, *, #292, .T. ) ;
#323 = FILL_AREA_STYLE_COLOUR ( '', #224 ) ;
#324 = EDGE_CURVE ( 'NONE', #308, #300, #118, .T. ) ;
#325 = AXIS2_PLACEMENT_3D ( 'NONE', #192, #141, #301 ) ;
ENDSEC;
END-ISO-10303-21;
