ISO-10303-21;
HEADER;
FILE_DESCRIPTION (( 'STEP AP214' ),
    '1' );
FILE_NAME ('00450.STEP',
    '2023-06-22T14:08:26',
    ( '' ),
    ( '' ),
    'SwSTEP 2.0',
    'SolidWorks 2023',
    '' );
FILE_SCHEMA (( 'AUTOMOTIVE_DESIGN' ));
ENDSEC;

DATA;
#1 = ORIENTED_EDGE ( 'NONE', *, *, #169, .F. ) ;
#2 = PRODUCT_RELATED_PRODUCT_CATEGORY ( 'part', '', ( #308 ) ) ;
#3 = DIRECTION ( 'NONE',  ( -3.061616997868386099E-17, 1.000000000000000000, -0.000000000000000000 ) ) ;
#4 =( CONVERSION_BASED_UNIT ( 'INCH', #127 ) LENGTH_UNIT ( ) NAMED_UNIT ( #216 ) );
#5 = LENGTH_MEASURE_WITH_UNIT ( LENGTH_MEASURE( 0.02539999999999999897 ), #122 );
#6 = ORIENTED_EDGE ( 'NONE', *, *, #259, .T. ) ;
#7 = PLANE ( 'NONE',  #269 ) ;
#8 =( CONVERSION_BASED_UNIT ( 'INCH', #178 ) LENGTH_UNIT ( ) NAMED_UNIT ( #77 ) );
#9 = SURFACE_SIDE_STYLE ('',( #190 ) ) ;
#10 = SURFACE_STYLE_FILL_AREA ( #54 ) ;
#11 = ADVANCED_FACE ( 'NONE', ( #250 ), #265, .F. ) ;
#12 = DIRECTION ( 'NONE',  ( -0.000000000000000000, -1.000000000000000000, -0.000000000000000000 ) ) ;
#13 = VERTEX_POINT ( 'NONE', #156 ) ;
#14 = ORIENTED_EDGE ( 'NONE', *, *, #274, .T. ) ;
#15 = CARTESIAN_POINT ( 'NONE',  ( 1.171687330204578608E-34, 1.000000000000000000, 0.000000000000000000 ) ) ;
#16 = SURFACE_STYLE_USAGE ( .BOTH. , #300 ) ;
#17 = AXIS2_PLACEMENT_3D ( 'NONE', #46, #69, #158 ) ;
#18 = EDGE_LOOP ( 'NONE', ( #179, #55 ) ) ;
#19 = DIRECTION ( 'NONE',  ( 0.000000000000000000, 0.000000000000000000, -1.000000000000000000 ) ) ;
#20 = CARTESIAN_POINT ( 'NONE',  ( 0.000000000000000000, 1.000000000000000000, 0.000000000000000000 ) ) ;
#21 = ORIENTED_EDGE ( 'NONE', *, *, #242, .T. ) ;
#22 = DIRECTION ( 'NONE',  ( -1.000000000000000000, 0.000000000000000000, 0.000000000000000000 ) ) ;
#23 =( NAMED_UNIT ( * ) PLANE_ANGLE_UNIT ( ) SI_UNIT ( $, .RADIAN. ) );
#24 = COLOUR_RGB ( '',1.000000000000000000, 0.000000000000000000, 0.000000000000000000 ) ;
#25 = STYLED_ITEM ( 'NONE', ( #97 ), #110 ) ;
#26 = DIRECTION ( 'NONE',  ( -1.000000000000000000, 0.000000000000000000, 0.000000000000000000 ) ) ;
#27 = PRODUCT_DEFINITION ( 'UNKNOWN', '', #220, #76 ) ;
#28 =( GEOMETRIC_REPRESENTATION_CONTEXT ( 3 ) GLOBAL_UNCERTAINTY_ASSIGNED_CONTEXT ( ( #167 ) ) GLOBAL_UNIT_ASSIGNED_CONTEXT ( ( #45, #23, #185 ) ) REPRESENTATION_CONTEXT ( 'NONE', 'WORKASPACE' ) );
#29 = CARTESIAN_POINT ( 'NONE',  ( 0.2499999999999999722, 3.000000000000000444, 3.061616997868383634E-17 ) ) ;
#30 = CLOSED_SHELL ( 'NONE', ( #61, #11, #103, #133 ) ) ;
#31 = PRESENTATION_STYLE_ASSIGNMENT (( #16 ) ) ;
#32 = CIRCLE ( 'NONE', #283, 0.2500000000000000000 ) ;
#33 = FILL_AREA_STYLE_COLOUR ( '', #75 ) ;
#34 = ADVANCED_FACE ( 'NONE', ( #251 ), #174, .T. ) ;
#35 = SURFACE_STYLE_USAGE ( .BOTH. , #270 ) ;
#36 = APPLICATION_PROTOCOL_DEFINITION ( 'draft international standard', 'automotive_design', 1998, #231 ) ;
#37 =( LENGTH_UNIT ( ) NAMED_UNIT ( * ) SI_UNIT ( $, .METRE. ) );
#38 = EDGE_CURVE ( 'NONE', #214, #65, #221, .T. ) ;
#39 = STYLED_ITEM ( 'NONE', ( #119 ), #264 ) ;
#40 = EDGE_LOOP ( 'NONE', ( #205, #14, #203, #1 ) ) ;
#41 = CARTESIAN_POINT ( 'NONE',  ( 0.000000000000000000, 0.000000000000000000, 0.000000000000000000 ) ) ;
#42 = COLOUR_RGB ( '',1.000000000000000000, 0.000000000000000000, 0.000000000000000000 ) ;
#43 =( GEOMETRIC_REPRESENTATION_CONTEXT ( 3 ) GLOBAL_UNCERTAINTY_ASSIGNED_CONTEXT ( ( #140 ) ) GLOBAL_UNIT_ASSIGNED_CONTEXT ( ( #8, #201, #223 ) ) REPRESENTATION_CONTEXT ( 'NONE', 'WORKASPACE' ) );
#44 = ORIENTED_EDGE ( 'NONE', *, *, #83, .F. ) ;
#45 =( CONVERSION_BASED_UNIT ( 'INCH', #254 ) LENGTH_UNIT ( ) NAMED_UNIT ( #286 ) );
#46 = CARTESIAN_POINT ( 'NONE',  ( -6.123233995736772199E-17, 3.000000000000000444, 0.000000000000000000 ) ) ;
#47 = EDGE_CURVE ( 'NONE', #13, #303, #233, .T. ) ;
#48 = DIRECTION ( 'NONE',  ( -0.000000000000000000, -1.000000000000000000, -0.000000000000000000 ) ) ;
#49 = VECTOR ( 'NONE', #215, 39.37007874015748143 ) ;
#50 = DIRECTION ( 'NONE',  ( -3.061616997868386099E-17, 1.000000000000000000, -0.000000000000000000 ) ) ;
#51 = CARTESIAN_POINT ( 'NONE',  ( 3.061616997868383018E-17, 0.000000000000000000, 0.2500000000000000000 ) ) ;
#52 = SURFACE_SIDE_STYLE ('',( #56 ) ) ;
#53 = PRESENTATION_STYLE_ASSIGNMENT (( #288 ) ) ;
#54 = FILL_AREA_STYLE ('',( #271 ) ) ;
#55 = ORIENTED_EDGE ( 'NONE', *, *, #274, .F. ) ;
#56 = SURFACE_STYLE_FILL_AREA ( #82 ) ;
#57 =( NAMED_UNIT ( * ) SI_UNIT ( $, .STERADIAN. ) SOLID_ANGLE_UNIT ( ) );
#58 = AXIS2_PLACEMENT_3D ( 'NONE', #20, #48, #277 ) ;
#59 = CARTESIAN_POINT ( 'NONE',  ( 0.000000000000000000, 0.000000000000000000, 0.000000000000000000 ) ) ;
#60 = DIRECTION ( 'NONE',  ( 0.000000000000000000, 0.000000000000000000, 1.000000000000000000 ) ) ;
#61 = ADVANCED_FACE ( 'NONE', ( #96 ), #114, .T. ) ;
#62 = PRESENTATION_STYLE_ASSIGNMENT (( #89 ) ) ;
#63 =( LENGTH_UNIT ( ) NAMED_UNIT ( * ) SI_UNIT ( $, .METRE. ) );
#64 = PRESENTATION_LAYER_ASSIGNMENT (  '', '', ( #25 ) ) ;
#65 = VERTEX_POINT ( 'NONE', #256 ) ;
#66 =( GEOMETRIC_REPRESENTATION_CONTEXT ( 3 ) GLOBAL_UNCERTAINTY_ASSIGNED_CONTEXT ( ( #210 ) ) GLOBAL_UNIT_ASSIGNED_CONTEXT ( ( #153, #150, #289 ) ) REPRESENTATION_CONTEXT ( 'NONE', 'WORKASPACE' ) );
#67 = CIRCLE ( 'NONE', #177, 0.2500000000000000555 ) ;
#68 = CARTESIAN_POINT ( 'NONE',  ( 7.582401355855259480E-33, 1.000000000000000000, 0.000000000000000000 ) ) ;
#69 = DIRECTION ( 'NONE',  ( -3.061616997868386099E-17, 1.000000000000000000, -0.000000000000000000 ) ) ;
#70 = ORIENTED_EDGE ( 'NONE', *, *, #94, .T. ) ;
#71 = DIRECTION ( 'NONE',  ( -0.000000000000000000, -1.000000000000000000, -0.000000000000000000 ) ) ;
#72 = SURFACE_SIDE_STYLE ('',( #143 ) ) ;
#73 = EDGE_CURVE ( 'NONE', #13, #98, #141, .T. ) ;
#74 = CARTESIAN_POINT ( 'NONE',  ( 0.2500000000000000000, 1.000000000000000000, 3.061616997868383634E-17 ) ) ;
#75 = COLOUR_RGB ( '',1.000000000000000000, 0.000000000000000000, 0.000000000000000000 ) ;
#76 = PRODUCT_DEFINITION_CONTEXT ( 'detailed design', #276, 'design' ) ;
#77 = DIMENSIONAL_EXPONENTS ( 1.000000000000000000, 0.000000000000000000, 0.000000000000000000, 0.000000000000000000, 0.000000000000000000, 0.000000000000000000, 0.000000000000000000 ) ;
#78 = CARTESIAN_POINT ( 'NONE',  ( 0.2500000000000000000, 3.000000000000000444, 0.000000000000000000 ) ) ;
#79 = LINE ( 'NONE', #238, #130 ) ;
#80 =( GEOMETRIC_REPRESENTATION_CONTEXT ( 3 ) GLOBAL_UNCERTAINTY_ASSIGNED_CONTEXT ( ( #186 ) ) GLOBAL_UNIT_ASSIGNED_CONTEXT ( ( #291, #151, #195 ) ) REPRESENTATION_CONTEXT ( 'NONE', 'WORKASPACE' ) );
#81 = COLOUR_RGB ( '',0.7921568627450980005, 0.8196078431372548767, 0.9333333333333333481 ) ;
#82 = FILL_AREA_STYLE ('',( #33 ) ) ;
#83 = EDGE_CURVE ( 'NONE', #111, #98, #228, .T. ) ;
#84 = ORIENTED_EDGE ( 'NONE', *, *, #38, .T. ) ;
#85 = DIRECTION ( 'NONE',  ( 0.000000000000000000, 0.000000000000000000, -1.000000000000000000 ) ) ;
#86 = FACE_OUTER_BOUND ( 'NONE', #230, .T. ) ;
#87 = VERTEX_POINT ( 'NONE', #74 ) ;
#88 = DIRECTION ( 'NONE',  ( 0.000000000000000000, 0.000000000000000000, -1.000000000000000000 ) ) ;
#89 = SURFACE_STYLE_USAGE ( .BOTH. , #296 ) ;
#90 =( NAMED_UNIT ( * ) PLANE_ANGLE_UNIT ( ) SI_UNIT ( $, .RADIAN. ) );
#91 = STYLED_ITEM ( 'NONE', ( #173 ), #282 ) ;
#92 = ORIENTED_EDGE ( 'NONE', *, *, #121, .F. ) ;
#93 = AXIS2_PLACEMENT_3D ( 'NONE', #187, #207, #26 ) ;
#94 = EDGE_CURVE ( 'NONE', #303, #13, #106, .T. ) ;
#95 = FILL_AREA_STYLE ('',( #149 ) ) ;
#96 = FACE_OUTER_BOUND ( 'NONE', #298, .T. ) ;
#97 = PRESENTATION_STYLE_ASSIGNMENT (( #188 ) ) ;
#98 = VERTEX_POINT ( 'NONE', #161 ) ;
#99 = AXIS2_PLACEMENT_3D ( 'NONE', #41, #163, #19 ) ;
#100 = DIRECTION ( 'NONE',  ( -1.000000000000000000, 0.000000000000000000, 0.000000000000000000 ) ) ;
#101 = LINE ( 'NONE', #51, #49 ) ;
#102 =( CONVERSION_BASED_UNIT ( 'INCH', #5 ) LENGTH_UNIT ( ) NAMED_UNIT ( #108 ) );
#103 = ADVANCED_FACE ( 'NONE', ( #112 ), #139, .T. ) ;
#104 = ORIENTED_EDGE ( 'NONE', *, *, #83, .T. ) ;
#105 = DIRECTION ( 'NONE',  ( -0.000000000000000000, -1.000000000000000000, -0.000000000000000000 ) ) ;
#106 = CIRCLE ( 'NONE', #115, 0.2500000000000000000 ) ;
#107 =( NAMED_UNIT ( * ) SI_UNIT ( $, .STERADIAN. ) SOLID_ANGLE_UNIT ( ) );
#108 = DIMENSIONAL_EXPONENTS ( 1.000000000000000000, 0.000000000000000000, 0.000000000000000000, 0.000000000000000000, 0.000000000000000000, 0.000000000000000000, 0.000000000000000000 ) ;
#109 = DIRECTION ( 'NONE',  ( -3.061616997868386099E-17, 1.000000000000000000, 0.000000000000000000 ) ) ;
#110 = ADVANCED_FACE ( 'NONE', ( #281 ), #116, .T. ) ;
#111 = VERTEX_POINT ( 'NONE', #240 ) ;
#112 = FACE_OUTER_BOUND ( 'NONE', #40, .T. ) ;
#113 = CARTESIAN_POINT ( 'NONE',  ( -6.123233995736772199E-17, 3.000000000000000444, 0.000000000000000000 ) ) ;
#114 = CYLINDRICAL_SURFACE ( 'NONE', #17, 0.2500000000000000555 ) ;
#115 = AXIS2_PLACEMENT_3D ( 'NONE', #183, #234, #209 ) ;
#116 = CYLINDRICAL_SURFACE ( 'NONE', #208, 0.2500000000000000000 ) ;
#117 = DIRECTION ( 'NONE',  ( 0.000000000000000000, 1.000000000000000000, 0.000000000000000000 ) ) ;
#118 = MECHANICAL_DESIGN_GEOMETRIC_PRESENTATION_REPRESENTATION (  '', ( #91 ), #43 ) ;
#119 = PRESENTATION_STYLE_ASSIGNMENT (( #191 ) ) ;
#120 = APPLICATION_PROTOCOL_DEFINITION ( 'draft international standard', 'automotive_design', 1998, #276 ) ;
#121 = EDGE_CURVE ( 'NONE', #98, #111, #32, .T. ) ;
#122 =( LENGTH_UNIT ( ) NAMED_UNIT ( * ) SI_UNIT ( $, .METRE. ) );
#123 = ORIENTED_EDGE ( 'NONE', *, *, #197, .T. ) ;
#124 = PLANE ( 'NONE',  #136 ) ;
#125 = FILL_AREA_STYLE ('',( #247 ) ) ;
#126 = EDGE_LOOP ( 'NONE', ( #182, #104 ) ) ;
#127 = LENGTH_MEASURE_WITH_UNIT ( LENGTH_MEASURE( 0.02539999999999999897 ), #295 );
#128 = PRESENTATION_LAYER_ASSIGNMENT (  '', '', ( #142 ) ) ;
#129 = DIRECTION ( 'NONE',  ( -3.061616997868386099E-17, 1.000000000000000000, -0.000000000000000000 ) ) ;
#130 = VECTOR ( 'NONE', #293, 39.37007874015748143 ) ;
#131 = DIRECTION ( 'NONE',  ( 0.000000000000000000, 0.000000000000000000, -1.000000000000000000 ) ) ;
#132 = DIRECTION ( 'NONE',  ( 1.000000000000000000, 0.000000000000000000, 0.000000000000000000 ) ) ;
#133 = ADVANCED_FACE ( 'NONE', ( #144 ), #7, .F. ) ;
#134 = EDGE_LOOP ( 'NONE', ( #84, #279 ) ) ;
#135 = UNCERTAINTY_MEASURE_WITH_UNIT (LENGTH_MEASURE( 1.000000000000000082E-05 ), #294, 'distance_accuracy_value', 'NONE');
#136 = AXIS2_PLACEMENT_3D ( 'NONE', #222, #199, #88 ) ;
#137 =( NAMED_UNIT ( * ) SI_UNIT ( $, .STERADIAN. ) SOLID_ANGLE_UNIT ( ) );
#138 = MECHANICAL_DESIGN_GEOMETRIC_PRESENTATION_REPRESENTATION (  '', ( #142 ), #66 ) ;
#139 = CYLINDRICAL_SURFACE ( 'NONE', #93, 0.2500000000000000555 ) ;
#140 = UNCERTAINTY_MEASURE_WITH_UNIT (LENGTH_MEASURE( 1.000000000000000082E-05 ), #8, 'distance_accuracy_value', 'NONE');
#141 = LINE ( 'NONE', #252, #155 ) ;
#142 = STYLED_ITEM ( 'NONE', ( #62 ), #297 ) ;
#143 = SURFACE_STYLE_FILL_AREA ( #304 ) ;
#144 = FACE_OUTER_BOUND ( 'NONE', #134, .T. ) ;
#145 = DIRECTION ( 'NONE',  ( -3.061616997868386099E-17, 1.000000000000000000, -0.000000000000000000 ) ) ;
#146 = UNCERTAINTY_MEASURE_WITH_UNIT (LENGTH_MEASURE( 1.000000000000000082E-05 ), #102, 'distance_accuracy_value', 'NONE');
#147 = FACE_OUTER_BOUND ( 'NONE', #126, .T. ) ;
#148 = LENGTH_MEASURE_WITH_UNIT ( LENGTH_MEASURE( 0.02539999999999999897 ), #192 );
#149 = FILL_AREA_STYLE_COLOUR ( '', #24 ) ;
#150 =( NAMED_UNIT ( * ) PLANE_ANGLE_UNIT ( ) SI_UNIT ( $, .RADIAN. ) );
#151 =( NAMED_UNIT ( * ) PLANE_ANGLE_UNIT ( ) SI_UNIT ( $, .RADIAN. ) );
#152 = AXIS2_PLACEMENT_3D ( 'NONE', #68, #301, #22 ) ;
#153 =( CONVERSION_BASED_UNIT ( 'INCH', #176 ) LENGTH_UNIT ( ) NAMED_UNIT ( #193 ) );
#154 =( NAMED_UNIT ( * ) PLANE_ANGLE_UNIT ( ) SI_UNIT ( $, .RADIAN. ) );
#155 = VECTOR ( 'NONE', #71, 39.37007874015748143 ) ;
#156 = CARTESIAN_POINT ( 'NONE',  ( 0.000000000000000000, 1.000000000000000000, -0.2500000000000000000 ) ) ;
#157 = SHAPE_DEFINITION_REPRESENTATION ( #261, #180 ) ;
#158 = DIRECTION ( 'NONE',  ( -1.000000000000000000, 0.000000000000000000, 0.000000000000000000 ) ) ;
#159 = MECHANICAL_DESIGN_GEOMETRIC_PRESENTATION_REPRESENTATION (  '', ( #25 ), #28 ) ;
#160 = DIRECTION ( 'NONE',  ( -1.000000000000000000, 0.000000000000000000, 0.000000000000000000 ) ) ;
#161 = CARTESIAN_POINT ( 'NONE',  ( 0.000000000000000000, 0.000000000000000000, -0.2500000000000000000 ) ) ;
#162 = UNCERTAINTY_MEASURE_WITH_UNIT (LENGTH_MEASURE( 1.000000000000000082E-05 ), #4, 'distance_accuracy_value', 'NONE');
#163 = DIRECTION ( 'NONE',  ( -0.000000000000000000, -1.000000000000000000, -0.000000000000000000 ) ) ;
#164 =( GEOMETRIC_REPRESENTATION_CONTEXT ( 3 ) GLOBAL_UNCERTAINTY_ASSIGNED_CONTEXT ( ( #146 ) ) GLOBAL_UNIT_ASSIGNED_CONTEXT ( ( #102, #246, #107 ) ) REPRESENTATION_CONTEXT ( 'NONE', 'WORKASPACE' ) );
#165 = CARTESIAN_POINT ( 'NONE',  ( -6.123233995736772199E-17, 3.000000000000000444, 0.000000000000000000 ) ) ;
#166 = DIMENSIONAL_EXPONENTS ( 1.000000000000000000, 0.000000000000000000, 0.000000000000000000, 0.000000000000000000, 0.000000000000000000, 0.000000000000000000, 0.000000000000000000 ) ;
#167 = UNCERTAINTY_MEASURE_WITH_UNIT (LENGTH_MEASURE( 1.000000000000000082E-05 ), #45, 'distance_accuracy_value', 'NONE');
#168 = CARTESIAN_POINT ( 'NONE',  ( 7.582401355855259480E-33, 1.000000000000000000, 0.000000000000000000 ) ) ;
#169 = EDGE_CURVE ( 'NONE', #65, #214, #67, .T. ) ;
#170 = VECTOR ( 'NONE', #3, 39.37007874015748143 ) ;
#171 = AXIS2_PLACEMENT_3D ( 'NONE', #15, #109, #243 ) ;
#172 = FILL_AREA_STYLE ('',( #236 ) ) ;
#173 = PRESENTATION_STYLE_ASSIGNMENT (( #35 ) ) ;
#174 = PLANE ( 'NONE',  #307 ) ;
#175 = DIRECTION ( 'NONE',  ( 3.061616997868386099E-17, -1.000000000000000000, 0.000000000000000000 ) ) ;
#176 = LENGTH_MEASURE_WITH_UNIT ( LENGTH_MEASURE( 0.02539999999999999897 ), #37 );
#177 = AXIS2_PLACEMENT_3D ( 'NONE', #165, #129, #100 ) ;
#178 = LENGTH_MEASURE_WITH_UNIT ( LENGTH_MEASURE( 0.02539999999999999897 ), #196 );
#179 = ORIENTED_EDGE ( 'NONE', *, *, #242, .F. ) ;
#180 = ADVANCED_BREP_SHAPE_REPRESENTATION ( '00450', ( #202, #297, #309 ), #249 ) ;
#181 = PRESENTATION_LAYER_ASSIGNMENT (  '', '', ( #213 ) ) ;
#182 = ORIENTED_EDGE ( 'NONE', *, *, #121, .T. ) ;
#183 = CARTESIAN_POINT ( 'NONE',  ( 0.000000000000000000, 1.000000000000000000, 0.000000000000000000 ) ) ;
#184 = ORIENTED_EDGE ( 'NONE', *, *, #47, .T. ) ;
#185 =( NAMED_UNIT ( * ) SI_UNIT ( $, .STERADIAN. ) SOLID_ANGLE_UNIT ( ) );
#186 = UNCERTAINTY_MEASURE_WITH_UNIT (LENGTH_MEASURE( 1.000000000000000082E-05 ), #291, 'distance_accuracy_value', 'NONE');
#187 = CARTESIAN_POINT ( 'NONE',  ( -6.123233995736772199E-17, 3.000000000000000444, 0.000000000000000000 ) ) ;
#188 = SURFACE_STYLE_USAGE ( .BOTH. , #72 ) ;
#189 = MECHANICAL_DESIGN_GEOMETRIC_PRESENTATION_REPRESENTATION (  '', ( #213 ), #245 ) ;
#190 = SURFACE_STYLE_FILL_AREA ( #172 ) ;
#191 = SURFACE_STYLE_USAGE ( .BOTH. , #52 ) ;
#192 =( LENGTH_UNIT ( ) NAMED_UNIT ( * ) SI_UNIT ( $, .METRE. ) );
#193 = DIMENSIONAL_EXPONENTS ( 1.000000000000000000, 0.000000000000000000, 0.000000000000000000, 0.000000000000000000, 0.000000000000000000, 0.000000000000000000, 0.000000000000000000 ) ;
#194 = STYLED_ITEM ( 'NONE', ( #53 ), #202 ) ;
#195 =( NAMED_UNIT ( * ) SI_UNIT ( $, .STERADIAN. ) SOLID_ANGLE_UNIT ( ) );
#196 =( LENGTH_UNIT ( ) NAMED_UNIT ( * ) SI_UNIT ( $, .METRE. ) );
#197 = EDGE_CURVE ( 'NONE', #303, #111, #101, .T. ) ;
#198 = LENGTH_MEASURE_WITH_UNIT ( LENGTH_MEASURE( 0.02539999999999999897 ), #63 );
#199 = DIRECTION ( 'NONE',  ( 0.000000000000000000, -1.000000000000000000, -0.000000000000000000 ) ) ;
#200 = CARTESIAN_POINT ( 'NONE',  ( 0.000000000000000000, 0.000000000000000000, 0.000000000000000000 ) ) ;
#201 =( NAMED_UNIT ( * ) PLANE_ANGLE_UNIT ( ) SI_UNIT ( $, .RADIAN. ) );
#202 = MANIFOLD_SOLID_BREP ( 'Revolve - Cutting Edge', #263 ) ;
#203 = ORIENTED_EDGE ( 'NONE', *, *, #237, .T. ) ;
#204 = CIRCLE ( 'NONE', #152, 0.2500000000000000000 ) ;
#205 = ORIENTED_EDGE ( 'NONE', *, *, #259, .F. ) ;
#206 = ORIENTED_EDGE ( 'NONE', *, *, #73, .T. ) ;
#207 = DIRECTION ( 'NONE',  ( -3.061616997868386099E-17, 1.000000000000000000, -0.000000000000000000 ) ) ;
#208 = AXIS2_PLACEMENT_3D ( 'NONE', #212, #306, #85 ) ;
#209 = DIRECTION ( 'NONE',  ( 0.000000000000000000, 0.000000000000000000, -1.000000000000000000 ) ) ;
#210 = UNCERTAINTY_MEASURE_WITH_UNIT (LENGTH_MEASURE( 1.000000000000000082E-05 ), #153, 'distance_accuracy_value', 'NONE');
#211 = FILL_AREA_STYLE_COLOUR ( '', #275 ) ;
#212 = CARTESIAN_POINT ( 'NONE',  ( 0.000000000000000000, 0.000000000000000000, 0.000000000000000000 ) ) ;
#213 = STYLED_ITEM ( 'NONE', ( #31 ), #34 ) ;
#214 = VERTEX_POINT ( 'NONE', #262 ) ;
#215 = DIRECTION ( 'NONE',  ( -0.000000000000000000, -1.000000000000000000, -0.000000000000000000 ) ) ;
#216 = DIMENSIONAL_EXPONENTS ( 1.000000000000000000, 0.000000000000000000, 0.000000000000000000, 0.000000000000000000, 0.000000000000000000, 0.000000000000000000, 0.000000000000000000 ) ;
#217 = DIRECTION ( 'NONE',  ( -1.000000000000000000, 0.000000000000000000, 0.000000000000000000 ) ) ;
#218 = COLOUR_RGB ( '',0.7921568627450980005, 0.8196078431372548767, 0.9333333333333333481 ) ;
#219 = SURFACE_STYLE_FILL_AREA ( #125 ) ;
#220 = PRODUCT_DEFINITION_FORMATION_WITH_SPECIFIED_SOURCE ( 'ANY', '', #308, .NOT_KNOWN. ) ;
#221 = CIRCLE ( 'NONE', #235, 0.2500000000000000555 ) ;
#222 = CARTESIAN_POINT ( 'NONE',  ( 0.000000000000000000, 0.000000000000000000, 0.000000000000000000 ) ) ;
#223 =( NAMED_UNIT ( * ) SI_UNIT ( $, .STERADIAN. ) SOLID_ANGLE_UNIT ( ) );
#224 = ORIENTED_EDGE ( 'NONE', *, *, #94, .F. ) ;
#225 = VERTEX_POINT ( 'NONE', #287 ) ;
#226 = ORIENTED_EDGE ( 'NONE', *, *, #73, .F. ) ;
#227 = SURFACE_STYLE_FILL_AREA ( #95 ) ;
#228 = CIRCLE ( 'NONE', #99, 0.2500000000000000000 ) ;
#229 = DIRECTION ( 'NONE',  ( 0.000000000000000000, -0.000000000000000000, 1.000000000000000000 ) ) ;
#230 = EDGE_LOOP ( 'NONE', ( #278, #70, #206, #44 ) ) ;
#231 = APPLICATION_CONTEXT ( 'automotive_design' ) ;
#232 =( LENGTH_UNIT ( ) NAMED_UNIT ( * ) SI_UNIT ( $, .METRE. ) );
#233 = CIRCLE ( 'NONE', #58, 0.2500000000000000000 ) ;
#234 = DIRECTION ( 'NONE',  ( -0.000000000000000000, -1.000000000000000000, -0.000000000000000000 ) ) ;
#235 = AXIS2_PLACEMENT_3D ( 'NONE', #113, #50, #160 ) ;
#236 = FILL_AREA_STYLE_COLOUR ( '', #218 ) ;
#237 = EDGE_CURVE ( 'NONE', #225, #214, #79, .T. ) ;
#238 = CARTESIAN_POINT ( 'NONE',  ( -0.2500000000000001110, 3.000000000000000444, 0.000000000000000000 ) ) ;
#239 = PRODUCT_CONTEXT ( 'NONE', #231, 'mechanical' ) ;
#240 = CARTESIAN_POINT ( 'NONE',  ( 3.061616997868383018E-17, 0.000000000000000000, 0.2500000000000000000 ) ) ;
#241 = EDGE_LOOP ( 'NONE', ( #255, #224 ) ) ;
#242 = EDGE_CURVE ( 'NONE', #225, #87, #302, .T. ) ;
#243 = DIRECTION ( 'NONE',  ( -1.000000000000000000, -3.061616997868386099E-17, 0.000000000000000000 ) ) ;
#244 = LINE ( 'NONE', #29, #170 ) ;
#245 =( GEOMETRIC_REPRESENTATION_CONTEXT ( 3 ) GLOBAL_UNCERTAINTY_ASSIGNED_CONTEXT ( ( #135 ) ) GLOBAL_UNIT_ASSIGNED_CONTEXT ( ( #294, #154, #137 ) ) REPRESENTATION_CONTEXT ( 'NONE', 'WORKASPACE' ) );
#246 =( NAMED_UNIT ( * ) PLANE_ANGLE_UNIT ( ) SI_UNIT ( $, .RADIAN. ) );
#247 = FILL_AREA_STYLE_COLOUR ( '', #42 ) ;
#248 = AXIS2_PLACEMENT_3D ( 'NONE', #168, #145, #217 ) ;
#249 =( GEOMETRIC_REPRESENTATION_CONTEXT ( 3 ) GLOBAL_UNCERTAINTY_ASSIGNED_CONTEXT ( ( #162 ) ) GLOBAL_UNIT_ASSIGNED_CONTEXT ( ( #4, #90, #57 ) ) REPRESENTATION_CONTEXT ( 'NONE', 'WORKASPACE' ) );
#250 = FACE_OUTER_BOUND ( 'NONE', #18, .T. ) ;
#251 = FACE_OUTER_BOUND ( 'NONE', #241, .T. ) ;
#252 = CARTESIAN_POINT ( 'NONE',  ( 0.000000000000000000, 0.000000000000000000, -0.2500000000000000000 ) ) ;
#253 = PRESENTATION_LAYER_ASSIGNMENT (  '', '', ( #91 ) ) ;
#254 = LENGTH_MEASURE_WITH_UNIT ( LENGTH_MEASURE( 0.02539999999999999897 ), #232 );
#255 = ORIENTED_EDGE ( 'NONE', *, *, #47, .F. ) ;
#256 = CARTESIAN_POINT ( 'NONE',  ( 0.2500000000000000000, 3.000000000000000444, 3.061616997868383634E-17 ) ) ;
#257 = CARTESIAN_POINT ( 'NONE',  ( 0.000000000000000000, 1.000000000000000000, 0.000000000000000000 ) ) ;
#258 = MECHANICAL_DESIGN_GEOMETRIC_PRESENTATION_REPRESENTATION (  '', ( #194 ), #80 ) ;
#259 = EDGE_CURVE ( 'NONE', #87, #65, #244, .T. ) ;
#260 = DIRECTION ( 'NONE',  ( 1.000000000000000000, 3.061616997868386099E-17, 0.000000000000000000 ) ) ;
#261 = PRODUCT_DEFINITION_SHAPE ( 'NONE', 'NONE',  #27 ) ;
#262 = CARTESIAN_POINT ( 'NONE',  ( -0.2500000000000001110, 3.000000000000000444, 0.000000000000000000 ) ) ;
#263 = CLOSED_SHELL ( 'NONE', ( #110, #34, #282, #264 ) ) ;
#264 = ADVANCED_FACE ( 'NONE', ( #147 ), #124, .T. ) ;
#265 = PLANE ( 'NONE',  #171 ) ;
#266 = CARTESIAN_POINT ( 'NONE',  ( 3.061616997868383018E-17, 1.000000000000000000, 0.2500000000000000000 ) ) ;
#267 = CARTESIAN_POINT ( 'NONE',  ( 0.000000000000000000, 0.000000000000000000, 0.000000000000000000 ) ) ;
#268 = CYLINDRICAL_SURFACE ( 'NONE', #284, 0.2500000000000000000 ) ;
#269 = AXIS2_PLACEMENT_3D ( 'NONE', #78, #175, #260 ) ;
#270 = SURFACE_SIDE_STYLE ('',( #219 ) ) ;
#271 = FILL_AREA_STYLE_COLOUR ( '', #81 ) ;
#272 = ORIENTED_EDGE ( 'NONE', *, *, #237, .F. ) ;
#273 = PRESENTATION_LAYER_ASSIGNMENT (  '', '', ( #194 ) ) ;
#274 = EDGE_CURVE ( 'NONE', #87, #225, #204, .T. ) ;
#275 = COLOUR_RGB ( '',1.000000000000000000, 0.000000000000000000, 0.000000000000000000 ) ;
#276 = APPLICATION_CONTEXT ( 'automotive_design' ) ;
#277 = DIRECTION ( 'NONE',  ( 0.000000000000000000, 0.000000000000000000, -1.000000000000000000 ) ) ;
#278 = ORIENTED_EDGE ( 'NONE', *, *, #197, .F. ) ;
#279 = ORIENTED_EDGE ( 'NONE', *, *, #169, .T. ) ;
#280 = ORIENTED_EDGE ( 'NONE', *, *, #38, .F. ) ;
#281 = FACE_OUTER_BOUND ( 'NONE', #292, .T. ) ;
#282 = ADVANCED_FACE ( 'NONE', ( #86 ), #268, .T. ) ;
#283 = AXIS2_PLACEMENT_3D ( 'NONE', #267, #105, #285 ) ;
#284 = AXIS2_PLACEMENT_3D ( 'NONE', #59, #12, #131 ) ;
#285 = DIRECTION ( 'NONE',  ( 0.000000000000000000, 0.000000000000000000, -1.000000000000000000 ) ) ;
#286 = DIMENSIONAL_EXPONENTS ( 1.000000000000000000, 0.000000000000000000, 0.000000000000000000, 0.000000000000000000, 0.000000000000000000, 0.000000000000000000, 0.000000000000000000 ) ;
#287 = CARTESIAN_POINT ( 'NONE',  ( -0.2500000000000000000, 1.000000000000000000, 0.000000000000000000 ) ) ;
#288 = SURFACE_STYLE_USAGE ( .BOTH. , #9 ) ;
#289 =( NAMED_UNIT ( * ) SI_UNIT ( $, .STERADIAN. ) SOLID_ANGLE_UNIT ( ) );
#290 = PRESENTATION_LAYER_ASSIGNMENT (  '', '', ( #39 ) ) ;
#291 =( CONVERSION_BASED_UNIT ( 'INCH', #148 ) LENGTH_UNIT ( ) NAMED_UNIT ( #305 ) );
#292 = EDGE_LOOP ( 'NONE', ( #184, #123, #92, #226 ) ) ;
#293 = DIRECTION ( 'NONE',  ( -3.061616997868386099E-17, 1.000000000000000000, -0.000000000000000000 ) ) ;
#294 =( CONVERSION_BASED_UNIT ( 'INCH', #198 ) LENGTH_UNIT ( ) NAMED_UNIT ( #166 ) );
#295 =( LENGTH_UNIT ( ) NAMED_UNIT ( * ) SI_UNIT ( $, .METRE. ) );
#296 = SURFACE_SIDE_STYLE ('',( #10 ) ) ;
#297 = MANIFOLD_SOLID_BREP ( 'Revolve - Tool Body (Straight Shanked)', #30 ) ;
#298 = EDGE_LOOP ( 'NONE', ( #21, #6, #280, #272 ) ) ;
#299 = MECHANICAL_DESIGN_GEOMETRIC_PRESENTATION_REPRESENTATION (  '', ( #39 ), #164 ) ;
#300 = SURFACE_SIDE_STYLE ('',( #227 ) ) ;
#301 = DIRECTION ( 'NONE',  ( -3.061616997868386099E-17, 1.000000000000000000, -0.000000000000000000 ) ) ;
#302 = CIRCLE ( 'NONE', #248, 0.2500000000000000000 ) ;
#303 = VERTEX_POINT ( 'NONE', #266 ) ;
#304 = FILL_AREA_STYLE ('',( #211 ) ) ;
#305 = DIMENSIONAL_EXPONENTS ( 1.000000000000000000, 0.000000000000000000, 0.000000000000000000, 0.000000000000000000, 0.000000000000000000, 0.000000000000000000, 0.000000000000000000 ) ;
#306 = DIRECTION ( 'NONE',  ( -0.000000000000000000, -1.000000000000000000, -0.000000000000000000 ) ) ;
#307 = AXIS2_PLACEMENT_3D ( 'NONE', #257, #117, #229 ) ;
#308 = PRODUCT ( '00450', '00450', '', ( #239 ) ) ;
#309 = AXIS2_PLACEMENT_3D ( 'NONE', #200, #60, #132 ) ;
ENDSEC;
END-ISO-10303-21;
