ISO-10303-21;
HEADER;
FILE_DESCRIPTION (( 'STEP AP214' ),
    '1' );
FILE_NAME ('Micro_BMSM-019-4X.STEP',
    '2021-09-03T16:00:15',
    ( '' ),
    ( '' ),
    'SwSTEP 2.0',
    'SolidWorks 2020',
    '' );
FILE_SCHEMA (( 'AUTOMOTIVE_DESIGN' ));
ENDSEC;

DATA;
#1 = DIRECTION ( 'NONE',  ( 1.000000000000000000, 0.0000000000000000000, 0.0000000000000000000 ) ) ;
#2 = AXIS2_PLACEMENT_3D ( 'NONE', #153, #138, #231 ) ;
#3 = CARTESIAN_POINT ( 'NONE',  ( 0.0000000000000000000, 0.0000000000000000000, 0.0000000000000000000 ) ) ;
#4 = AXIS2_PLACEMENT_3D ( 'NONE', #316, #196, #266 ) ;
#5 = LINE ( 'NONE', #182, #155 ) ;
#6 = CARTESIAN_POINT ( 'NONE',  ( 0.04405499999999973326, 6.313666573004162521E-18, 1.496062999999999921 ) ) ;
#7 = DIRECTION ( 'NONE',  ( -1.224646799147353207E-16, -0.0000000000000000000, -1.000000000000000000 ) ) ;
#8 = CARTESIAN_POINT ( 'NONE',  ( 0.03736409850000000504, 4.575782363105143009E-18, 0.03736409849999999117 ) ) ;
#9 = ORIENTED_EDGE ( 'NONE', *, *, #314, .F. ) ;
#10 = CIRCLE ( 'NONE', #104, 0.03736409850000000504 ) ;
#11 = CONICAL_SURFACE ( 'NONE', #21, 0.04405499999999973326, 0.7853981633974491672 ) ;
#12 = ORIENTED_EDGE ( 'NONE', *, *, #308, .F. ) ;
#13 = APPLICATION_PROTOCOL_DEFINITION ( 'draft international standard', 'automotive_design', 1998, #37 ) ;
#14 = DIRECTION ( 'NONE',  ( 1.000000000000000000, 0.0000000000000000000, 0.0000000000000000000 ) ) ;
#15 = EDGE_CURVE ( 'NONE', #318, #99, #223, .T. ) ;
#16 = LINE ( 'NONE', #63, #191 ) ;
#17 = DIRECTION ( 'NONE',  ( 1.000000000000000000, 0.0000000000000000000, 0.0000000000000000000 ) ) ;
#18 = ORIENTED_EDGE ( 'NONE', *, *, #244, .T. ) ;
#19 = FILL_AREA_STYLE_COLOUR ( '', #183 ) ;
#20 = EDGE_LOOP ( 'NONE', ( #88, #258 ) ) ;
#21 = AXIS2_PLACEMENT_3D ( 'NONE', #83, #181, #270 ) ;
#22 = ADVANCED_FACE ( 'NONE', ( #263 ), #40, .T. ) ;
#23 = EDGE_LOOP ( 'NONE', ( #291, #152, #184, #55 ) ) ;
#24 = DIRECTION ( 'NONE',  ( 0.0000000000000000000, 0.0000000000000000000, -1.000000000000000000 ) ) ;
#25 = CARTESIAN_POINT ( 'NONE',  ( -0.03736409850000000504, 0.0000000000000000000, 4.575782363105143009E-18 ) ) ;
#26 = MECHANICAL_DESIGN_GEOMETRIC_PRESENTATION_REPRESENTATION (  '', ( #39 ), #277 ) ;
#27 = CIRCLE ( 'NONE', #90, 0.05905500000000000332 ) ;
#28 = CARTESIAN_POINT ( 'NONE',  ( 0.0000000000000000000, 0.0000000000000000000, 1.496062999999999921 ) ) ;
#29 = CARTESIAN_POINT ( 'NONE',  ( 0.0000000000000000000, 0.0000000000000000000, 0.0000000000000000000 ) ) ;
#30 = VERTEX_POINT ( 'NONE', #286 ) ;
#31 = ADVANCED_BREP_SHAPE_REPRESENTATION ( 'Micro_BMSM-019-4X', ( #85, #118 ), #174 ) ;
#32 = CARTESIAN_POINT ( 'NONE',  ( 1.350001645508076191E-17, 0.0000000000000000000, 0.1102360000000000007 ) ) ;
#33 = PRODUCT_DEFINITION ( 'UNKNOWN', '', #62, #324 ) ;
#34 = DIRECTION ( 'NONE',  ( -0.0000000000000000000, -0.0000000000000000000, -1.000000000000000000 ) ) ;
#35 = SURFACE_SIDE_STYLE ('',( #219 ) ) ;
#36 = EDGE_LOOP ( 'NONE', ( #68, #81, #100 ) ) ;
#37 = APPLICATION_CONTEXT ( 'automotive_design' ) ;
#38 = ORIENTED_EDGE ( 'NONE', *, *, #80, .F. ) ;
#39 = STYLED_ITEM ( 'NONE', ( #248 ), #31 ) ;
#40 = SPHERICAL_SURFACE ( 'NONE', #117, 0.03736409849999999810 ) ;
#41 =( LENGTH_UNIT ( ) NAMED_UNIT ( * ) SI_UNIT ( $, .METRE. ) );
#42 = EDGE_LOOP ( 'NONE', ( #298, #51, #45, #243 ) ) ;
#43 = FACE_OUTER_BOUND ( 'NONE', #130, .T. ) ;
#44 = DIRECTION ( 'NONE',  ( 1.224646799147353207E-16, 0.0000000000000000000, 1.000000000000000000 ) ) ;
#45 = ORIENTED_EDGE ( 'NONE', *, *, #91, .T. ) ;
#46 = SURFACE_STYLE_USAGE ( .BOTH. , #127 ) ;
#47 = ORIENTED_EDGE ( 'NONE', *, *, #145, .F. ) ;
#48 = CARTESIAN_POINT ( 'NONE',  ( 0.03736409850000000504, 4.575782363105143009E-18, -4.575782363105143009E-18 ) ) ;
#49 = ADVANCED_FACE ( 'NONE', ( #74 ), #220, .T. ) ;
#50 = DIRECTION ( 'NONE',  ( 0.0000000000000000000, 0.0000000000000000000, 1.000000000000000000 ) ) ;
#51 = ORIENTED_EDGE ( 'NONE', *, *, #15, .T. ) ;
#52 = AXIS2_PLACEMENT_3D ( 'NONE', #187, #201, #179 ) ;
#53 = LINE ( 'NONE', #48, #301 ) ;
#54 = CARTESIAN_POINT ( 'NONE',  ( 4.575782363105141468E-18, 0.0000000000000000000, 0.03736409849999999810 ) ) ;
#55 = ORIENTED_EDGE ( 'NONE', *, *, #274, .T. ) ;
#56 = ORIENTED_EDGE ( 'NONE', *, *, #193, .T. ) ;
#57 = CARTESIAN_POINT ( 'NONE',  ( 0.0000000000000000000, 0.0000000000000000000, 1.496062999999999921 ) ) ;
#58 = LINE ( 'NONE', #25, #105 ) ;
#59 = AXIS2_PLACEMENT_3D ( 'NONE', #242, #172, #288 ) ;
#60 = DIRECTION ( 'NONE',  ( 1.000000000000000000, 0.0000000000000000000, 0.0000000000000000000 ) ) ;
#61 = FACE_OUTER_BOUND ( 'NONE', #162, .T. ) ;
#62 = PRODUCT_DEFINITION_FORMATION_WITH_SPECIFIED_SOURCE ( 'ANY', '', #67, .NOT_KNOWN. ) ;
#63 = CARTESIAN_POINT ( 'NONE',  ( -0.05905500000000000332, 0.0000000000000000000, 1.496062999999999921 ) ) ;
#64 = ORIENTED_EDGE ( 'NONE', *, *, #80, .T. ) ;
#65 = EDGE_CURVE ( 'NONE', #279, #99, #149, .T. ) ;
#66 = DIRECTION ( 'NONE',  ( 1.000000000000000000, 0.0000000000000000000, 0.0000000000000000000 ) ) ;
#67 = PRODUCT ( 'Micro_BMSM-019-4X', 'Micro_BMSM-019-4X', '', ( #203 ) ) ;
#68 = ORIENTED_EDGE ( 'NONE', *, *, #265, .F. ) ;
#69 = EDGE_CURVE ( 'NONE', #99, #318, #27, .T. ) ;
#70 =( NAMED_UNIT ( * ) PLANE_ANGLE_UNIT ( ) SI_UNIT ( $, .RADIAN. ) );
#71 = CONICAL_SURFACE ( 'NONE', #92, 0.03736409850000000504, 0.1745329251994338915 ) ;
#72 = ORIENTED_EDGE ( 'NONE', *, *, #151, .T. ) ;
#73 = CARTESIAN_POINT ( 'NONE',  ( 0.05905500000000000332, 7.232151672364695422E-18, 1.481062999999999574 ) ) ;
#74 = FACE_OUTER_BOUND ( 'NONE', #20, .T. ) ;
#75 = CARTESIAN_POINT ( 'NONE',  ( 1.350001645508076191E-17, 0.0000000000000000000, 0.1102360000000000007 ) ) ;
#76 = VECTOR ( 'NONE', #215, 39.37007874015748143 ) ;
#77 = DIRECTION ( 'NONE',  ( -1.000000000000000000, 0.0000000000000000000, 0.0000000000000000000 ) ) ;
#78 = ORIENTED_EDGE ( 'NONE', *, *, #79, .T. ) ;
#79 = EDGE_CURVE ( 'NONE', #146, #188, #10, .T. ) ;
#80 = EDGE_CURVE ( 'NONE', #188, #313, #53, .T. ) ;
#81 = ORIENTED_EDGE ( 'NONE', *, *, #261, .T. ) ;
#82 = LINE ( 'NONE', #252, #109 ) ;
#83 = CARTESIAN_POINT ( 'NONE',  ( 0.0000000000000000000, 0.0000000000000000000, 1.496062999999999921 ) ) ;
#84 = ORIENTED_EDGE ( 'NONE', *, *, #65, .T. ) ;
#85 = MANIFOLD_SOLID_BREP ( 'Fillet1', #116 ) ;
#86 = DIRECTION ( 'NONE',  ( 1.000000000000000000, 0.0000000000000000000, 0.0000000000000000000 ) ) ;
#87 = CARTESIAN_POINT ( 'NONE',  ( 2.856503542487483366E-17, 0.0000000000000000000, 0.2332512153280678346 ) ) ;
#88 = ORIENTED_EDGE ( 'NONE', *, *, #314, .T. ) ;
#89 = CARTESIAN_POINT ( 'NONE',  ( 0.05905500000000003108, 7.232151672364698504E-18, 0.2332512153280678346 ) ) ;
#90 = AXIS2_PLACEMENT_3D ( 'NONE', #119, #306, #66 ) ;
#91 = EDGE_CURVE ( 'NONE', #99, #30, #16, .T. ) ;
#92 = AXIS2_PLACEMENT_3D ( 'NONE', #75, #44, #17 ) ;
#93 = DIRECTION ( 'NONE',  ( 1.224646799147353207E-16, 0.0000000000000000000, 1.000000000000000000 ) ) ;
#94 = DIRECTION ( 'NONE',  ( 0.0000000000000000000, 1.000000000000000000, 0.0000000000000000000 ) ) ;
#95 = ADVANCED_FACE ( 'NONE', ( #43 ), #197, .T. ) ;
#96 = CIRCLE ( 'NONE', #307, 0.03736409850000000504 ) ;
#97 = DIRECTION ( 'NONE',  ( 1.000000000000000000, 0.0000000000000000000, 0.0000000000000000000 ) ) ;
#98 = CARTESIAN_POINT ( 'NONE',  ( -0.03736409849999999810, 0.0000000000000000000, 0.03736409850000000504 ) ) ;
#99 = VERTEX_POINT ( 'NONE', #235 ) ;
#100 = ORIENTED_EDGE ( 'NONE', *, *, #151, .F. ) ;
#101 = DIRECTION ( 'NONE',  ( 0.0000000000000000000, 0.0000000000000000000, -1.000000000000000000 ) ) ;
#102 = APPLICATION_CONTEXT ( 'automotive_design' ) ;
#103 = LINE ( 'NONE', #225, #76 ) ;
#104 = AXIS2_PLACEMENT_3D ( 'NONE', #260, #249, #77 ) ;
#105 = VECTOR ( 'NONE', #299, 39.37007874015748143 ) ;
#106 = AXIS2_PLACEMENT_3D ( 'NONE', #57, #134, #161 ) ;
#107 = CARTESIAN_POINT ( 'NONE',  ( -0.03736409849999999117, 5.903967017734918445E-18, 0.1102360000000000007 ) ) ;
#108 = ADVANCED_FACE ( 'NONE', ( #177 ), #212, .T. ) ;
#109 = VECTOR ( 'NONE', #202, 39.37007874015748143 ) ;
#110 = CARTESIAN_POINT ( 'NONE',  ( -0.04405499999999973326, 0.0000000000000000000, 1.496062999999999921 ) ) ;
#111 = LINE ( 'NONE', #157, #198 ) ;
#112 = UNCERTAINTY_MEASURE_WITH_UNIT (LENGTH_MEASURE( 1.000000000000000082E-05 ), #285, 'distance_accuracy_value', 'NONE');
#113 = DIRECTION ( 'NONE',  ( -1.000000000000000000, 0.0000000000000000000, 0.0000000000000000000 ) ) ;
#114 = ORIENTED_EDGE ( 'NONE', *, *, #251, .T. ) ;
#115 = DIRECTION ( 'NONE',  ( 1.000000000000000000, 0.0000000000000000000, 0.0000000000000000000 ) ) ;
#116 = CLOSED_SHELL ( 'NONE', ( #22, #259, #305, #281, #292, #321, #49, #108, #211, #135, #95 ) ) ;
#117 = AXIS2_PLACEMENT_3D ( 'NONE', #165, #125, #209 ) ;
#118 = AXIS2_PLACEMENT_3D ( 'NONE', #3, #50, #86 ) ;
#119 = CARTESIAN_POINT ( 'NONE',  ( 0.0000000000000000000, 0.0000000000000000000, 1.481062999999999574 ) ) ;
#120 = FILL_AREA_STYLE ('',( #309 ) ) ;
#121 = AXIS2_PLACEMENT_3D ( 'NONE', #166, #101, #97 ) ;
#122 = AXIS2_PLACEMENT_3D ( 'NONE', #28, #256, #113 ) ;
#123 = VERTEX_POINT ( 'NONE', #207 ) ;
#124 = FACE_OUTER_BOUND ( 'NONE', #42, .T. ) ;
#125 = DIRECTION ( 'NONE',  ( 0.0000000000000000000, 1.000000000000000000, 0.0000000000000000000 ) ) ;
#126 = LENGTH_MEASURE_WITH_UNIT ( LENGTH_MEASURE( 0.02539999999999999897 ), #41 );
#127 = SURFACE_SIDE_STYLE ('',( #262 ) ) ;
#128 =( NAMED_UNIT ( * ) SI_UNIT ( $, .STERADIAN. ) SOLID_ANGLE_UNIT ( ) );
#129 = CIRCLE ( 'NONE', #168, 0.04405499999999973326 ) ;
#130 = EDGE_LOOP ( 'NONE', ( #192, #190, #322 ) ) ;
#131 = CARTESIAN_POINT ( 'NONE',  ( 2.856503542487483366E-17, 0.0000000000000000000, 0.2332512153280678346 ) ) ;
#132 = DIRECTION ( 'NONE',  ( -1.224646799147353207E-16, -0.0000000000000000000, -1.000000000000000000 ) ) ;
#133 = DIMENSIONAL_EXPONENTS ( 1.000000000000000000, 0.0000000000000000000, 0.0000000000000000000, 0.0000000000000000000, 0.0000000000000000000, 0.0000000000000000000, 0.0000000000000000000 ) ;
#134 = DIRECTION ( 'NONE',  ( 0.0000000000000000000, 0.0000000000000000000, 1.000000000000000000 ) ) ;
#135 = ADVANCED_FACE ( 'NONE', ( #273 ), #275, .T. ) ;
#136 = DIRECTION ( 'NONE',  ( -1.000000000000000000, 0.0000000000000000000, 1.224646799147353207E-16 ) ) ;
#137 = EDGE_LOOP ( 'NONE', ( #300, #199, #222, #238 ) ) ;
#138 = DIRECTION ( 'NONE',  ( 1.224646799147353207E-16, 0.0000000000000000000, 1.000000000000000000 ) ) ;
#139 = EDGE_LOOP ( 'NONE', ( #12, #9, #84, #320 ) ) ;
#140 = PRESENTATION_STYLE_ASSIGNMENT (( #237 ) ) ;
#141 = EDGE_CURVE ( 'NONE', #257, #279, #253, .T. ) ;
#142 = EDGE_CURVE ( 'NONE', #323, #313, #272, .T. ) ;
#143 = AXIS2_PLACEMENT_3D ( 'NONE', #287, #218, #170 ) ;
#144 =( NAMED_UNIT ( * ) SI_UNIT ( $, .STERADIAN. ) SOLID_ANGLE_UNIT ( ) );
#145 = EDGE_CURVE ( 'NONE', #188, #236, #5, .T. ) ;
#146 = VERTEX_POINT ( 'NONE', #107 ) ;
#147 = CYLINDRICAL_SURFACE ( 'NONE', #59, 0.05905500000000000332 ) ;
#148 = CYLINDRICAL_SURFACE ( 'NONE', #143, 0.05905500000000000332 ) ;
#149 = LINE ( 'NONE', #246, #173 ) ;
#150 =( GEOMETRIC_REPRESENTATION_CONTEXT ( 3 ) GLOBAL_UNCERTAINTY_ASSIGNED_CONTEXT ( ( #160 ) ) GLOBAL_UNIT_ASSIGNED_CONTEXT ( ( #276, #194, #128 ) ) REPRESENTATION_CONTEXT ( 'NONE', 'WORKASPACE' ) );
#151 = EDGE_CURVE ( 'NONE', #313, #323, #96, .T. ) ;
#152 = ORIENTED_EDGE ( 'NONE', *, *, #251, .F. ) ;
#153 = CARTESIAN_POINT ( 'NONE',  ( 4.575782363105141468E-18, 0.0000000000000000000, 0.03736409849999999810 ) ) ;
#154 = FACE_OUTER_BOUND ( 'NONE', #217, .T. ) ;
#155 = VECTOR ( 'NONE', #271, 39.37007874015748143 ) ;
#156 = CIRCLE ( 'NONE', #289, 0.05905500000000000332 ) ;
#157 = CARTESIAN_POINT ( 'NONE',  ( -0.03736409849999999117, 4.575782363105143009E-18, 0.1102360000000000007 ) ) ;
#158 = AXIS2_PLACEMENT_3D ( 'NONE', #233, #132, #136 ) ;
#159 = DIRECTION ( 'NONE',  ( -1.224646799147353207E-16, -0.0000000000000000000, -1.000000000000000000 ) ) ;
#160 = UNCERTAINTY_MEASURE_WITH_UNIT (LENGTH_MEASURE( 1.000000000000000082E-05 ), #276, 'distance_accuracy_value', 'NONE');
#161 = DIRECTION ( 'NONE',  ( 1.000000000000000000, 0.0000000000000000000, 0.0000000000000000000 ) ) ;
#162 = EDGE_LOOP ( 'NONE', ( #78, #64, #72, #171 ) ) ;
#163 = AXIS2_PLACEMENT_3D ( 'NONE', #131, #229, #1 ) ;
#164 = DIRECTION ( 'NONE',  ( -0.7071067811865482389, 0.0000000000000000000, -0.7071067811865469066 ) ) ;
#165 = CARTESIAN_POINT ( 'NONE',  ( 4.575782363105141468E-18, 0.0000000000000000000, 0.03736409849999999810 ) ) ;
#166 = CARTESIAN_POINT ( 'NONE',  ( 0.0000000000000000000, 0.0000000000000000000, 1.481062999999999574 ) ) ;
#167 = MECHANICAL_DESIGN_GEOMETRIC_PRESENTATION_REPRESENTATION (  '', ( #226 ), #150 ) ;
#168 = AXIS2_PLACEMENT_3D ( 'NONE', #224, #312, #319 ) ;
#169 = EDGE_LOOP ( 'NONE', ( #228, #311, #18, #47 ) ) ;
#170 = DIRECTION ( 'NONE',  ( -1.000000000000000000, 0.0000000000000000000, 0.0000000000000000000 ) ) ;
#171 = ORIENTED_EDGE ( 'NONE', *, *, #186, .F. ) ;
#172 = DIRECTION ( 'NONE',  ( -0.0000000000000000000, -0.0000000000000000000, -1.000000000000000000 ) ) ;
#173 = VECTOR ( 'NONE', #164, 39.37007874015748143 ) ;
#174 =( GEOMETRIC_REPRESENTATION_CONTEXT ( 3 ) GLOBAL_UNCERTAINTY_ASSIGNED_CONTEXT ( ( #189 ) ) GLOBAL_UNIT_ASSIGNED_CONTEXT ( ( #283, #245, #221 ) ) REPRESENTATION_CONTEXT ( 'NONE', 'WORKASPACE' ) );
#175 = ORIENTED_EDGE ( 'NONE', *, *, #244, .F. ) ;
#176 = ORIENTED_EDGE ( 'NONE', *, *, #69, .T. ) ;
#177 = FACE_OUTER_BOUND ( 'NONE', #139, .T. ) ;
#178 = CONICAL_SURFACE ( 'NONE', #230, 0.03736409850000000504, 0.1745329251994338915 ) ;
#179 = DIRECTION ( 'NONE',  ( -1.000000000000000000, 1.224646799147353207E-16, 0.0000000000000000000 ) ) ;
#180 = ORIENTED_EDGE ( 'NONE', *, *, #91, .F. ) ;
#181 = DIRECTION ( 'NONE',  ( 0.0000000000000000000, 0.0000000000000000000, -1.000000000000000000 ) ) ;
#182 = CARTESIAN_POINT ( 'NONE',  ( 0.03736409850000001198, 0.0000000000000000000, 0.1102360000000000007 ) ) ;
#183 = COLOUR_RGB ( '',0.7921568627450980005, 0.8196078431372548767, 0.9333333333333333481 ) ;
#184 = ORIENTED_EDGE ( 'NONE', *, *, #145, .T. ) ;
#185 = CARTESIAN_POINT ( 'NONE',  ( 0.03736409850000001198, 0.0000000000000000000, 0.1102360000000000007 ) ) ;
#186 = EDGE_CURVE ( 'NONE', #146, #323, #58, .T. ) ;
#187 = CARTESIAN_POINT ( 'NONE',  ( 4.575782363105141468E-18, 0.0000000000000000000, 0.03736409849999999810 ) ) ;
#188 = VERTEX_POINT ( 'NONE', #185 ) ;
#189 = UNCERTAINTY_MEASURE_WITH_UNIT (LENGTH_MEASURE( 1.000000000000000082E-05 ), #283, 'distance_accuracy_value', 'NONE');
#190 = ORIENTED_EDGE ( 'NONE', *, *, #265, .T. ) ;
#191 = VECTOR ( 'NONE', #34, 39.37007874015748143 ) ;
#192 = ORIENTED_EDGE ( 'NONE', *, *, #261, .F. ) ;
#193 = EDGE_CURVE ( 'NONE', #318, #236, #82, .T. ) ;
#194 =( NAMED_UNIT ( * ) PLANE_ANGLE_UNIT ( ) SI_UNIT ( $, .RADIAN. ) );
#195 = FACE_OUTER_BOUND ( 'NONE', #169, .T. ) ;
#196 = DIRECTION ( 'NONE',  ( 0.0000000000000000000, 0.0000000000000000000, 1.000000000000000000 ) ) ;
#197 = SPHERICAL_SURFACE ( 'NONE', #214, 0.03736409849999999810 ) ;
#198 = VECTOR ( 'NONE', #254, 39.37007874015747433 ) ;
#199 = ORIENTED_EDGE ( 'NONE', *, *, #308, .T. ) ;
#200 = APPLICATION_PROTOCOL_DEFINITION ( 'draft international standard', 'automotive_design', 1998, #102 ) ;
#201 = DIRECTION ( 'NONE',  ( 1.224646799147353207E-16, 1.000000000000000000, -0.0000000000000000000 ) ) ;
#202 = DIRECTION ( 'NONE',  ( -0.0000000000000000000, -0.0000000000000000000, -1.000000000000000000 ) ) ;
#203 = PRODUCT_CONTEXT ( 'NONE', #37, 'mechanical' ) ;
#204 = EDGE_CURVE ( 'NONE', #146, #30, #111, .T. ) ;
#205 = FACE_OUTER_BOUND ( 'NONE', #23, .T. ) ;
#206 = DIRECTION ( 'NONE',  ( -1.224646799147353207E-16, -0.0000000000000000000, -1.000000000000000000 ) ) ;
#207 = CARTESIAN_POINT ( 'NONE',  ( 6.863673544657712203E-18, 0.0000000000000000000, 0.0000000000000000000 ) ) ;
#208 = DIMENSIONAL_EXPONENTS ( 1.000000000000000000, 0.0000000000000000000, 0.0000000000000000000, 0.0000000000000000000, 0.0000000000000000000, 0.0000000000000000000, 0.0000000000000000000 ) ;
#209 = DIRECTION ( 'NONE',  ( 1.000000000000000000, 0.0000000000000000000, 0.0000000000000000000 ) ) ;
#210 = PRODUCT_DEFINITION_SHAPE ( 'NONE', 'NONE',  #33 ) ;
#211 = ADVANCED_FACE ( 'NONE', ( #205 ), #178, .T. ) ;
#212 = CONICAL_SURFACE ( 'NONE', #122, 0.04405499999999973326, 0.7853981633974491672 ) ;
#213 = CIRCLE ( 'NONE', #52, 0.03736409849999999810 ) ;
#214 = AXIS2_PLACEMENT_3D ( 'NONE', #278, #94, #14 ) ;
#215 = DIRECTION ( 'NONE',  ( 0.7071067811865482389, 8.659560562354941486E-17, -0.7071067811865469066 ) ) ;
#216 =( LENGTH_UNIT ( ) NAMED_UNIT ( * ) SI_UNIT ( $, .METRE. ) );
#217 = EDGE_LOOP ( 'NONE', ( #176, #56, #175, #180 ) ) ;
#218 = DIRECTION ( 'NONE',  ( -0.0000000000000000000, -0.0000000000000000000, -1.000000000000000000 ) ) ;
#219 = SURFACE_STYLE_FILL_AREA ( #120 ) ;
#220 = PLANE ( 'NONE',  #4 ) ;
#221 =( NAMED_UNIT ( * ) SI_UNIT ( $, .STERADIAN. ) SOLID_ANGLE_UNIT ( ) );
#222 = ORIENTED_EDGE ( 'NONE', *, *, #69, .F. ) ;
#223 = CIRCLE ( 'NONE', #121, 0.05905500000000000332 ) ;
#224 = CARTESIAN_POINT ( 'NONE',  ( 0.0000000000000000000, 0.0000000000000000000, 1.496062999999999921 ) ) ;
#225 = CARTESIAN_POINT ( 'NONE',  ( 0.04405499999999973326, 5.395181473643630390E-18, 1.496062999999999921 ) ) ;
#226 = STYLED_ITEM ( 'NONE', ( #140 ), #85 ) ;
#227 = CIRCLE ( 'NONE', #163, 0.05905500000000000332 ) ;
#228 = ORIENTED_EDGE ( 'NONE', *, *, #79, .F. ) ;
#229 = DIRECTION ( 'NONE',  ( -1.224646799147353207E-16, -0.0000000000000000000, -1.000000000000000000 ) ) ;
#230 = AXIS2_PLACEMENT_3D ( 'NONE', #32, #297, #115 ) ;
#231 = DIRECTION ( 'NONE',  ( -1.000000000000000000, 0.0000000000000000000, 1.142410137394432400E-16 ) ) ;
#232 = DIRECTION ( 'NONE',  ( -1.000000000000000000, 0.0000000000000000000, 1.142410137394432400E-16 ) ) ;
#233 = CARTESIAN_POINT ( 'NONE',  ( 0.0000000000000000000, 0.0000000000000000000, 0.0000000000000000000 ) ) ;
#234 = AXIS2_PLACEMENT_3D ( 'NONE', #54, #250, #24 ) ;
#235 = CARTESIAN_POINT ( 'NONE',  ( -0.05905500000000000332, 0.0000000000000000000, 1.481062999999999574 ) ) ;
#236 = VERTEX_POINT ( 'NONE', #89 ) ;
#237 = SURFACE_STYLE_USAGE ( .BOTH. , #35 ) ;
#238 = ORIENTED_EDGE ( 'NONE', *, *, #65, .F. ) ;
#239 = LENGTH_MEASURE_WITH_UNIT ( LENGTH_MEASURE( 0.02539999999999999897 ), #216 );
#240 = DIRECTION ( 'NONE',  ( -1.224646799147353207E-16, -0.0000000000000000000, -1.000000000000000000 ) ) ;
#241 = EDGE_LOOP ( 'NONE', ( #38, #114, #280, #282 ) ) ;
#242 = CARTESIAN_POINT ( 'NONE',  ( 0.0000000000000000000, 0.0000000000000000000, 1.496062999999999921 ) ) ;
#243 = ORIENTED_EDGE ( 'NONE', *, *, #274, .F. ) ;
#244 = EDGE_CURVE ( 'NONE', #30, #236, #156, .T. ) ;
#245 =( NAMED_UNIT ( * ) PLANE_ANGLE_UNIT ( ) SI_UNIT ( $, .RADIAN. ) );
#246 = CARTESIAN_POINT ( 'NONE',  ( -0.04405499999999973326, 0.0000000000000000000, 1.496062999999999921 ) ) ;
#247 = AXIS2_PLACEMENT_3D ( 'NONE', #303, #159, #255 ) ;
#248 = PRESENTATION_STYLE_ASSIGNMENT (( #46 ) ) ;
#249 = DIRECTION ( 'NONE',  ( -1.224646799147353207E-16, -0.0000000000000000000, -1.000000000000000000 ) ) ;
#250 = DIRECTION ( 'NONE',  ( 0.0000000000000000000, -1.000000000000000000, 0.0000000000000000000 ) ) ;
#251 = EDGE_CURVE ( 'NONE', #188, #146, #294, .T. ) ;
#252 = CARTESIAN_POINT ( 'NONE',  ( 0.05905500000000000332, 7.232151672364695422E-18, 1.496062999999999921 ) ) ;
#253 = CIRCLE ( 'NONE', #106, 0.04405499999999973326 ) ;
#254 = DIRECTION ( 'NONE',  ( -0.1736481776669311916, 2.126576849575783316E-17, 0.9848077530122080203 ) ) ;
#255 = DIRECTION ( 'NONE',  ( -1.000000000000000000, 0.0000000000000000000, 0.0000000000000000000 ) ) ;
#256 = DIRECTION ( 'NONE',  ( 0.0000000000000000000, 0.0000000000000000000, -1.000000000000000000 ) ) ;
#257 = VERTEX_POINT ( 'NONE', #6 ) ;
#258 = ORIENTED_EDGE ( 'NONE', *, *, #141, .T. ) ;
#259 = ADVANCED_FACE ( 'NONE', ( #61 ), #269, .T. ) ;
#260 = CARTESIAN_POINT ( 'NONE',  ( 1.350001645508076191E-17, 0.0000000000000000000, 0.1102360000000000007 ) ) ;
#261 = EDGE_CURVE ( 'NONE', #123, #323, #213, .T. ) ;
#262 = SURFACE_STYLE_FILL_AREA ( #317 ) ;
#263 = FACE_OUTER_BOUND ( 'NONE', #36, .T. ) ;
#264 = CIRCLE ( 'NONE', #234, 0.03736409849999999810 ) ;
#265 = EDGE_CURVE ( 'NONE', #123, #313, #264, .T. ) ;
#266 = DIRECTION ( 'NONE',  ( 1.000000000000000000, 0.0000000000000000000, -0.0000000000000000000 ) ) ;
#267 = LENGTH_MEASURE_WITH_UNIT ( LENGTH_MEASURE( 0.02539999999999999897 ), #315 );
#268 = SHAPE_DEFINITION_REPRESENTATION ( #210, #31 ) ;
#269 = CYLINDRICAL_SURFACE ( 'NONE', #310, 0.03736409850000000504 ) ;
#270 = DIRECTION ( 'NONE',  ( -1.000000000000000000, 0.0000000000000000000, 0.0000000000000000000 ) ) ;
#271 = DIRECTION ( 'NONE',  ( 0.1736481776669313859, 0.0000000000000000000, 0.9848077530122077983 ) ) ;
#272 = CIRCLE ( 'NONE', #2, 0.03736409850000000504 ) ;
#273 = FACE_OUTER_BOUND ( 'NONE', #241, .T. ) ;
#274 = EDGE_CURVE ( 'NONE', #236, #30, #227, .T. ) ;
#275 = CYLINDRICAL_SURFACE ( 'NONE', #158, 0.03736409850000000504 ) ;
#276 =( CONVERSION_BASED_UNIT ( 'INCH', #239 ) LENGTH_UNIT ( ) NAMED_UNIT ( #296 ) );
#277 =( GEOMETRIC_REPRESENTATION_CONTEXT ( 3 ) GLOBAL_UNCERTAINTY_ASSIGNED_CONTEXT ( ( #112 ) ) GLOBAL_UNIT_ASSIGNED_CONTEXT ( ( #285, #70, #144 ) ) REPRESENTATION_CONTEXT ( 'NONE', 'WORKASPACE' ) );
#278 = CARTESIAN_POINT ( 'NONE',  ( 4.575782363105141468E-18, 0.0000000000000000000, 0.03736409849999999810 ) ) ;
#279 = VERTEX_POINT ( 'NONE', #110 ) ;
#280 = ORIENTED_EDGE ( 'NONE', *, *, #186, .T. ) ;
#281 = ADVANCED_FACE ( 'NONE', ( #295 ), #11, .T. ) ;
#282 = ORIENTED_EDGE ( 'NONE', *, *, #142, .T. ) ;
#283 =( CONVERSION_BASED_UNIT ( 'INCH', #126 ) LENGTH_UNIT ( ) NAMED_UNIT ( #133 ) );
#284 = COLOUR_RGB ( '',0.7921568627450980005, 0.8196078431372548767, 0.9333333333333333481 ) ;
#285 =( CONVERSION_BASED_UNIT ( 'INCH', #267 ) LENGTH_UNIT ( ) NAMED_UNIT ( #208 ) );
#286 = CARTESIAN_POINT ( 'NONE',  ( -0.05905499999999998251, 0.0000000000000000000, 0.2332512153280678346 ) ) ;
#287 = CARTESIAN_POINT ( 'NONE',  ( 0.0000000000000000000, 0.0000000000000000000, 1.496062999999999921 ) ) ;
#288 = DIRECTION ( 'NONE',  ( -1.000000000000000000, 0.0000000000000000000, 0.0000000000000000000 ) ) ;
#289 = AXIS2_PLACEMENT_3D ( 'NONE', #87, #206, #60 ) ;
#290 = PRESENTATION_LAYER_ASSIGNMENT (  '', '', ( #226 ) ) ;
#291 = ORIENTED_EDGE ( 'NONE', *, *, #204, .F. ) ;
#292 = ADVANCED_FACE ( 'NONE', ( #154 ), #147, .T. ) ;
#293 = CARTESIAN_POINT ( 'NONE',  ( 4.575782363105141468E-18, 0.0000000000000000000, 0.03736409849999999810 ) ) ;
#294 = CIRCLE ( 'NONE', #247, 0.03736409850000000504 ) ;
#295 = FACE_OUTER_BOUND ( 'NONE', #137, .T. ) ;
#296 = DIMENSIONAL_EXPONENTS ( 1.000000000000000000, 0.0000000000000000000, 0.0000000000000000000, 0.0000000000000000000, 0.0000000000000000000, 0.0000000000000000000, 0.0000000000000000000 ) ;
#297 = DIRECTION ( 'NONE',  ( 1.224646799147353207E-16, 0.0000000000000000000, 1.000000000000000000 ) ) ;
#298 = ORIENTED_EDGE ( 'NONE', *, *, #193, .F. ) ;
#299 = DIRECTION ( 'NONE',  ( -1.224646799147353207E-16, -0.0000000000000000000, -1.000000000000000000 ) ) ;
#300 = ORIENTED_EDGE ( 'NONE', *, *, #141, .F. ) ;
#301 = VECTOR ( 'NONE', #240, 39.37007874015748143 ) ;
#302 = PRESENTATION_LAYER_ASSIGNMENT (  '', '', ( #39 ) ) ;
#303 = CARTESIAN_POINT ( 'NONE',  ( 1.350001645508076191E-17, 0.0000000000000000000, 0.1102360000000000007 ) ) ;
#304 = PRODUCT_RELATED_PRODUCT_CATEGORY ( 'part', '', ( #67 ) ) ;
#305 = ADVANCED_FACE ( 'NONE', ( #195 ), #71, .T. ) ;
#306 = DIRECTION ( 'NONE',  ( 0.0000000000000000000, 0.0000000000000000000, -1.000000000000000000 ) ) ;
#307 = AXIS2_PLACEMENT_3D ( 'NONE', #293, #93, #232 ) ;
#308 = EDGE_CURVE ( 'NONE', #257, #318, #103, .T. ) ;
#309 = FILL_AREA_STYLE_COLOUR ( '', #284 ) ;
#310 = AXIS2_PLACEMENT_3D ( 'NONE', #29, #7, #325 ) ;
#311 = ORIENTED_EDGE ( 'NONE', *, *, #204, .T. ) ;
#312 = DIRECTION ( 'NONE',  ( 0.0000000000000000000, 0.0000000000000000000, 1.000000000000000000 ) ) ;
#313 = VERTEX_POINT ( 'NONE', #8 ) ;
#314 = EDGE_CURVE ( 'NONE', #279, #257, #129, .T. ) ;
#315 =( LENGTH_UNIT ( ) NAMED_UNIT ( * ) SI_UNIT ( $, .METRE. ) );
#316 = CARTESIAN_POINT ( 'NONE',  ( 0.0000000000000000000, 0.0000000000000000000, 1.496062999999999921 ) ) ;
#317 = FILL_AREA_STYLE ('',( #19 ) ) ;
#318 = VERTEX_POINT ( 'NONE', #73 ) ;
#319 = DIRECTION ( 'NONE',  ( 1.000000000000000000, 0.0000000000000000000, 0.0000000000000000000 ) ) ;
#320 = ORIENTED_EDGE ( 'NONE', *, *, #15, .F. ) ;
#321 = ADVANCED_FACE ( 'NONE', ( #124 ), #148, .T. ) ;
#322 = ORIENTED_EDGE ( 'NONE', *, *, #142, .F. ) ;
#323 = VERTEX_POINT ( 'NONE', #98 ) ;
#324 = PRODUCT_DEFINITION_CONTEXT ( 'detailed design', #102, 'design' ) ;
#325 = DIRECTION ( 'NONE',  ( -1.000000000000000000, 0.0000000000000000000, 1.224646799147353207E-16 ) ) ;
ENDSEC;
END-ISO-10303-21;
