ISO-10303-21;
HEADER;
FILE_DESCRIPTION (( 'STEP AP214' ),
    '1' );
FILE_NAME ('82458.STEP',
    '2023-06-30T22:40:31',
    ( '' ),
    ( '' ),
    'SwSTEP 2.0',
    'SolidWorks 2023',
    '' );
FILE_SCHEMA (( 'AUTOMOTIVE_DESIGN' ));
ENDSEC;

DATA;
#1 = CIRCLE ( 'NONE', #330, 0.1249999999999999584 ) ;
#2 = AXIS2_PLACEMENT_3D ( 'NONE', #171, #76, #144 ) ;
#3 = ORIENTED_EDGE ( 'NONE', *, *, #352, .F. ) ;
#4 = FILL_AREA_STYLE_COLOUR ( '', #167 ) ;
#5 = APPLICATION_CONTEXT ( 'automotive_design' ) ;
#6 = ORIENTED_EDGE ( 'NONE', *, *, #72, .T. ) ;
#7 = ORIENTED_EDGE ( 'NONE', *, *, #15, .T. ) ;
#8 =( LENGTH_UNIT ( ) NAMED_UNIT ( * ) SI_UNIT ( $, .METRE. ) );
#9 = PRESENTATION_LAYER_ASSIGNMENT (  '', '', ( #282 ) ) ;
#10 = AXIS2_PLACEMENT_3D ( 'NONE', #101, #14, #42 ) ;
#11 = ORIENTED_EDGE ( 'NONE', *, *, #190, .F. ) ;
#12 = DIRECTION ( 'NONE',  ( -0.000000000000000000, -1.000000000000000000, -0.000000000000000000 ) ) ;
#13 = DIMENSIONAL_EXPONENTS ( 1.000000000000000000, 0.000000000000000000, 0.000000000000000000, 0.000000000000000000, 0.000000000000000000, 0.000000000000000000, 0.000000000000000000 ) ;
#14 = DIRECTION ( 'NONE',  ( -1.644635498670202785E-16, 1.000000000000000000, -0.000000000000000000 ) ) ;
#15 = EDGE_CURVE ( 'NONE', #310, #258, #1, .T. ) ;
#16 = FACE_OUTER_BOUND ( 'NONE', #174, .T. ) ;
#17 = FILL_AREA_STYLE_COLOUR ( '', #217 ) ;
#18 = DIRECTION ( 'NONE',  ( -1.000000000000000000, 0.000000000000000000, 0.000000000000000000 ) ) ;
#19 = DIRECTION ( 'NONE',  ( -1.000000000000000000, 0.000000000000000000, 0.000000000000000000 ) ) ;
#20 = CARTESIAN_POINT ( 'NONE',  ( 1.854629848431627327E-16, 1.500000000000000222, 0.000000000000000000 ) ) ;
#21 = AXIS2_PLACEMENT_3D ( 'NONE', #234, #99, #363 ) ;
#22 = CARTESIAN_POINT ( 'NONE',  ( -0.1249999999999998057, 3.000000000000000444, 0.000000000000000000 ) ) ;
#23 = SURFACE_SIDE_STYLE ('',( #270 ) ) ;
#24 = EDGE_CURVE ( 'NONE', #178, #230, #98, .T. ) ;
#25 = CARTESIAN_POINT ( 'NONE',  ( -6.123233995736772199E-17, 3.000000000000000444, 0.000000000000000000 ) ) ;
#26 = PRESENTATION_LAYER_ASSIGNMENT (  '', '', ( #220 ) ) ;
#27 = EDGE_CURVE ( 'NONE', #122, #156, #267, .T. ) ;
#28 = ORIENTED_EDGE ( 'NONE', *, *, #50, .F. ) ;
#29 = UNCERTAINTY_MEASURE_WITH_UNIT (LENGTH_MEASURE( 1.000000000000000082E-05 ), #173, 'distance_accuracy_value', 'NONE');
#30 = STYLED_ITEM ( 'NONE', ( #323 ), #111 ) ;
#31 =( GEOMETRIC_REPRESENTATION_CONTEXT ( 3 ) GLOBAL_UNCERTAINTY_ASSIGNED_CONTEXT ( ( #29 ) ) GLOBAL_UNIT_ASSIGNED_CONTEXT ( ( #173, #200, #92 ) ) REPRESENTATION_CONTEXT ( 'NONE', 'WORKASPACE' ) );
#32 = VERTEX_POINT ( 'NONE', #361 ) ;
#33 = EDGE_LOOP ( 'NONE', ( #7, #6, #152, #354 ) ) ;
#34 = FACE_OUTER_BOUND ( 'NONE', #201, .T. ) ;
#35 = EDGE_LOOP ( 'NONE', ( #228, #176 ) ) ;
#36 = CIRCLE ( 'NONE', #10, 0.1249999999999998612 ) ;
#37 = CIRCLE ( 'NONE', #256, 0.1249999999999999584 ) ;
#38 = ORIENTED_EDGE ( 'NONE', *, *, #187, .F. ) ;
#39 = SURFACE_STYLE_FILL_AREA ( #188 ) ;
#40 = PRODUCT_RELATED_PRODUCT_CATEGORY ( 'part', '', ( #106 ) ) ;
#41 =( CONVERSION_BASED_UNIT ( 'INCH', #166 ) LENGTH_UNIT ( ) NAMED_UNIT ( #161 ) );
#42 = DIRECTION ( 'NONE',  ( -1.000000000000000000, 0.000000000000000000, 0.000000000000000000 ) ) ;
#43 = AXIS2_PLACEMENT_3D ( 'NONE', #322, #288, #203 ) ;
#44 = CARTESIAN_POINT ( 'NONE',  ( -1.530808498934191509E-17, 0.1250000000000000000, 0.000000000000000000 ) ) ;
#45 =( NAMED_UNIT ( * ) SI_UNIT ( $, .STERADIAN. ) SOLID_ANGLE_UNIT ( ) );
#46 =( CONVERSION_BASED_UNIT ( 'INCH', #295 ) LENGTH_UNIT ( ) NAMED_UNIT ( #13 ) );
#47 = CARTESIAN_POINT ( 'NONE',  ( 0.000000000000000000, 0.1250000000000000278, 0.000000000000000000 ) ) ;
#48 = PRESENTATION_LAYER_ASSIGNMENT (  '', '', ( #202 ) ) ;
#49 = DIRECTION ( 'NONE',  ( -1.644635498670202785E-16, 1.000000000000000000, 0.000000000000000000 ) ) ;
#50 = EDGE_CURVE ( 'NONE', #286, #32, #36, .T. ) ;
#51 = DIRECTION ( 'NONE',  ( 0.000000000000000000, -0.000000000000000000, 1.000000000000000000 ) ) ;
#52 = LENGTH_MEASURE_WITH_UNIT ( LENGTH_MEASURE( 0.02539999999999999897 ), #115 );
#53 = COLOUR_RGB ( '',1.000000000000000000, 0.000000000000000000, 0.000000000000000000 ) ;
#54 = CARTESIAN_POINT ( 'NONE',  ( 1.854629848431627327E-16, 1.500000000000000222, 0.000000000000000000 ) ) ;
#55 = ORIENTED_EDGE ( 'NONE', *, *, #241, .F. ) ;
#56 = UNCERTAINTY_MEASURE_WITH_UNIT (LENGTH_MEASURE( 1.000000000000000082E-05 ), #60, 'distance_accuracy_value', 'NONE');
#57 = AXIS2_PLACEMENT_3D ( 'NONE', #345, #312, #86 ) ;
#58 = SURFACE_STYLE_FILL_AREA ( #183 ) ;
#59 = ORIENTED_EDGE ( 'NONE', *, *, #221, .T. ) ;
#60 =( CONVERSION_BASED_UNIT ( 'INCH', #126 ) LENGTH_UNIT ( ) NAMED_UNIT ( #289 ) );
#61 = ORIENTED_EDGE ( 'NONE', *, *, #165, .F. ) ;
#62 = ORIENTED_EDGE ( 'NONE', *, *, #50, .T. ) ;
#63 = APPLICATION_PROTOCOL_DEFINITION ( 'draft international standard', 'automotive_design', 1998, #304 ) ;
#64 = DIMENSIONAL_EXPONENTS ( 1.000000000000000000, 0.000000000000000000, 0.000000000000000000, 0.000000000000000000, 0.000000000000000000, 0.000000000000000000, 0.000000000000000000 ) ;
#65 = CARTESIAN_POINT ( 'NONE',  ( 0.000000000000000000, 0.000000000000000000, 0.000000000000000000 ) ) ;
#66 = FILL_AREA_STYLE ('',( #326 ) ) ;
#67 = DIRECTION ( 'NONE',  ( 1.224646799147353207E-16, -0.000000000000000000, 1.000000000000000000 ) ) ;
#68 = LENGTH_MEASURE_WITH_UNIT ( LENGTH_MEASURE( 0.02539999999999999897 ), #74 );
#69 = FILL_AREA_STYLE_COLOUR ( '', #154 ) ;
#70 = DIRECTION ( 'NONE',  ( 0.000000000000000000, 0.000000000000000000, -1.000000000000000000 ) ) ;
#71 = VECTOR ( 'NONE', #325, 39.37007874015748143 ) ;
#72 = EDGE_CURVE ( 'NONE', #258, #119, #148, .T. ) ;
#73 = FILL_AREA_STYLE ('',( #69 ) ) ;
#74 =( LENGTH_UNIT ( ) NAMED_UNIT ( * ) SI_UNIT ( $, .METRE. ) );
#75 = SURFACE_STYLE_FILL_AREA ( #362 ) ;
#76 = DIRECTION ( 'NONE',  ( -0.000000000000000000, -1.000000000000000000, -0.000000000000000000 ) ) ;
#77 = MECHANICAL_DESIGN_GEOMETRIC_PRESENTATION_REPRESENTATION (  '', ( #30 ), #348 ) ;
#78 = VECTOR ( 'NONE', #90, 39.37007874015748143 ) ;
#79 = PRESENTATION_STYLE_ASSIGNMENT (( #303 ) ) ;
#80 = DIRECTION ( 'NONE',  ( 0.000000000000000000, 1.000000000000000000, 0.000000000000000000 ) ) ;
#81 =( GEOMETRIC_REPRESENTATION_CONTEXT ( 3 ) GLOBAL_UNCERTAINTY_ASSIGNED_CONTEXT ( ( #199 ) ) GLOBAL_UNIT_ASSIGNED_CONTEXT ( ( #82, #274, #182 ) ) REPRESENTATION_CONTEXT ( 'NONE', 'WORKASPACE' ) );
#82 =( CONVERSION_BASED_UNIT ( 'INCH', #52 ) LENGTH_UNIT ( ) NAMED_UNIT ( #64 ) );
#83 = PRESENTATION_LAYER_ASSIGNMENT (  '', '', ( #149 ) ) ;
#84 = FACE_OUTER_BOUND ( 'NONE', #35, .T. ) ;
#85 = ORIENTED_EDGE ( 'NONE', *, *, #136, .F. ) ;
#86 = DIRECTION ( 'NONE',  ( -1.000000000000000000, 0.000000000000000000, 0.000000000000000000 ) ) ;
#87 = DIMENSIONAL_EXPONENTS ( 1.000000000000000000, 0.000000000000000000, 0.000000000000000000, 0.000000000000000000, 0.000000000000000000, 0.000000000000000000, 0.000000000000000000 ) ;
#88 = EDGE_LOOP ( 'NONE', ( #62, #172 ) ) ;
#89 =( GEOMETRIC_REPRESENTATION_CONTEXT ( 3 ) GLOBAL_UNCERTAINTY_ASSIGNED_CONTEXT ( ( #114 ) ) GLOBAL_UNIT_ASSIGNED_CONTEXT ( ( #46, #216, #264 ) ) REPRESENTATION_CONTEXT ( 'NONE', 'WORKASPACE' ) );
#90 = DIRECTION ( 'NONE',  ( -0.000000000000000000, -1.000000000000000000, -0.000000000000000000 ) ) ;
#91 = ORIENTED_EDGE ( 'NONE', *, *, #179, .T. ) ;
#92 =( NAMED_UNIT ( * ) SI_UNIT ( $, .STERADIAN. ) SOLID_ANGLE_UNIT ( ) );
#93 = ORIENTED_EDGE ( 'NONE', *, *, #281, .T. ) ;
#94 = DIMENSIONAL_EXPONENTS ( 1.000000000000000000, 0.000000000000000000, 0.000000000000000000, 0.000000000000000000, 0.000000000000000000, 0.000000000000000000, 0.000000000000000000 ) ;
#95 = DIRECTION ( 'NONE',  ( -0.000000000000000000, -1.000000000000000000, -0.000000000000000000 ) ) ;
#96 = DIRECTION ( 'NONE',  ( 0.000000000000000000, 0.000000000000000000, 1.000000000000000000 ) ) ;
#97 = LENGTH_MEASURE_WITH_UNIT ( LENGTH_MEASURE( 0.02539999999999999897 ), #8 );
#98 = CIRCLE ( 'NONE', #169, 0.1249999999999996392 ) ;
#99 = DIRECTION ( 'NONE',  ( -0.000000000000000000, -1.000000000000000000, -0.000000000000000000 ) ) ;
#100 = PRESENTATION_STYLE_ASSIGNMENT (( #239 ) ) ;
#101 = CARTESIAN_POINT ( 'NONE',  ( -6.123233995736772199E-17, 3.000000000000000444, 0.000000000000000000 ) ) ;
#102 = CYLINDRICAL_SURFACE ( 'NONE', #162, 0.1249999999999999029 ) ;
#103 = CYLINDRICAL_SURFACE ( 'NONE', #57, 0.1249999999999997363 ) ;
#104 = ADVANCED_FACE ( 'NONE', ( #164 ), #131, .T. ) ;
#105 = SURFACE_SIDE_STYLE ('',( #75 ) ) ;
#106 = PRODUCT ( '82458', '82458', '', ( #290 ) ) ;
#107 = DIRECTION ( 'NONE',  ( -0.000000000000000000, -1.000000000000000000, -0.000000000000000000 ) ) ;
#108 = MECHANICAL_DESIGN_GEOMETRIC_PRESENTATION_REPRESENTATION (  '', ( #181 ), #192 ) ;
#109 = AXIS2_PLACEMENT_3D ( 'NONE', #246, #49, #195 ) ;
#110 = ADVANCED_FACE ( 'NONE', ( #186 ), #260, .T. ) ;
#111 = MANIFOLD_SOLID_BREP ( 'Revolve - Cutting Edge', #263 ) ;
#112 = SURFACE_SIDE_STYLE ('',( #223 ) ) ;
#113 =( GEOMETRIC_REPRESENTATION_CONTEXT ( 3 ) GLOBAL_UNCERTAINTY_ASSIGNED_CONTEXT ( ( #251 ) ) GLOBAL_UNIT_ASSIGNED_CONTEXT ( ( #41, #159, #261 ) ) REPRESENTATION_CONTEXT ( 'NONE', 'WORKASPACE' ) );
#114 = UNCERTAINTY_MEASURE_WITH_UNIT (LENGTH_MEASURE( 1.000000000000000082E-05 ), #46, 'distance_accuracy_value', 'NONE');
#115 =( LENGTH_UNIT ( ) NAMED_UNIT ( * ) SI_UNIT ( $, .METRE. ) );
#116 = CARTESIAN_POINT ( 'NONE',  ( 0.000000000000000000, 0.1250000000000000278, -0.1249999999999999584 ) ) ;
#117 =( NAMED_UNIT ( * ) PLANE_ANGLE_UNIT ( ) SI_UNIT ( $, .RADIAN. ) );
#118 = AXIS2_PLACEMENT_3D ( 'NONE', #368, #80, #51 ) ;
#119 = VERTEX_POINT ( 'NONE', #123 ) ;
#120 =( NAMED_UNIT ( * ) PLANE_ANGLE_UNIT ( ) SI_UNIT ( $, .RADIAN. ) );
#121 = ADVANCED_FACE ( 'NONE', ( #157 ), #103, .T. ) ;
#122 = VERTEX_POINT ( 'NONE', #350 ) ;
#123 = CARTESIAN_POINT ( 'NONE',  ( -7.654042494670957545E-18, 0.000000000000000000, 0.000000000000000000 ) ) ;
#124 = DIMENSIONAL_EXPONENTS ( 1.000000000000000000, 0.000000000000000000, 0.000000000000000000, 0.000000000000000000, 0.000000000000000000, 0.000000000000000000, 0.000000000000000000 ) ;
#125 = CIRCLE ( 'NONE', #364, 0.1249999999999996392 ) ;
#126 = LENGTH_MEASURE_WITH_UNIT ( LENGTH_MEASURE( 0.02539999999999999897 ), #292 );
#127 = SURFACE_SIDE_STYLE ('',( #58 ) ) ;
#128 = CARTESIAN_POINT ( 'NONE',  ( 0.000000000000000000, 0.1250000000000000278, 0.000000000000000000 ) ) ;
#129 = DIRECTION ( 'NONE',  ( 1.000000000000000000, 0.000000000000000000, 0.000000000000000000 ) ) ;
#130 = DIRECTION ( 'NONE',  ( 0.000000000000000000, 0.000000000000000000, -1.000000000000000000 ) ) ;
#131 = CYLINDRICAL_SURFACE ( 'NONE', #357, 0.1249999999999997363 ) ;
#132 = DIRECTION ( 'NONE',  ( 0.000000000000000000, 0.000000000000000000, -1.000000000000000000 ) ) ;
#133 = CIRCLE ( 'NONE', #314, 0.1250000000000000000 ) ;
#134 = SURFACE_SIDE_STYLE ('',( #39 ) ) ;
#135 = PRODUCT_DEFINITION_FORMATION_WITH_SPECIFIED_SOURCE ( 'ANY', '', #106, .NOT_KNOWN. ) ;
#136 = EDGE_CURVE ( 'NONE', #230, #32, #209, .T. ) ;
#137 = CARTESIAN_POINT ( 'NONE',  ( -6.123233995736772199E-17, 3.000000000000000444, 0.000000000000000000 ) ) ;
#138 = ADVANCED_BREP_SHAPE_REPRESENTATION ( '82458', ( #111, #224, #194 ), #317 ) ;
#139 = DIRECTION ( 'NONE',  ( -1.000000000000000000, 0.000000000000000000, 0.000000000000000000 ) ) ;
#140 = DIRECTION ( 'NONE',  ( 0.000000000000000000, 0.000000000000000000, -1.000000000000000000 ) ) ;
#141 = MECHANICAL_DESIGN_GEOMETRIC_PRESENTATION_REPRESENTATION (  '', ( #149 ), #225 ) ;
#142 = ADVANCED_FACE ( 'NONE', ( #34 ), #155, .T. ) ;
#143 = DIRECTION ( 'NONE',  ( -1.644635498670202785E-16, 1.000000000000000000, -0.000000000000000000 ) ) ;
#144 = DIRECTION ( 'NONE',  ( 0.000000000000000000, 0.000000000000000000, -1.000000000000000000 ) ) ;
#145 = PLANE ( 'NONE',  #249 ) ;
#146 = DIRECTION ( 'NONE',  ( 1.000000000000000000, 1.644635498670202785E-16, 0.000000000000000000 ) ) ;
#147 = ORIENTED_EDGE ( 'NONE', *, *, #27, .T. ) ;
#148 = CIRCLE ( 'NONE', #313, 0.1250000000000000000 ) ;
#149 = STYLED_ITEM ( 'NONE', ( #335 ), #339 ) ;
#150 = DIRECTION ( 'NONE',  ( 0.000000000000000000, 0.000000000000000000, 1.000000000000000000 ) ) ;
#151 = ORIENTED_EDGE ( 'NONE', *, *, #352, .T. ) ;
#152 = ORIENTED_EDGE ( 'NONE', *, *, #221, .F. ) ;
#153 = PRESENTATION_STYLE_ASSIGNMENT (( #353 ) ) ;
#154 = COLOUR_RGB ( '',1.000000000000000000, 0.000000000000000000, 0.000000000000000000 ) ;
#155 = SPHERICAL_SURFACE ( 'NONE', #273, 0.1250000000000000000 ) ;
#156 = VERTEX_POINT ( 'NONE', #253 ) ;
#157 = FACE_OUTER_BOUND ( 'NONE', #349, .T. ) ;
#158 = APPLICATION_PROTOCOL_DEFINITION ( 'draft international standard', 'automotive_design', 1998, #5 ) ;
#159 =( NAMED_UNIT ( * ) PLANE_ANGLE_UNIT ( ) SI_UNIT ( $, .RADIAN. ) );
#160 = PRESENTATION_LAYER_ASSIGNMENT (  '', '', ( #181 ) ) ;
#161 = DIMENSIONAL_EXPONENTS ( 1.000000000000000000, 0.000000000000000000, 0.000000000000000000, 0.000000000000000000, 0.000000000000000000, 0.000000000000000000, 0.000000000000000000 ) ;
#162 = AXIS2_PLACEMENT_3D ( 'NONE', #65, #163, #214 ) ;
#163 = DIRECTION ( 'NONE',  ( -0.000000000000000000, -1.000000000000000000, -0.000000000000000000 ) ) ;
#164 = FACE_OUTER_BOUND ( 'NONE', #254, .T. ) ;
#165 = EDGE_CURVE ( 'NONE', #122, #315, #229, .T. ) ;
#166 = LENGTH_MEASURE_WITH_UNIT ( LENGTH_MEASURE( 0.02539999999999999897 ), #293 );
#167 = COLOUR_RGB ( '',1.000000000000000000, 0.000000000000000000, 0.000000000000000000 ) ;
#168 = FILL_AREA_STYLE_COLOUR ( '', #196 ) ;
#169 = AXIS2_PLACEMENT_3D ( 'NONE', #54, #277, #327 ) ;
#170 = MECHANICAL_DESIGN_GEOMETRIC_PRESENTATION_REPRESENTATION (  '', ( #245 ), #89 ) ;
#171 = CARTESIAN_POINT ( 'NONE',  ( 0.000000000000000000, 0.1250000000000000278, 0.000000000000000000 ) ) ;
#172 = ORIENTED_EDGE ( 'NONE', *, *, #311, .T. ) ;
#173 =( CONVERSION_BASED_UNIT ( 'INCH', #97 ) LENGTH_UNIT ( ) NAMED_UNIT ( #124 ) );
#174 = EDGE_LOOP ( 'NONE', ( #38, #91, #321, #3, #346 ) ) ;
#175 = DIRECTION ( 'NONE',  ( 1.000000000000000000, 0.000000000000000000, 0.000000000000000000 ) ) ;
#176 = ORIENTED_EDGE ( 'NONE', *, *, #244, .F. ) ;
#177 = CARTESIAN_POINT ( 'NONE',  ( 0.000000000000000000, 0.000000000000000000, -0.1249999999999999029 ) ) ;
#178 = VERTEX_POINT ( 'NONE', #257 ) ;
#179 = EDGE_CURVE ( 'NONE', #156, #122, #269, .T. ) ;
#180 = ORIENTED_EDGE ( 'NONE', *, *, #136, .T. ) ;
#181 = STYLED_ITEM ( 'NONE', ( #213 ), #110 ) ;
#182 =( NAMED_UNIT ( * ) SI_UNIT ( $, .STERADIAN. ) SOLID_ANGLE_UNIT ( ) );
#183 = FILL_AREA_STYLE ('',( #4 ) ) ;
#184 = DIRECTION ( 'NONE',  ( 1.000000000000000000, 0.000000000000000000, -1.224646799147353207E-16 ) ) ;
#185 = DIRECTION ( 'NONE',  ( -1.644635498670202785E-16, 1.000000000000000000, -0.000000000000000000 ) ) ;
#186 = FACE_OUTER_BOUND ( 'NONE', #205, .T. ) ;
#187 = EDGE_CURVE ( 'NONE', #156, #310, #232, .T. ) ;
#188 = FILL_AREA_STYLE ('',( #206 ) ) ;
#189 = CIRCLE ( 'NONE', #307, 0.1249999999999998612 ) ;
#190 = EDGE_CURVE ( 'NONE', #198, #310, #336, .T. ) ;
#191 = FACE_OUTER_BOUND ( 'NONE', #88, .T. ) ;
#192 =( GEOMETRIC_REPRESENTATION_CONTEXT ( 3 ) GLOBAL_UNCERTAINTY_ASSIGNED_CONTEXT ( ( #309 ) ) GLOBAL_UNIT_ASSIGNED_CONTEXT ( ( #210, #218, #238 ) ) REPRESENTATION_CONTEXT ( 'NONE', 'WORKASPACE' ) );
#193 = MECHANICAL_DESIGN_GEOMETRIC_PRESENTATION_REPRESENTATION (  '', ( #202 ), #31 ) ;
#194 = AXIS2_PLACEMENT_3D ( 'NONE', #355, #96, #207 ) ;
#195 = DIRECTION ( 'NONE',  ( -1.000000000000000000, -1.644635498670202785E-16, 0.000000000000000000 ) ) ;
#196 = COLOUR_RGB ( '',1.000000000000000000, 0.000000000000000000, 0.000000000000000000 ) ;
#197 = FILL_AREA_STYLE_COLOUR ( '', #358 ) ;
#198 = VERTEX_POINT ( 'NONE', #233 ) ;
#199 = UNCERTAINTY_MEASURE_WITH_UNIT (LENGTH_MEASURE( 1.000000000000000082E-05 ), #82, 'distance_accuracy_value', 'NONE');
#200 =( NAMED_UNIT ( * ) PLANE_ANGLE_UNIT ( ) SI_UNIT ( $, .RADIAN. ) );
#201 = EDGE_LOOP ( 'NONE', ( #351, #151, #255, #59 ) ) ;
#202 = STYLED_ITEM ( 'NONE', ( #153 ), #142 ) ;
#203 = DIRECTION ( 'NONE',  ( 0.000000000000000000, 0.000000000000000000, -1.000000000000000000 ) ) ;
#204 = ORIENTED_EDGE ( 'NONE', *, *, #187, .T. ) ;
#205 = EDGE_LOOP ( 'NONE', ( #147, #204, #11, #55, #61 ) ) ;
#206 = FILL_AREA_STYLE_COLOUR ( '', #53 ) ;
#207 = DIRECTION ( 'NONE',  ( 1.000000000000000000, 0.000000000000000000, 0.000000000000000000 ) ) ;
#208 = MECHANICAL_DESIGN_GEOMETRIC_PRESENTATION_REPRESENTATION (  '', ( #220 ), #113 ) ;
#209 = LINE ( 'NONE', #347, #71 ) ;
#210 =( CONVERSION_BASED_UNIT ( 'INCH', #294 ) LENGTH_UNIT ( ) NAMED_UNIT ( #87 ) );
#211 =( CONVERSION_BASED_UNIT ( 'INCH', #68 ) LENGTH_UNIT ( ) NAMED_UNIT ( #360 ) );
#212 = CARTESIAN_POINT ( 'NONE',  ( -1.530808498934191509E-17, 0.1250000000000000000, 0.000000000000000000 ) ) ;
#213 = PRESENTATION_STYLE_ASSIGNMENT (( #240 ) ) ;
#214 = DIRECTION ( 'NONE',  ( 0.000000000000000000, 0.000000000000000000, -1.000000000000000000 ) ) ;
#215 = SURFACE_SIDE_STYLE ('',( #262 ) ) ;
#216 =( NAMED_UNIT ( * ) PLANE_ANGLE_UNIT ( ) SI_UNIT ( $, .RADIAN. ) );
#217 = COLOUR_RGB ( '',0.7921568627450980005, 0.8196078431372548767, 0.9333333333333333481 ) ;
#218 =( NAMED_UNIT ( * ) PLANE_ANGLE_UNIT ( ) SI_UNIT ( $, .RADIAN. ) );
#219 = PRESENTATION_STYLE_ASSIGNMENT (( #359 ) ) ;
#220 = STYLED_ITEM ( 'NONE', ( #219 ), #231 ) ;
#221 = EDGE_CURVE ( 'NONE', #198, #119, #133, .T. ) ;
#222 = PRODUCT_DEFINITION_SHAPE ( 'NONE', 'NONE',  #275 ) ;
#223 = SURFACE_STYLE_FILL_AREA ( #271 ) ;
#224 = MANIFOLD_SOLID_BREP ( 'Revolve - Tool Body (Straight Shanked)', #306 ) ;
#225 =( GEOMETRIC_REPRESENTATION_CONTEXT ( 3 ) GLOBAL_UNCERTAINTY_ASSIGNED_CONTEXT ( ( #344 ) ) GLOBAL_UNIT_ASSIGNED_CONTEXT ( ( #371, #117, #334 ) ) REPRESENTATION_CONTEXT ( 'NONE', 'WORKASPACE' ) );
#226 = ORIENTED_EDGE ( 'NONE', *, *, #24, .T. ) ;
#227 =( NAMED_UNIT ( * ) SI_UNIT ( $, .STERADIAN. ) SOLID_ANGLE_UNIT ( ) );
#228 = ORIENTED_EDGE ( 'NONE', *, *, #24, .F. ) ;
#229 = LINE ( 'NONE', #177, #78 ) ;
#230 = VERTEX_POINT ( 'NONE', #332 ) ;
#231 = ADVANCED_FACE ( 'NONE', ( #16 ), #102, .T. ) ;
#232 = LINE ( 'NONE', #259, #279 ) ;
#233 = CARTESIAN_POINT ( 'NONE',  ( 0.1249999999999999584, 0.1250000000000000278, 0.000000000000000000 ) ) ;
#234 = CARTESIAN_POINT ( 'NONE',  ( 0.000000000000000000, 0.000000000000000000, 0.000000000000000000 ) ) ;
#235 = PRESENTATION_LAYER_ASSIGNMENT (  '', '', ( #30 ) ) ;
#236 = SHAPE_DEFINITION_REPRESENTATION ( #222, #138 ) ;
#237 = CARTESIAN_POINT ( 'NONE',  ( -0.1250000000000000000, 0.1250000000000000278, 1.530808498934191201E-17 ) ) ;
#238 =( NAMED_UNIT ( * ) SI_UNIT ( $, .STERADIAN. ) SOLID_ANGLE_UNIT ( ) );
#239 = SURFACE_STYLE_USAGE ( .BOTH. , #105 ) ;
#240 = SURFACE_STYLE_USAGE ( .BOTH. , #134 ) ;
#241 = EDGE_CURVE ( 'NONE', #315, #198, #37, .T. ) ;
#242 = DIRECTION ( 'NONE',  ( -1.644635498670202785E-16, 1.000000000000000000, -0.000000000000000000 ) ) ;
#243 = PLANE ( 'NONE',  #118 ) ;
#244 = EDGE_CURVE ( 'NONE', #230, #178, #125, .T. ) ;
#245 = STYLED_ITEM ( 'NONE', ( #100 ), #224 ) ;
#246 = CARTESIAN_POINT ( 'NONE',  ( 1.854629848431626834E-16, 1.500000000000000222, 0.000000000000000000 ) ) ;
#247 = PLANE ( 'NONE',  #109 ) ;
#248 = LENGTH_MEASURE_WITH_UNIT ( LENGTH_MEASURE( 0.02539999999999999897 ), #373 );
#249 = AXIS2_PLACEMENT_3D ( 'NONE', #340, #369, #146 ) ;
#250 = ORIENTED_EDGE ( 'NONE', *, *, #281, .F. ) ;
#251 = UNCERTAINTY_MEASURE_WITH_UNIT (LENGTH_MEASURE( 1.000000000000000082E-05 ), #41, 'distance_accuracy_value', 'NONE');
#252 = ORIENTED_EDGE ( 'NONE', *, *, #179, .F. ) ;
#253 = CARTESIAN_POINT ( 'NONE',  ( 1.530808498934189352E-17, 1.500000000000000222, 0.1249999999999998057 ) ) ;
#254 = EDGE_LOOP ( 'NONE', ( #85, #280, #93, #283 ) ) ;
#255 = ORIENTED_EDGE ( 'NONE', *, *, #241, .T. ) ;
#256 = AXIS2_PLACEMENT_3D ( 'NONE', #47, #297, #132 ) ;
#257 = CARTESIAN_POINT ( 'NONE',  ( -0.1249999999999994588, 1.500000000000000222, 0.000000000000000000 ) ) ;
#258 = VERTEX_POINT ( 'NONE', #237 ) ;
#259 = CARTESIAN_POINT ( 'NONE',  ( 1.530808498934190276E-17, 0.000000000000000000, 0.1249999999999999029 ) ) ;
#260 = CYLINDRICAL_SURFACE ( 'NONE', #21, 0.1249999999999999029 ) ;
#261 =( NAMED_UNIT ( * ) SI_UNIT ( $, .STERADIAN. ) SOLID_ANGLE_UNIT ( ) );
#262 = SURFACE_STYLE_FILL_AREA ( #66 ) ;
#263 = CLOSED_SHELL ( 'NONE', ( #372, #110, #339, #231, #142 ) ) ;
#264 =( NAMED_UNIT ( * ) SI_UNIT ( $, .STERADIAN. ) SOLID_ANGLE_UNIT ( ) );
#265 = DIRECTION ( 'NONE',  ( -1.644635498670202785E-16, 1.000000000000000000, -0.000000000000000000 ) ) ;
#266 = DIRECTION ( 'NONE',  ( 0.000000000000000000, 0.000000000000000000, 1.000000000000000000 ) ) ;
#267 = CIRCLE ( 'NONE', #299, 0.1249999999999998057 ) ;
#268 = LINE ( 'NONE', #22, #370 ) ;
#269 = CIRCLE ( 'NONE', #43, 0.1249999999999998057 ) ;
#270 = SURFACE_STYLE_FILL_AREA ( #272 ) ;
#271 = FILL_AREA_STYLE ('',( #197 ) ) ;
#272 = FILL_AREA_STYLE ('',( #168 ) ) ;
#273 = AXIS2_PLACEMENT_3D ( 'NONE', #278, #150, #175 ) ;
#274 =( NAMED_UNIT ( * ) PLANE_ANGLE_UNIT ( ) SI_UNIT ( $, .RADIAN. ) );
#275 = PRODUCT_DEFINITION ( 'UNKNOWN', '', #135, #337 ) ;
#276 = CARTESIAN_POINT ( 'NONE',  ( 1.530808498934190893E-17, 0.1250000000000000278, 0.1249999999999999445 ) ) ;
#277 = DIRECTION ( 'NONE',  ( -1.644635498670202785E-16, 1.000000000000000000, -0.000000000000000000 ) ) ;
#278 = CARTESIAN_POINT ( 'NONE',  ( -1.530808498934191509E-17, 0.1250000000000000000, 0.000000000000000000 ) ) ;
#279 = VECTOR ( 'NONE', #318, 39.37007874015748143 ) ;
#280 = ORIENTED_EDGE ( 'NONE', *, *, #244, .T. ) ;
#281 = EDGE_CURVE ( 'NONE', #178, #286, #268, .T. ) ;
#282 = STYLED_ITEM ( 'NONE', ( #79 ), #372 ) ;
#283 = ORIENTED_EDGE ( 'NONE', *, *, #311, .F. ) ;
#284 = SPHERICAL_SURFACE ( 'NONE', #302, 0.1250000000000000000 ) ;
#285 = CARTESIAN_POINT ( 'NONE',  ( 0.000000000000000000, 0.1250000000000000278, 0.000000000000000000 ) ) ;
#286 = VERTEX_POINT ( 'NONE', #291 ) ;
#287 = COLOUR_RGB ( '',0.7921568627450980005, 0.8196078431372548767, 0.9333333333333333481 ) ;
#288 = DIRECTION ( 'NONE',  ( -0.000000000000000000, -1.000000000000000000, -0.000000000000000000 ) ) ;
#289 = DIMENSIONAL_EXPONENTS ( 1.000000000000000000, 0.000000000000000000, 0.000000000000000000, 0.000000000000000000, 0.000000000000000000, 0.000000000000000000, 0.000000000000000000 ) ;
#290 = PRODUCT_CONTEXT ( 'NONE', #304, 'mechanical' ) ;
#291 = CARTESIAN_POINT ( 'NONE',  ( -0.1249999999999999306, 3.000000000000000444, 0.000000000000000000 ) ) ;
#292 =( LENGTH_UNIT ( ) NAMED_UNIT ( * ) SI_UNIT ( $, .METRE. ) );
#293 =( LENGTH_UNIT ( ) NAMED_UNIT ( * ) SI_UNIT ( $, .METRE. ) );
#294 = LENGTH_MEASURE_WITH_UNIT ( LENGTH_MEASURE( 0.02539999999999999897 ), #356 );
#295 = LENGTH_MEASURE_WITH_UNIT ( LENGTH_MEASURE( 0.02539999999999999897 ), #367 );
#296 = CARTESIAN_POINT ( 'NONE',  ( 0.000000000000000000, 1.500000000000000222, 0.000000000000000000 ) ) ;
#297 = DIRECTION ( 'NONE',  ( -0.000000000000000000, -1.000000000000000000, -0.000000000000000000 ) ) ;
#298 = ADVANCED_FACE ( 'NONE', ( #84 ), #247, .F. ) ;
#299 = AXIS2_PLACEMENT_3D ( 'NONE', #296, #107, #70 ) ;
#300 = FACE_OUTER_BOUND ( 'NONE', #33, .T. ) ;
#301 = AXIS2_PLACEMENT_3D ( 'NONE', #285, #12, #130 ) ;
#302 = AXIS2_PLACEMENT_3D ( 'NONE', #342, #266, #129 ) ;
#303 = SURFACE_STYLE_USAGE ( .BOTH. , #112 ) ;
#304 = APPLICATION_CONTEXT ( 'automotive_design' ) ;
#305 = FACE_OUTER_BOUND ( 'NONE', #343, .T. ) ;
#306 = CLOSED_SHELL ( 'NONE', ( #121, #298, #104, #366 ) ) ;
#307 = AXIS2_PLACEMENT_3D ( 'NONE', #25, #143, #341 ) ;
#308 = DIRECTION ( 'NONE',  ( 0.000000000000000000, 0.000000000000000000, -1.000000000000000000 ) ) ;
#309 = UNCERTAINTY_MEASURE_WITH_UNIT (LENGTH_MEASURE( 1.000000000000000082E-05 ), #210, 'distance_accuracy_value', 'NONE');
#310 = VERTEX_POINT ( 'NONE', #276 ) ;
#311 = EDGE_CURVE ( 'NONE', #32, #286, #189, .T. ) ;
#312 = DIRECTION ( 'NONE',  ( -1.644635498670202785E-16, 1.000000000000000000, -0.000000000000000000 ) ) ;
#313 = AXIS2_PLACEMENT_3D ( 'NONE', #44, #67, #184 ) ;
#314 = AXIS2_PLACEMENT_3D ( 'NONE', #212, #140, #139 ) ;
#315 = VERTEX_POINT ( 'NONE', #116 ) ;
#316 = UNCERTAINTY_MEASURE_WITH_UNIT (LENGTH_MEASURE( 1.000000000000000082E-05 ), #211, 'distance_accuracy_value', 'NONE');
#317 =( GEOMETRIC_REPRESENTATION_CONTEXT ( 3 ) GLOBAL_UNCERTAINTY_ASSIGNED_CONTEXT ( ( #316 ) ) GLOBAL_UNIT_ASSIGNED_CONTEXT ( ( #211, #365, #45 ) ) REPRESENTATION_CONTEXT ( 'NONE', 'WORKASPACE' ) );
#318 = DIRECTION ( 'NONE',  ( -0.000000000000000000, -1.000000000000000000, -0.000000000000000000 ) ) ;
#319 = MECHANICAL_DESIGN_GEOMETRIC_PRESENTATION_REPRESENTATION (  '', ( #282 ), #81 ) ;
#320 = ORIENTED_EDGE ( 'NONE', *, *, #27, .F. ) ;
#321 = ORIENTED_EDGE ( 'NONE', *, *, #165, .T. ) ;
#322 = CARTESIAN_POINT ( 'NONE',  ( 0.000000000000000000, 1.500000000000000222, 0.000000000000000000 ) ) ;
#323 = PRESENTATION_STYLE_ASSIGNMENT (( #329 ) ) ;
#324 = CIRCLE ( 'NONE', #2, 0.1249999999999999584 ) ;
#325 = DIRECTION ( 'NONE',  ( -1.644635498670202785E-16, 1.000000000000000000, -0.000000000000000000 ) ) ;
#326 = FILL_AREA_STYLE_COLOUR ( '', #287 ) ;
#327 = DIRECTION ( 'NONE',  ( -1.000000000000000000, 0.000000000000000000, 0.000000000000000000 ) ) ;
#328 = SURFACE_SIDE_STYLE ('',( #333 ) ) ;
#329 = SURFACE_STYLE_USAGE ( .BOTH. , #215 ) ;
#330 = AXIS2_PLACEMENT_3D ( 'NONE', #128, #95, #308 ) ;
#331 = PRESENTATION_LAYER_ASSIGNMENT (  '', '', ( #245 ) ) ;
#332 = CARTESIAN_POINT ( 'NONE',  ( 0.1249999999999998057, 1.500000000000000222, 1.530808498934189044E-17 ) ) ;
#333 = SURFACE_STYLE_FILL_AREA ( #73 ) ;
#334 =( NAMED_UNIT ( * ) SI_UNIT ( $, .STERADIAN. ) SOLID_ANGLE_UNIT ( ) );
#335 = PRESENTATION_STYLE_ASSIGNMENT (( #338 ) ) ;
#336 = CIRCLE ( 'NONE', #301, 0.1249999999999999584 ) ;
#337 = PRODUCT_DEFINITION_CONTEXT ( 'detailed design', #5, 'design' ) ;
#338 = SURFACE_STYLE_USAGE ( .BOTH. , #23 ) ;
#339 = ADVANCED_FACE ( 'NONE', ( #305 ), #243, .T. ) ;
#340 = CARTESIAN_POINT ( 'NONE',  ( 0.1249999999999997918, 3.000000000000000444, 0.000000000000000000 ) ) ;
#341 = DIRECTION ( 'NONE',  ( -1.000000000000000000, 0.000000000000000000, 0.000000000000000000 ) ) ;
#342 = CARTESIAN_POINT ( 'NONE',  ( -1.530808498934191509E-17, 0.1250000000000000000, 0.000000000000000000 ) ) ;
#343 = EDGE_LOOP ( 'NONE', ( #320, #252 ) ) ;
#344 = UNCERTAINTY_MEASURE_WITH_UNIT (LENGTH_MEASURE( 1.000000000000000082E-05 ), #371, 'distance_accuracy_value', 'NONE');
#345 = CARTESIAN_POINT ( 'NONE',  ( -6.123233995736772199E-17, 3.000000000000000444, 0.000000000000000000 ) ) ;
#346 = ORIENTED_EDGE ( 'NONE', *, *, #15, .F. ) ;
#347 = CARTESIAN_POINT ( 'NONE',  ( 0.1249999999999996808, 3.000000000000000444, 1.530808498934188427E-17 ) ) ;
#348 =( GEOMETRIC_REPRESENTATION_CONTEXT ( 3 ) GLOBAL_UNCERTAINTY_ASSIGNED_CONTEXT ( ( #56 ) ) GLOBAL_UNIT_ASSIGNED_CONTEXT ( ( #60, #120, #227 ) ) REPRESENTATION_CONTEXT ( 'NONE', 'WORKASPACE' ) );
#349 = EDGE_LOOP ( 'NONE', ( #226, #180, #28, #250 ) ) ;
#350 = CARTESIAN_POINT ( 'NONE',  ( 0.000000000000000000, 1.500000000000000222, -0.1249999999999998057 ) ) ;
#351 = ORIENTED_EDGE ( 'NONE', *, *, #72, .F. ) ;
#352 = EDGE_CURVE ( 'NONE', #258, #315, #324, .T. ) ;
#353 = SURFACE_STYLE_USAGE ( .BOTH. , #127 ) ;
#354 = ORIENTED_EDGE ( 'NONE', *, *, #190, .T. ) ;
#355 = CARTESIAN_POINT ( 'NONE',  ( 0.000000000000000000, 0.000000000000000000, 0.000000000000000000 ) ) ;
#356 =( LENGTH_UNIT ( ) NAMED_UNIT ( * ) SI_UNIT ( $, .METRE. ) );
#357 = AXIS2_PLACEMENT_3D ( 'NONE', #137, #265, #19 ) ;
#358 = COLOUR_RGB ( '',1.000000000000000000, 0.000000000000000000, 0.000000000000000000 ) ;
#359 = SURFACE_STYLE_USAGE ( .BOTH. , #328 ) ;
#360 = DIMENSIONAL_EXPONENTS ( 1.000000000000000000, 0.000000000000000000, 0.000000000000000000, 0.000000000000000000, 0.000000000000000000, 0.000000000000000000, 0.000000000000000000 ) ;
#361 = CARTESIAN_POINT ( 'NONE',  ( 0.1249999999999997780, 3.000000000000000444, 1.530808498934189044E-17 ) ) ;
#362 = FILL_AREA_STYLE ('',( #17 ) ) ;
#363 = DIRECTION ( 'NONE',  ( 0.000000000000000000, 0.000000000000000000, -1.000000000000000000 ) ) ;
#364 = AXIS2_PLACEMENT_3D ( 'NONE', #20, #242, #18 ) ;
#365 =( NAMED_UNIT ( * ) PLANE_ANGLE_UNIT ( ) SI_UNIT ( $, .RADIAN. ) );
#366 = ADVANCED_FACE ( 'NONE', ( #191 ), #145, .F. ) ;
#367 =( LENGTH_UNIT ( ) NAMED_UNIT ( * ) SI_UNIT ( $, .METRE. ) );
#368 = CARTESIAN_POINT ( 'NONE',  ( 0.000000000000000000, 1.500000000000000222, 0.000000000000000000 ) ) ;
#369 = DIRECTION ( 'NONE',  ( 1.644635498670202785E-16, -1.000000000000000000, 0.000000000000000000 ) ) ;
#370 = VECTOR ( 'NONE', #185, 39.37007874015748143 ) ;
#371 =( CONVERSION_BASED_UNIT ( 'INCH', #248 ) LENGTH_UNIT ( ) NAMED_UNIT ( #94 ) );
#372 = ADVANCED_FACE ( 'NONE', ( #300 ), #284, .T. ) ;
#373 =( LENGTH_UNIT ( ) NAMED_UNIT ( * ) SI_UNIT ( $, .METRE. ) );
ENDSEC;
END-ISO-10303-21;
