ISO-10303-21;
HEADER;
FILE_DESCRIPTION (( 'STEP AP214' ),
    '1' );
FILE_NAME ('59459.STEP',
    '2023-07-24T15:06:54',
    ( '' ),
    ( '' ),
    'SwSTEP 2.0',
    'SolidWorks 2023',
    '' );
FILE_SCHEMA (( 'AUTOMOTIVE_DESIGN' ));
ENDSEC;

DATA;
#1 = DIRECTION ( 'NONE',  ( -0.000000000000000000, -1.000000000000000000, -0.000000000000000000 ) ) ;
#2 = ORIENTED_EDGE ( 'NONE', *, *, #216, .T. ) ;
#3 =( NAMED_UNIT ( * ) SI_UNIT ( $, .STERADIAN. ) SOLID_ANGLE_UNIT ( ) );
#4 = ORIENTED_EDGE ( 'NONE', *, *, #112, .F. ) ;
#5 = VERTEX_POINT ( 'NONE', #307 ) ;
#6 = PLANE ( 'NONE',  #220 ) ;
#7 = CIRCLE ( 'NONE', #191, 3.000000000000000888 ) ;
#8 = VERTEX_POINT ( 'NONE', #208 ) ;
#9 = SURFACE_STYLE_USAGE ( .BOTH. , #91 ) ;
#10 = EDGE_CURVE ( 'NONE', #340, #223, #7, .T. ) ;
#11 = FILL_AREA_STYLE_COLOUR ( '', #21 ) ;
#12 = PRESENTATION_STYLE_ASSIGNMENT (( #176 ) ) ;
#13 = UNCERTAINTY_MEASURE_WITH_UNIT (LENGTH_MEASURE( 1.000000000000000082E-05 ), #63, 'distance_accuracy_value', 'NONE');
#14 =( NAMED_UNIT ( * ) SI_UNIT ( $, .STERADIAN. ) SOLID_ANGLE_UNIT ( ) );
#15 = STYLED_ITEM ( 'NONE', ( #217 ), #104 ) ;
#16 = VECTOR ( 'NONE', #294, 1000.000000000000000 ) ;
#17 = PRESENTATION_STYLE_ASSIGNMENT (( #158 ) ) ;
#18 = ADVANCED_FACE ( 'NONE', ( #168 ), #258, .T. ) ;
#19 = CARTESIAN_POINT ( 'NONE',  ( 0.000000000000000000, 9.000000000000000000, 0.000000000000000000 ) ) ;
#20 =( GEOMETRIC_REPRESENTATION_CONTEXT ( 3 ) GLOBAL_UNCERTAINTY_ASSIGNED_CONTEXT ( ( #266 ) ) GLOBAL_UNIT_ASSIGNED_CONTEXT ( ( #146, #131, #3 ) ) REPRESENTATION_CONTEXT ( 'NONE', 'WORKASPACE' ) );
#21 = COLOUR_RGB ( '',1.000000000000000000, 0.000000000000000000, 0.000000000000000000 ) ;
#22 = DIRECTION ( 'NONE',  ( 0.000000000000000000, 0.000000000000000000, -1.000000000000000000 ) ) ;
#23 = AXIS2_PLACEMENT_3D ( 'NONE', #136, #161, #78 ) ;
#24 = EDGE_CURVE ( 'NONE', #5, #174, #212, .T. ) ;
#25 = CARTESIAN_POINT ( 'NONE',  ( 3.000000000000000000, 63.00000000000000000, 0.000000000000000000 ) ) ;
#26 = AXIS2_PLACEMENT_3D ( 'NONE', #325, #119, #293 ) ;
#27 = AXIS2_PLACEMENT_3D ( 'NONE', #207, #137, #359 ) ;
#28 = ADVANCED_FACE ( 'NONE', ( #154 ), #76, .T. ) ;
#29 = PRESENTATION_STYLE_ASSIGNMENT (( #252 ) ) ;
#30 = ORIENTED_EDGE ( 'NONE', *, *, #10, .T. ) ;
#31 = FILL_AREA_STYLE_COLOUR ( '', #272 ) ;
#32 = ORIENTED_EDGE ( 'NONE', *, *, #369, .F. ) ;
#33 = MANIFOLD_SOLID_BREP ( 'Revolve - Tool Body (Straight Shanked)', #357 ) ;
#34 = CARTESIAN_POINT ( 'NONE',  ( 0.000000000000000000, 0.5000000000000000000, 0.000000000000000000 ) ) ;
#35 = COLOUR_RGB ( '',1.000000000000000000, 0.000000000000000000, 0.000000000000000000 ) ;
#36 = DIRECTION ( 'NONE',  ( -1.000000000000000000, 0.000000000000000000, 0.000000000000000000 ) ) ;
#37 = SURFACE_SIDE_STYLE ('',( #314 ) ) ;
#38 = EDGE_LOOP ( 'NONE', ( #332, #235, #113, #153 ) ) ;
#39 = DIRECTION ( 'NONE',  ( -1.222774766076009260E-16, 1.000000000000000000, -0.000000000000000000 ) ) ;
#40 = ADVANCED_FACE ( 'NONE', ( #231 ), #210, .T. ) ;
#41 =( GEOMETRIC_REPRESENTATION_CONTEXT ( 3 ) GLOBAL_UNCERTAINTY_ASSIGNED_CONTEXT ( ( #324 ) ) GLOBAL_UNIT_ASSIGNED_CONTEXT ( ( #278, #310, #282 ) ) REPRESENTATION_CONTEXT ( 'NONE', 'WORKASPACE' ) );
#42 = ORIENTED_EDGE ( 'NONE', *, *, #155, .F. ) ;
#43 = PRESENTATION_STYLE_ASSIGNMENT (( #9 ) ) ;
#44 = UNCERTAINTY_MEASURE_WITH_UNIT (LENGTH_MEASURE( 1.000000000000000082E-05 ), #257, 'distance_accuracy_value', 'NONE');
#45 = FILL_AREA_STYLE ('',( #364 ) ) ;
#46 = CARTESIAN_POINT ( 'NONE',  ( 0.000000000000000000, 0.000000000000000000, 0.000000000000000000 ) ) ;
#47 = AXIS2_PLACEMENT_3D ( 'NONE', #319, #39, #121 ) ;
#48 = LINE ( 'NONE', #185, #16 ) ;
#49 = CARTESIAN_POINT ( 'NONE',  ( 0.000000000000000000, 0.000000000000000000, -2.500000000000000000 ) ) ;
#50 = ADVANCED_FACE ( 'NONE', ( #204 ), #178, .T. ) ;
#51 = STYLED_ITEM ( 'NONE', ( #43 ), #69 ) ;
#52 = CIRCLE ( 'NONE', #134, 0.5000000000000000000 ) ;
#53 = FACE_OUTER_BOUND ( 'NONE', #66, .T. ) ;
#54 = LINE ( 'NONE', #197, #358 ) ;
#55 = COLOUR_RGB ( '',1.000000000000000000, 0.000000000000000000, 0.000000000000000000 ) ;
#56 =( GEOMETRIC_REPRESENTATION_CONTEXT ( 3 ) GLOBAL_UNCERTAINTY_ASSIGNED_CONTEXT ( ( #361 ) ) GLOBAL_UNIT_ASSIGNED_CONTEXT ( ( #355, #184, #157 ) ) REPRESENTATION_CONTEXT ( 'NONE', 'WORKASPACE' ) );
#57 = CARTESIAN_POINT ( 'NONE',  ( 0.000000000000000000, 0.000000000000000000, 0.000000000000000000 ) ) ;
#58 = CARTESIAN_POINT ( 'NONE',  ( 0.000000000000000000, 9.000000000000000000, 0.000000000000000000 ) ) ;
#59 = CARTESIAN_POINT ( 'NONE',  ( -8.673617379884035472E-16, 9.000000000000001776, 0.000000000000000000 ) ) ;
#60 = CARTESIAN_POINT ( 'NONE',  ( -3.000000000000011990, 63.00000000000000000, 0.000000000000000000 ) ) ;
#61 = DIRECTION ( 'NONE',  ( -1.222774766076009260E-16, 1.000000000000000000, 0.000000000000000000 ) ) ;
#62 = EDGE_LOOP ( 'NONE', ( #224, #177, #2, #32 ) ) ;
#63 =( LENGTH_UNIT ( ) NAMED_UNIT ( * ) SI_UNIT ( .MILLI., .METRE. ) );
#64 = TOROIDAL_SURFACE ( 'NONE', #192, 2.500000000000000000, 0.4999999999999997780 ) ;
#65 = AXIS2_PLACEMENT_3D ( 'NONE', #328, #245, #79 ) ;
#66 = EDGE_LOOP ( 'NONE', ( #343, #171 ) ) ;
#67 = SURFACE_STYLE_FILL_AREA ( #118 ) ;
#68 =( NAMED_UNIT ( * ) PLANE_ANGLE_UNIT ( ) SI_UNIT ( $, .RADIAN. ) );
#69 = ADVANCED_FACE ( 'NONE', ( #353 ), #64, .T. ) ;
#70 = FILL_AREA_STYLE ('',( #317 ) ) ;
#71 = VERTEX_POINT ( 'NONE', #175 ) ;
#72 =( NAMED_UNIT ( * ) SI_UNIT ( $, .STERADIAN. ) SOLID_ANGLE_UNIT ( ) );
#73 = COLOUR_RGB ( '',1.000000000000000000, 0.000000000000000000, 0.000000000000000000 ) ;
#74 = UNCERTAINTY_MEASURE_WITH_UNIT (LENGTH_MEASURE( 1.000000000000000082E-05 ), #276, 'distance_accuracy_value', 'NONE');
#75 =( NAMED_UNIT ( * ) PLANE_ANGLE_UNIT ( ) SI_UNIT ( $, .RADIAN. ) );
#76 = CYLINDRICAL_SURFACE ( 'NONE', #300, 3.000000000000004441 ) ;
#77 = EDGE_CURVE ( 'NONE', #340, #342, #313, .T. ) ;
#78 = DIRECTION ( 'NONE',  ( 0.000000000000000000, 0.000000000000000000, -1.000000000000000000 ) ) ;
#79 = DIRECTION ( 'NONE',  ( 0.000000000000000000, 0.000000000000000000, 1.000000000000000000 ) ) ;
#80 = CARTESIAN_POINT ( 'NONE',  ( 0.000000000000000000, 0.5000000000000000000, 0.000000000000000000 ) ) ;
#81 = AXIS2_PLACEMENT_3D ( 'NONE', #221, #196, #306 ) ;
#82 = CARTESIAN_POINT ( 'NONE',  ( 2.999999999999996891, 63.00000000000000000, 3.673940397442064798E-16 ) ) ;
#83 = EDGE_CURVE ( 'NONE', #95, #120, #311, .T. ) ;
#84 = DIRECTION ( 'NONE',  ( 0.000000000000000000, 0.000000000000000000, -1.000000000000000000 ) ) ;
#85 = TOROIDAL_SURFACE ( 'NONE', #188, 2.500000000000000000, 0.4999999999999997780 ) ;
#86 =( GEOMETRIC_REPRESENTATION_CONTEXT ( 3 ) GLOBAL_UNCERTAINTY_ASSIGNED_CONTEXT ( ( #74 ) ) GLOBAL_UNIT_ASSIGNED_CONTEXT ( ( #276, #143, #308 ) ) REPRESENTATION_CONTEXT ( 'NONE', 'WORKASPACE' ) );
#87 = ORIENTED_EDGE ( 'NONE', *, *, #315, .F. ) ;
#88 = ADVANCED_FACE ( 'NONE', ( #209 ), #6, .T. ) ;
#89 = LINE ( 'NONE', #82, #198 ) ;
#90 = ORIENTED_EDGE ( 'NONE', *, *, #83, .T. ) ;
#91 = SURFACE_SIDE_STYLE ('',( #93 ) ) ;
#92 = PRODUCT_DEFINITION_FORMATION_WITH_SPECIFIED_SOURCE ( 'ANY', '', #360, .NOT_KNOWN. ) ;
#93 = SURFACE_STYLE_FILL_AREA ( #150 ) ;
#94 = SURFACE_STYLE_FILL_AREA ( #347 ) ;
#95 = VERTEX_POINT ( 'NONE', #349 ) ;
#96 = FACE_OUTER_BOUND ( 'NONE', #194, .T. ) ;
#97 = ORIENTED_EDGE ( 'NONE', *, *, #149, .F. ) ;
#98 = DIRECTION ( 'NONE',  ( 0.000000000000000000, 0.000000000000000000, -1.000000000000000000 ) ) ;
#99 = DIRECTION ( 'NONE',  ( 0.000000000000000000, 0.000000000000000000, -1.000000000000000000 ) ) ;
#100 = APPLICATION_PROTOCOL_DEFINITION ( 'draft international standard', 'automotive_design', 1998, #122 ) ;
#101 = DIRECTION ( 'NONE',  ( 0.000000000000000000, 0.000000000000000000, -1.000000000000000000 ) ) ;
#102 = AXIS2_PLACEMENT_3D ( 'NONE', #25, #140, #222 ) ;
#103 = DIRECTION ( 'NONE',  ( 0.000000000000000000, 0.000000000000000000, -1.000000000000000000 ) ) ;
#104 = ADVANCED_FACE ( 'NONE', ( #96 ), #85, .T. ) ;
#105 = DIRECTION ( 'NONE',  ( 0.000000000000000000, 1.000000000000000000, 0.000000000000000000 ) ) ;
#106 = COLOUR_RGB ( '',1.000000000000000000, 0.000000000000000000, 0.000000000000000000 ) ;
#107 = PRESENTATION_LAYER_ASSIGNMENT (  '', '', ( #127 ) ) ;
#108 = PRODUCT_RELATED_PRODUCT_CATEGORY ( 'part', '', ( #360 ) ) ;
#109 = DIRECTION ( 'NONE',  ( -1.000000000000000000, 0.000000000000000000, 0.000000000000000000 ) ) ;
#110 = AXIS2_PLACEMENT_3D ( 'NONE', #46, #186, #296 ) ;
#111 = DIRECTION ( 'NONE',  ( -0.000000000000000000, -1.000000000000000000, -0.000000000000000000 ) ) ;
#112 = EDGE_CURVE ( 'NONE', #223, #340, #163, .T. ) ;
#113 = ORIENTED_EDGE ( 'NONE', *, *, #83, .F. ) ;
#114 = CIRCLE ( 'NONE', #320, 3.000000000000000000 ) ;
#115 = CIRCLE ( 'NONE', #81, 3.000000000000007550 ) ;
#116 = CARTESIAN_POINT ( 'NONE',  ( 3.061616997868383141E-16, 0.5000000000000000000, 2.500000000000000000 ) ) ;
#117 = DIRECTION ( 'NONE',  ( -1.222774766076009260E-16, 1.000000000000000000, -0.000000000000000000 ) ) ;
#118 = FILL_AREA_STYLE ('',( #169 ) ) ;
#119 = DIRECTION ( 'NONE',  ( 0.000000000000000000, 0.000000000000000000, 1.000000000000000000 ) ) ;
#120 = VERTEX_POINT ( 'NONE', #214 ) ;
#121 = DIRECTION ( 'NONE',  ( -1.000000000000000000, 0.000000000000000000, 0.000000000000000000 ) ) ;
#122 = APPLICATION_CONTEXT ( 'automotive_design' ) ;
#123 = FILL_AREA_STYLE_COLOUR ( '', #219 ) ;
#124 =( GEOMETRIC_REPRESENTATION_CONTEXT ( 3 ) GLOBAL_UNCERTAINTY_ASSIGNED_CONTEXT ( ( #244 ) ) GLOBAL_UNIT_ASSIGNED_CONTEXT ( ( #125, #68, #344 ) ) REPRESENTATION_CONTEXT ( 'NONE', 'WORKASPACE' ) );
#125 =( LENGTH_UNIT ( ) NAMED_UNIT ( * ) SI_UNIT ( .MILLI., .METRE. ) );
#126 = CARTESIAN_POINT ( 'NONE',  ( 0.000000000000000000, 0.000000000000000000, 0.000000000000000000 ) ) ;
#127 = STYLED_ITEM ( 'NONE', ( #12 ), #40 ) ;
#128 = DIRECTION ( 'NONE',  ( -1.222774766076009260E-16, 1.000000000000000000, -0.000000000000000000 ) ) ;
#129 = ORIENTED_EDGE ( 'NONE', *, *, #302, .F. ) ;
#130 = DIRECTION ( 'NONE',  ( -1.000000000000000000, 0.000000000000000000, 0.000000000000000000 ) ) ;
#131 =( NAMED_UNIT ( * ) PLANE_ANGLE_UNIT ( ) SI_UNIT ( $, .RADIAN. ) );
#132 = PRESENTATION_LAYER_ASSIGNMENT (  '', '', ( #260 ) ) ;
#133 = MECHANICAL_DESIGN_GEOMETRIC_PRESENTATION_REPRESENTATION (  '', ( #127 ), #56 ) ;
#134 = AXIS2_PLACEMENT_3D ( 'NONE', #116, #201, #170 ) ;
#135 = UNCERTAINTY_MEASURE_WITH_UNIT (LENGTH_MEASURE( 1.000000000000000082E-05 ), #363, 'distance_accuracy_value', 'NONE');
#136 = CARTESIAN_POINT ( 'NONE',  ( 0.000000000000000000, 0.000000000000000000, 0.000000000000000000 ) ) ;
#137 = DIRECTION ( 'NONE',  ( -1.222774766076009260E-16, 1.000000000000000000, -0.000000000000000000 ) ) ;
#138 = SURFACE_SIDE_STYLE ('',( #287 ) ) ;
#139 = ORIENTED_EDGE ( 'NONE', *, *, #112, .T. ) ;
#140 = DIRECTION ( 'NONE',  ( 1.222774766076009260E-16, -1.000000000000000000, 0.000000000000000000 ) ) ;
#141 = AXIS2_PLACEMENT_3D ( 'NONE', #181, #261, #346 ) ;
#142 = ORIENTED_EDGE ( 'NONE', *, *, #10, .F. ) ;
#143 =( NAMED_UNIT ( * ) PLANE_ANGLE_UNIT ( ) SI_UNIT ( $, .RADIAN. ) );
#144 = MECHANICAL_DESIGN_GEOMETRIC_PRESENTATION_REPRESENTATION (  '', ( #51 ), #304 ) ;
#145 = PRESENTATION_LAYER_ASSIGNMENT (  '', '', ( #193 ) ) ;
#146 =( LENGTH_UNIT ( ) NAMED_UNIT ( * ) SI_UNIT ( .MILLI., .METRE. ) );
#147 = SURFACE_STYLE_FILL_AREA ( #352 ) ;
#148 = ORIENTED_EDGE ( 'NONE', *, *, #77, .T. ) ;
#149 = EDGE_CURVE ( 'NONE', #120, #95, #114, .T. ) ;
#150 = FILL_AREA_STYLE ('',( #11 ) ) ;
#151 = MECHANICAL_DESIGN_GEOMETRIC_PRESENTATION_REPRESENTATION (  '', ( #253 ), #159 ) ;
#152 = AXIS2_PLACEMENT_3D ( 'NONE', #303, #61, #199 ) ;
#153 = ORIENTED_EDGE ( 'NONE', *, *, #166, .F. ) ;
#154 = FACE_OUTER_BOUND ( 'NONE', #255, .T. ) ;
#155 = EDGE_CURVE ( 'NONE', #8, #342, #232, .T. ) ;
#156 = DIRECTION ( 'NONE',  ( -0.000000000000000000, -1.000000000000000000, -0.000000000000000000 ) ) ;
#157 =( NAMED_UNIT ( * ) SI_UNIT ( $, .STERADIAN. ) SOLID_ANGLE_UNIT ( ) );
#158 = SURFACE_STYLE_USAGE ( .BOTH. , #243 ) ;
#159 =( GEOMETRIC_REPRESENTATION_CONTEXT ( 3 ) GLOBAL_UNCERTAINTY_ASSIGNED_CONTEXT ( ( #44 ) ) GLOBAL_UNIT_ASSIGNED_CONTEXT ( ( #257, #237, #182 ) ) REPRESENTATION_CONTEXT ( 'NONE', 'WORKASPACE' ) );
#160 = EDGE_CURVE ( 'NONE', #200, #71, #226, .T. ) ;
#161 = DIRECTION ( 'NONE',  ( -0.000000000000000000, -1.000000000000000000, -0.000000000000000000 ) ) ;
#162 = DIRECTION ( 'NONE',  ( -0.000000000000000000, -1.000000000000000000, -0.000000000000000000 ) ) ;
#163 = CIRCLE ( 'NONE', #27, 3.000000000000000888 ) ;
#164 = AXIS2_PLACEMENT_3D ( 'NONE', #19, #105, #331 ) ;
#165 = PLANE ( 'NONE',  #102 ) ;
#166 = EDGE_CURVE ( 'NONE', #5, #95, #48, .T. ) ;
#167 = DIRECTION ( 'NONE',  ( -0.000000000000000000, -1.000000000000000000, -0.000000000000000000 ) ) ;
#168 = FACE_OUTER_BOUND ( 'NONE', #283, .T. ) ;
#169 = FILL_AREA_STYLE_COLOUR ( '', #106 ) ;
#170 = DIRECTION ( 'NONE',  ( -1.224646799147352468E-16, 0.000000000000000000, -1.000000000000000000 ) ) ;
#171 = ORIENTED_EDGE ( 'NONE', *, *, #155, .T. ) ;
#172 = STYLED_ITEM ( 'NONE', ( #17 ), #189 ) ;
#173 = FILL_AREA_STYLE ('',( #123 ) ) ;
#174 = VERTEX_POINT ( 'NONE', #248 ) ;
#175 = CARTESIAN_POINT ( 'NONE',  ( 3.367778697655221505E-16, 0.000000000000000000, 2.500000000000000000 ) ) ;
#176 = SURFACE_STYLE_USAGE ( .BOTH. , #205 ) ;
#177 = ORIENTED_EDGE ( 'NONE', *, *, #149, .T. ) ;
#178 = CYLINDRICAL_SURFACE ( 'NONE', #47, 3.000000000000004441 ) ;
#179 = FILL_AREA_STYLE_COLOUR ( '', #251 ) ;
#180 = ORIENTED_EDGE ( 'NONE', *, *, #166, .T. ) ;
#181 = CARTESIAN_POINT ( 'NONE',  ( 0.000000000000000000, 0.5000000000000000000, 0.000000000000000000 ) ) ;
#182 =( NAMED_UNIT ( * ) SI_UNIT ( $, .STERADIAN. ) SOLID_ANGLE_UNIT ( ) );
#183 =( NAMED_UNIT ( * ) SI_UNIT ( $, .STERADIAN. ) SOLID_ANGLE_UNIT ( ) );
#184 =( NAMED_UNIT ( * ) PLANE_ANGLE_UNIT ( ) SI_UNIT ( $, .RADIAN. ) );
#185 = CARTESIAN_POINT ( 'NONE',  ( 0.000000000000000000, 0.000000000000000000, -3.000000000000000000 ) ) ;
#186 = DIRECTION ( 'NONE',  ( -0.000000000000000000, -1.000000000000000000, -0.000000000000000000 ) ) ;
#187 = CARTESIAN_POINT ( 'NONE',  ( 0.000000000000000000, 0.5000000000000000000, 0.000000000000000000 ) ) ;
#188 = AXIS2_PLACEMENT_3D ( 'NONE', #187, #156, #103 ) ;
#189 = ADVANCED_FACE ( 'NONE', ( #265 ), #242, .T. ) ;
#190 = CARTESIAN_POINT ( 'NONE',  ( 3.000000000000000444, 9.000000000000001776, 3.673940397442067264E-16 ) ) ;
#191 = AXIS2_PLACEMENT_3D ( 'NONE', #59, #117, #36 ) ;
#192 = AXIS2_PLACEMENT_3D ( 'NONE', #34, #236, #98 ) ;
#193 = STYLED_ITEM ( 'NONE', ( #29 ), #228 ) ;
#194 = EDGE_LOOP ( 'NONE', ( #90, #309, #368, #249 ) ) ;
#195 = DIRECTION ( 'NONE',  ( -1.222774766076009260E-16, 1.000000000000000000, -0.000000000000000000 ) ) ;
#196 = DIRECTION ( 'NONE',  ( -1.222774766076009260E-16, 1.000000000000000000, -0.000000000000000000 ) ) ;
#197 = CARTESIAN_POINT ( 'NONE',  ( 3.673940397442059868E-16, 0.000000000000000000, 3.000000000000000000 ) ) ;
#198 = VECTOR ( 'NONE', #195, 1000.000000000000000 ) ;
#199 = DIRECTION ( 'NONE',  ( -1.000000000000000000, -1.222774766076009260E-16, 0.000000000000000000 ) ) ;
#200 = VERTEX_POINT ( 'NONE', #49 ) ;
#201 = DIRECTION ( 'NONE',  ( 1.000000000000000000, 0.000000000000000000, -1.224646799147353207E-16 ) ) ;
#202 = ORIENTED_EDGE ( 'NONE', *, *, #369, .T. ) ;
#203 = PRESENTATION_LAYER_ASSIGNMENT (  '', '', ( #253 ) ) ;
#204 = FACE_OUTER_BOUND ( 'NONE', #259, .T. ) ;
#205 = SURFACE_SIDE_STYLE ('',( #94 ) ) ;
#206 = ORIENTED_EDGE ( 'NONE', *, *, #315, .T. ) ;
#207 = CARTESIAN_POINT ( 'NONE',  ( -8.673617379884035472E-16, 9.000000000000001776, 0.000000000000000000 ) ) ;
#208 = CARTESIAN_POINT ( 'NONE',  ( 3.000000000000000444, 63.00000000000000000, 3.673940397442067264E-16 ) ) ;
#209 = FACE_OUTER_BOUND ( 'NONE', #316, .T. ) ;
#210 = CYLINDRICAL_SURFACE ( 'NONE', #110, 3.000000000000000000 ) ;
#211 = PRESENTATION_STYLE_ASSIGNMENT (( #284 ) ) ;
#212 = CIRCLE ( 'NONE', #341, 3.000000000000000000 ) ;
#213 = PRESENTATION_LAYER_ASSIGNMENT (  '', '', ( #172 ) ) ;
#214 = CARTESIAN_POINT ( 'NONE',  ( 3.673940397442059375E-16, 0.5000000000000000000, 3.000000000000000000 ) ) ;
#215 = UNCERTAINTY_MEASURE_WITH_UNIT (LENGTH_MEASURE( 1.000000000000000082E-05 ), #270, 'distance_accuracy_value', 'NONE');
#216 = EDGE_CURVE ( 'NONE', #95, #200, #365, .T. ) ;
#217 = PRESENTATION_STYLE_ASSIGNMENT (( #322 ) ) ;
#218 = CLOSED_SHELL ( 'NONE', ( #40, #104, #88, #69, #18, #189 ) ) ;
#219 = COLOUR_RGB ( '',0.7921568627450980005, 0.8196078431372548767, 0.9333333333333333481 ) ;
#220 = AXIS2_PLACEMENT_3D ( 'NONE', #126, #233, #101 ) ;
#221 = CARTESIAN_POINT ( 'NONE',  ( -7.470345474798853504E-15, 63.00000000000000000, 0.000000000000000000 ) ) ;
#222 = DIRECTION ( 'NONE',  ( 1.000000000000000000, 1.222774766076009260E-16, 0.000000000000000000 ) ) ;
#223 = VERTEX_POINT ( 'NONE', #190 ) ;
#224 = ORIENTED_EDGE ( 'NONE', *, *, #330, .F. ) ;
#225 = SURFACE_STYLE_FILL_AREA ( #370 ) ;
#226 = CIRCLE ( 'NONE', #23, 2.500000000000000000 ) ;
#227 = ORIENTED_EDGE ( 'NONE', *, *, #267, .F. ) ;
#228 = MANIFOLD_SOLID_BREP ( 'Revolve - Cutting Edge', #218 ) ;
#229 = APPLICATION_PROTOCOL_DEFINITION ( 'draft international standard', 'automotive_design', 1998, #299 ) ;
#230 = ORIENTED_EDGE ( 'NONE', *, *, #77, .F. ) ;
#231 = FACE_OUTER_BOUND ( 'NONE', #38, .T. ) ;
#232 = CIRCLE ( 'NONE', #274, 3.000000000000007550 ) ;
#233 = DIRECTION ( 'NONE',  ( 0.000000000000000000, -1.000000000000000000, -0.000000000000000000 ) ) ;
#234 = PRODUCT_DEFINITION ( 'UNKNOWN', '', #92, #292 ) ;
#235 = ORIENTED_EDGE ( 'NONE', *, *, #267, .T. ) ;
#236 = DIRECTION ( 'NONE',  ( -0.000000000000000000, -1.000000000000000000, -0.000000000000000000 ) ) ;
#237 =( NAMED_UNIT ( * ) PLANE_ANGLE_UNIT ( ) SI_UNIT ( $, .RADIAN. ) );
#238 = SURFACE_STYLE_USAGE ( .BOTH. , #37 ) ;
#239 = STYLED_ITEM ( 'NONE', ( #211 ), #88 ) ;
#240 = MECHANICAL_DESIGN_GEOMETRIC_PRESENTATION_REPRESENTATION (  '', ( #193 ), #86 ) ;
#241 = CARTESIAN_POINT ( 'NONE',  ( 0.000000000000000000, 9.000000000000000000, 0.000000000000000000 ) ) ;
#242 = PLANE ( 'NONE',  #164 ) ;
#243 = SURFACE_SIDE_STYLE ('',( #362 ) ) ;
#244 = UNCERTAINTY_MEASURE_WITH_UNIT (LENGTH_MEASURE( 1.000000000000000082E-05 ), #125, 'distance_accuracy_value', 'NONE');
#245 = DIRECTION ( 'NONE',  ( -1.000000000000000000, 0.000000000000000000, 0.000000000000000000 ) ) ;
#246 = PRESENTATION_LAYER_ASSIGNMENT (  '', '', ( #15 ) ) ;
#247 = MECHANICAL_DESIGN_GEOMETRIC_PRESENTATION_REPRESENTATION (  '', ( #172 ), #290 ) ;
#248 = CARTESIAN_POINT ( 'NONE',  ( 3.673940397442059868E-16, 9.000000000000000000, 3.000000000000000000 ) ) ;
#249 = ORIENTED_EDGE ( 'NONE', *, *, #216, .F. ) ;
#250 = SURFACE_SIDE_STYLE ('',( #225 ) ) ;
#251 = COLOUR_RGB ( '',1.000000000000000000, 0.000000000000000000, 0.000000000000000000 ) ;
#252 = SURFACE_STYLE_USAGE ( .BOTH. , #250 ) ;
#253 = STYLED_ITEM ( 'NONE', ( #350 ), #33 ) ;
#254 = FACE_OUTER_BOUND ( 'NONE', #345, .T. ) ;
#255 = EDGE_LOOP ( 'NONE', ( #30, #288, #129, #230 ) ) ;
#256 = SURFACE_SIDE_STYLE ('',( #147 ) ) ;
#257 =( LENGTH_UNIT ( ) NAMED_UNIT ( * ) SI_UNIT ( .MILLI., .METRE. ) );
#258 = CYLINDRICAL_SURFACE ( 'NONE', #289, 3.000000000000000000 ) ;
#259 = EDGE_LOOP ( 'NONE', ( #281, #139, #148, #42 ) ) ;
#260 = STYLED_ITEM ( 'NONE', ( #262 ), #18 ) ;
#261 = DIRECTION ( 'NONE',  ( -0.000000000000000000, -1.000000000000000000, -0.000000000000000000 ) ) ;
#262 = PRESENTATION_STYLE_ASSIGNMENT (( #277 ) ) ;
#263 = DIRECTION ( 'NONE',  ( -1.222774766076009260E-16, 1.000000000000000000, -0.000000000000000000 ) ) ;
#264 = DIRECTION ( 'NONE',  ( -0.000000000000000000, -1.000000000000000000, -0.000000000000000000 ) ) ;
#265 = FACE_OUTER_BOUND ( 'NONE', #318, .T. ) ;
#266 = UNCERTAINTY_MEASURE_WITH_UNIT (LENGTH_MEASURE( 1.000000000000000082E-05 ), #146, 'distance_accuracy_value', 'NONE');
#267 = EDGE_CURVE ( 'NONE', #174, #120, #54, .T. ) ;
#268 = CARTESIAN_POINT ( 'NONE',  ( -7.470345474798853504E-15, 63.00000000000000000, 0.000000000000000000 ) ) ;
#269 = MECHANICAL_DESIGN_GEOMETRIC_PRESENTATION_REPRESENTATION (  '', ( #15 ), #366 ) ;
#270 =( LENGTH_UNIT ( ) NAMED_UNIT ( * ) SI_UNIT ( .MILLI., .METRE. ) );
#271 =( NAMED_UNIT ( * ) PLANE_ANGLE_UNIT ( ) SI_UNIT ( $, .RADIAN. ) );
#272 = COLOUR_RGB ( '',0.7921568627450980005, 0.8196078431372548767, 0.9333333333333333481 ) ;
#273 = PLANE ( 'NONE',  #152 ) ;
#274 = AXIS2_PLACEMENT_3D ( 'NONE', #268, #326, #109 ) ;
#275 = DIRECTION ( 'NONE',  ( -0.000000000000000000, -1.000000000000000000, -0.000000000000000000 ) ) ;
#276 =( LENGTH_UNIT ( ) NAMED_UNIT ( * ) SI_UNIT ( .MILLI., .METRE. ) );
#277 = SURFACE_STYLE_USAGE ( .BOTH. , #256 ) ;
#278 =( LENGTH_UNIT ( ) NAMED_UNIT ( * ) SI_UNIT ( .MILLI., .METRE. ) );
#279 = PRESENTATION_LAYER_ASSIGNMENT (  '', '', ( #239 ) ) ;
#280 = CIRCLE ( 'NONE', #321, 3.000000000000000000 ) ;
#281 = ORIENTED_EDGE ( 'NONE', *, *, #323, .F. ) ;
#282 =( NAMED_UNIT ( * ) SI_UNIT ( $, .STERADIAN. ) SOLID_ANGLE_UNIT ( ) );
#283 = EDGE_LOOP ( 'NONE', ( #227, #206, #180, #97 ) ) ;
#284 = SURFACE_STYLE_USAGE ( .BOTH. , #291 ) ;
#285 = DIRECTION ( 'NONE',  ( 0.000000000000000000, 0.000000000000000000, -1.000000000000000000 ) ) ;
#286 = FILL_AREA_STYLE_COLOUR ( '', #55 ) ;
#287 = SURFACE_STYLE_FILL_AREA ( #70 ) ;
#288 = ORIENTED_EDGE ( 'NONE', *, *, #323, .T. ) ;
#289 = AXIS2_PLACEMENT_3D ( 'NONE', #367, #275, #285 ) ;
#290 =( GEOMETRIC_REPRESENTATION_CONTEXT ( 3 ) GLOBAL_UNCERTAINTY_ASSIGNED_CONTEXT ( ( #135 ) ) GLOBAL_UNIT_ASSIGNED_CONTEXT ( ( #363, #75, #183 ) ) REPRESENTATION_CONTEXT ( 'NONE', 'WORKASPACE' ) );
#291 = SURFACE_SIDE_STYLE ('',( #67 ) ) ;
#292 = PRODUCT_DEFINITION_CONTEXT ( 'detailed design', #299, 'design' ) ;
#293 = DIRECTION ( 'NONE',  ( 1.000000000000000000, 0.000000000000000000, 0.000000000000000000 ) ) ;
#294 = DIRECTION ( 'NONE',  ( -0.000000000000000000, -1.000000000000000000, -0.000000000000000000 ) ) ;
#295 = PRODUCT_DEFINITION_SHAPE ( 'NONE', 'NONE',  #234 ) ;
#296 = DIRECTION ( 'NONE',  ( 0.000000000000000000, 0.000000000000000000, -1.000000000000000000 ) ) ;
#297 = PRESENTATION_LAYER_ASSIGNMENT (  '', '', ( #51 ) ) ;
#298 = ADVANCED_FACE ( 'NONE', ( #254 ), #273, .F. ) ;
#299 = APPLICATION_CONTEXT ( 'automotive_design' ) ;
#300 = AXIS2_PLACEMENT_3D ( 'NONE', #327, #128, #130 ) ;
#301 = CIRCLE ( 'NONE', #335, 2.500000000000000000 ) ;
#302 = EDGE_CURVE ( 'NONE', #342, #8, #115, .T. ) ;
#303 = CARTESIAN_POINT ( 'NONE',  ( -8.673617379884035472E-16, 9.000000000000000000, 0.000000000000000000 ) ) ;
#304 =( GEOMETRIC_REPRESENTATION_CONTEXT ( 3 ) GLOBAL_UNCERTAINTY_ASSIGNED_CONTEXT ( ( #13 ) ) GLOBAL_UNIT_ASSIGNED_CONTEXT ( ( #63, #354, #72 ) ) REPRESENTATION_CONTEXT ( 'NONE', 'WORKASPACE' ) );
#305 = CARTESIAN_POINT ( 'NONE',  ( -3.000000000000001776, 9.000000000000001776, 0.000000000000000000 ) ) ;
#306 = DIRECTION ( 'NONE',  ( -1.000000000000000000, 0.000000000000000000, 0.000000000000000000 ) ) ;
#307 = CARTESIAN_POINT ( 'NONE',  ( 0.000000000000000000, 9.000000000000000000, -3.000000000000000000 ) ) ;
#308 =( NAMED_UNIT ( * ) SI_UNIT ( $, .STERADIAN. ) SOLID_ANGLE_UNIT ( ) );
#309 = ORIENTED_EDGE ( 'NONE', *, *, #330, .T. ) ;
#310 =( NAMED_UNIT ( * ) PLANE_ANGLE_UNIT ( ) SI_UNIT ( $, .RADIAN. ) );
#311 = CIRCLE ( 'NONE', #141, 3.000000000000000000 ) ;
#312 = ORIENTED_EDGE ( 'NONE', *, *, #160, .T. ) ;
#313 = LINE ( 'NONE', #60, #348 ) ;
#314 = SURFACE_STYLE_FILL_AREA ( #173 ) ;
#315 = EDGE_CURVE ( 'NONE', #174, #5, #280, .T. ) ;
#316 = EDGE_LOOP ( 'NONE', ( #312, #202 ) ) ;
#317 = FILL_AREA_STYLE_COLOUR ( '', #73 ) ;
#318 = EDGE_LOOP ( 'NONE', ( #339, #87 ) ) ;
#319 = CARTESIAN_POINT ( 'NONE',  ( -7.470345474798853504E-15, 63.00000000000000000, 0.000000000000000000 ) ) ;
#320 = AXIS2_PLACEMENT_3D ( 'NONE', #80, #162, #22 ) ;
#321 = AXIS2_PLACEMENT_3D ( 'NONE', #58, #1, #337 ) ;
#322 = SURFACE_STYLE_USAGE ( .BOTH. , #138 ) ;
#323 = EDGE_CURVE ( 'NONE', #223, #8, #89, .T. ) ;
#324 = UNCERTAINTY_MEASURE_WITH_UNIT (LENGTH_MEASURE( 1.000000000000000082E-05 ), #278, 'distance_accuracy_value', 'NONE');
#325 = CARTESIAN_POINT ( 'NONE',  ( 0.000000000000000000, 0.000000000000000000, 0.000000000000000000 ) ) ;
#326 = DIRECTION ( 'NONE',  ( -1.222774766076009260E-16, 1.000000000000000000, -0.000000000000000000 ) ) ;
#327 = CARTESIAN_POINT ( 'NONE',  ( -7.470345474798853504E-15, 63.00000000000000000, 0.000000000000000000 ) ) ;
#328 = CARTESIAN_POINT ( 'NONE',  ( 0.000000000000000000, 0.5000000000000000000, -2.500000000000000000 ) ) ;
#329 = ADVANCED_BREP_SHAPE_REPRESENTATION ( '59459', ( #228, #33, #26 ), #20 ) ;
#330 = EDGE_CURVE ( 'NONE', #120, #71, #52, .T. ) ;
#331 = DIRECTION ( 'NONE',  ( 0.000000000000000000, -0.000000000000000000, 1.000000000000000000 ) ) ;
#332 = ORIENTED_EDGE ( 'NONE', *, *, #24, .T. ) ;
#333 = MECHANICAL_DESIGN_GEOMETRIC_PRESENTATION_REPRESENTATION (  '', ( #260 ), #124 ) ;
#334 = MECHANICAL_DESIGN_GEOMETRIC_PRESENTATION_REPRESENTATION (  '', ( #239 ), #41 ) ;
#335 = AXIS2_PLACEMENT_3D ( 'NONE', #57, #167, #84 ) ;
#336 = ADVANCED_FACE ( 'NONE', ( #53 ), #165, .F. ) ;
#337 = DIRECTION ( 'NONE',  ( 0.000000000000000000, 0.000000000000000000, -1.000000000000000000 ) ) ;
#338 = CARTESIAN_POINT ( 'NONE',  ( -3.000000000000014655, 63.00000000000000000, 0.000000000000000000 ) ) ;
#339 = ORIENTED_EDGE ( 'NONE', *, *, #24, .F. ) ;
#340 = VERTEX_POINT ( 'NONE', #305 ) ;
#341 = AXIS2_PLACEMENT_3D ( 'NONE', #241, #264, #99 ) ;
#342 = VERTEX_POINT ( 'NONE', #338 ) ;
#343 = ORIENTED_EDGE ( 'NONE', *, *, #302, .T. ) ;
#344 =( NAMED_UNIT ( * ) SI_UNIT ( $, .STERADIAN. ) SOLID_ANGLE_UNIT ( ) );
#345 = EDGE_LOOP ( 'NONE', ( #142, #4 ) ) ;
#346 = DIRECTION ( 'NONE',  ( 0.000000000000000000, 0.000000000000000000, -1.000000000000000000 ) ) ;
#347 = FILL_AREA_STYLE ('',( #179 ) ) ;
#348 = VECTOR ( 'NONE', #263, 1000.000000000000000 ) ;
#349 = CARTESIAN_POINT ( 'NONE',  ( 0.000000000000000000, 0.5000000000000000000, -3.000000000000000000 ) ) ;
#350 = PRESENTATION_STYLE_ASSIGNMENT (( #238 ) ) ;
#351 = SHAPE_DEFINITION_REPRESENTATION ( #295, #329 ) ;
#352 = FILL_AREA_STYLE ('',( #286 ) ) ;
#353 = FACE_OUTER_BOUND ( 'NONE', #62, .T. ) ;
#354 =( NAMED_UNIT ( * ) PLANE_ANGLE_UNIT ( ) SI_UNIT ( $, .RADIAN. ) );
#355 =( LENGTH_UNIT ( ) NAMED_UNIT ( * ) SI_UNIT ( .MILLI., .METRE. ) );
#356 = PRODUCT_CONTEXT ( 'NONE', #122, 'mechanical' ) ;
#357 = CLOSED_SHELL ( 'NONE', ( #28, #298, #50, #336 ) ) ;
#358 = VECTOR ( 'NONE', #111, 1000.000000000000000 ) ;
#359 = DIRECTION ( 'NONE',  ( -1.000000000000000000, 0.000000000000000000, 0.000000000000000000 ) ) ;
#360 = PRODUCT ( '59459', '59459', '', ( #356 ) ) ;
#361 = UNCERTAINTY_MEASURE_WITH_UNIT (LENGTH_MEASURE( 1.000000000000000082E-05 ), #355, 'distance_accuracy_value', 'NONE');
#362 = SURFACE_STYLE_FILL_AREA ( #45 ) ;
#363 =( LENGTH_UNIT ( ) NAMED_UNIT ( * ) SI_UNIT ( .MILLI., .METRE. ) );
#364 = FILL_AREA_STYLE_COLOUR ( '', #35 ) ;
#365 = CIRCLE ( 'NONE', #65, 0.5000000000000000000 ) ;
#366 =( GEOMETRIC_REPRESENTATION_CONTEXT ( 3 ) GLOBAL_UNCERTAINTY_ASSIGNED_CONTEXT ( ( #215 ) ) GLOBAL_UNIT_ASSIGNED_CONTEXT ( ( #270, #271, #14 ) ) REPRESENTATION_CONTEXT ( 'NONE', 'WORKASPACE' ) );
#367 = CARTESIAN_POINT ( 'NONE',  ( 0.000000000000000000, 0.000000000000000000, 0.000000000000000000 ) ) ;
#368 = ORIENTED_EDGE ( 'NONE', *, *, #160, .F. ) ;
#369 = EDGE_CURVE ( 'NONE', #71, #200, #301, .T. ) ;
#370 = FILL_AREA_STYLE ('',( #31 ) ) ;
ENDSEC;
END-ISO-10303-21;
