ISO-10303-21;
HEADER;
FILE_DESCRIPTION (( 'STEP AP214' ),
    '1' );
FILE_NAME ('03495.STEP',
    '2023-06-22T15:22:57',
    ( '' ),
    ( '' ),
    'SwSTEP 2.0',
    'SolidWorks 2023',
    '' );
FILE_SCHEMA (( 'AUTOMOTIVE_DESIGN' ));
ENDSEC;

DATA;
#1 =( LENGTH_UNIT ( ) NAMED_UNIT ( * ) SI_UNIT ( $, .METRE. ) );
#2 = ORIENTED_EDGE ( 'NONE', *, *, #54, .F. ) ;
#3 = LINE ( 'NONE', #23, #83 ) ;
#4 = ORIENTED_EDGE ( 'NONE', *, *, #115, .T. ) ;
#5 = FILL_AREA_STYLE_COLOUR ( '', #33 ) ;
#6 =( GEOMETRIC_REPRESENTATION_CONTEXT ( 3 ) GLOBAL_UNCERTAINTY_ASSIGNED_CONTEXT ( ( #265 ) ) GLOBAL_UNIT_ASSIGNED_CONTEXT ( ( #18, #225, #181 ) ) REPRESENTATION_CONTEXT ( 'NONE', 'WORKASPACE' ) );
#7 = ADVANCED_FACE ( 'NONE', ( #290 ), #309, .T. ) ;
#8 = UNCERTAINTY_MEASURE_WITH_UNIT (LENGTH_MEASURE( 1.000000000000000082E-05 ), #76, 'distance_accuracy_value', 'NONE');
#9 = CARTESIAN_POINT ( 'NONE',  ( 1.516480271171051896E-32, 2.000000000000000000, 0.000000000000000000 ) ) ;
#10 = APPLICATION_CONTEXT ( 'automotive_design' ) ;
#11 = PLANE ( 'NONE',  #255 ) ;
#12 = DIRECTION ( 'NONE',  ( -0.000000000000000000, -1.000000000000000000, -0.000000000000000000 ) ) ;
#13 = MECHANICAL_DESIGN_GEOMETRIC_PRESENTATION_REPRESENTATION (  '', ( #205 ), #6 ) ;
#14 = CARTESIAN_POINT ( 'NONE',  ( -0.2500000000000000000, 2.000000000000000000, 0.000000000000000000 ) ) ;
#15 = PRESENTATION_STYLE_ASSIGNMENT (( #134 ) ) ;
#16 = LINE ( 'NONE', #300, #218 ) ;
#17 = ORIENTED_EDGE ( 'NONE', *, *, #115, .F. ) ;
#18 =( CONVERSION_BASED_UNIT ( 'INCH', #277 ) LENGTH_UNIT ( ) NAMED_UNIT ( #65 ) );
#19 = CIRCLE ( 'NONE', #110, 0.2500000000000001110 ) ;
#20 = CARTESIAN_POINT ( 'NONE',  ( 3.061616997868383018E-17, 2.000000000000000000, 0.2500000000000000000 ) ) ;
#21 = LENGTH_MEASURE_WITH_UNIT ( LENGTH_MEASURE( 0.02539999999999999897 ), #97 );
#22 = DIMENSIONAL_EXPONENTS ( 1.000000000000000000, 0.000000000000000000, 0.000000000000000000, 0.000000000000000000, 0.000000000000000000, 0.000000000000000000, 0.000000000000000000 ) ;
#23 = CARTESIAN_POINT ( 'NONE',  ( 3.061616997868383018E-17, 0.000000000000000000, 0.2500000000000000000 ) ) ;
#24 = EDGE_LOOP ( 'NONE', ( #152, #302 ) ) ;
#25 = CARTESIAN_POINT ( 'NONE',  ( 0.2500000000000000000, 4.000000000000000000, 0.000000000000000000 ) ) ;
#26 = SURFACE_SIDE_STYLE ('',( #100 ) ) ;
#27 = PRODUCT_RELATED_PRODUCT_CATEGORY ( 'part', '', ( #122 ) ) ;
#28 = VECTOR ( 'NONE', #242, 39.37007874015748143 ) ;
#29 = APPLICATION_PROTOCOL_DEFINITION ( 'draft international standard', 'automotive_design', 1998, #66 ) ;
#30 = DIRECTION ( 'NONE',  ( -0.000000000000000000, -1.000000000000000000, -0.000000000000000000 ) ) ;
#31 = ORIENTED_EDGE ( 'NONE', *, *, #63, .T. ) ;
#32 =( NAMED_UNIT ( * ) SI_UNIT ( $, .STERADIAN. ) SOLID_ANGLE_UNIT ( ) );
#33 = COLOUR_RGB ( '',0.7921568627450980005, 0.8196078431372548767, 0.9333333333333333481 ) ;
#34 = PRODUCT_DEFINITION_FORMATION_WITH_SPECIFIED_SOURCE ( 'ANY', '', #122, .NOT_KNOWN. ) ;
#35 = MANIFOLD_SOLID_BREP ( 'Revolve - Tool Body (Straight Shanked)', #216 ) ;
#36 = DIRECTION ( 'NONE',  ( -6.123233995736763571E-17, 1.000000000000000000, -0.000000000000000000 ) ) ;
#37 = UNCERTAINTY_MEASURE_WITH_UNIT (LENGTH_MEASURE( 1.000000000000000082E-05 ), #262, 'distance_accuracy_value', 'NONE');
#38 = DIRECTION ( 'NONE',  ( -1.000000000000000000, 0.000000000000000000, 0.000000000000000000 ) ) ;
#39 = CARTESIAN_POINT ( 'NONE',  ( 0.000000000000000000, 2.000000000000000000, 0.000000000000000000 ) ) ;
#40 = FILL_AREA_STYLE ('',( #91 ) ) ;
#41 = EDGE_LOOP ( 'NONE', ( #120, #45 ) ) ;
#42 = DIMENSIONAL_EXPONENTS ( 1.000000000000000000, 0.000000000000000000, 0.000000000000000000, 0.000000000000000000, 0.000000000000000000, 0.000000000000000000, 0.000000000000000000 ) ;
#43 = EDGE_CURVE ( 'NONE', #162, #165, #248, .T. ) ;
#44 = PRESENTATION_STYLE_ASSIGNMENT (( #223 ) ) ;
#45 = ORIENTED_EDGE ( 'NONE', *, *, #59, .F. ) ;
#46 = FILL_AREA_STYLE_COLOUR ( '', #168 ) ;
#47 = VERTEX_POINT ( 'NONE', #14 ) ;
#48 = EDGE_LOOP ( 'NONE', ( #96, #4, #281, #230 ) ) ;
#49 = DIRECTION ( 'NONE',  ( -0.000000000000000000, -1.000000000000000000, -0.000000000000000000 ) ) ;
#50 = SURFACE_STYLE_USAGE ( .BOTH. , #214 ) ;
#51 = CIRCLE ( 'NONE', #94, 0.2500000000000000000 ) ;
#52 = CARTESIAN_POINT ( 'NONE',  ( -1.224646799147352714E-16, 4.000000000000000000, 0.000000000000000000 ) ) ;
#53 =( NAMED_UNIT ( * ) SI_UNIT ( $, .STERADIAN. ) SOLID_ANGLE_UNIT ( ) );
#54 = EDGE_CURVE ( 'NONE', #116, #258, #159, .T. ) ;
#55 =( CONVERSION_BASED_UNIT ( 'INCH', #84 ) LENGTH_UNIT ( ) NAMED_UNIT ( #308 ) );
#56 = STYLED_ITEM ( 'NONE', ( #169 ), #7 ) ;
#57 = DIRECTION ( 'NONE',  ( -6.123233995736763571E-17, 1.000000000000000000, -0.000000000000000000 ) ) ;
#58 = DIRECTION ( 'NONE',  ( -1.000000000000000000, -6.123233995736763571E-17, 0.000000000000000000 ) ) ;
#59 = EDGE_CURVE ( 'NONE', #287, #47, #231, .T. ) ;
#60 = FACE_OUTER_BOUND ( 'NONE', #41, .T. ) ;
#61 = FACE_OUTER_BOUND ( 'NONE', #48, .T. ) ;
#62 = MECHANICAL_DESIGN_GEOMETRIC_PRESENTATION_REPRESENTATION (  '', ( #269 ), #90 ) ;
#63 = EDGE_CURVE ( 'NONE', #258, #116, #278, .T. ) ;
#64 = PLANE ( 'NONE',  #295 ) ;
#65 = DIMENSIONAL_EXPONENTS ( 1.000000000000000000, 0.000000000000000000, 0.000000000000000000, 0.000000000000000000, 0.000000000000000000, 0.000000000000000000, 0.000000000000000000 ) ;
#66 = APPLICATION_CONTEXT ( 'automotive_design' ) ;
#67 = UNCERTAINTY_MEASURE_WITH_UNIT (LENGTH_MEASURE( 1.000000000000000082E-05 ), #240, 'distance_accuracy_value', 'NONE');
#68 = DIRECTION ( 'NONE',  ( 0.000000000000000000, 0.000000000000000000, -1.000000000000000000 ) ) ;
#69 = CLOSED_SHELL ( 'NONE', ( #272, #103, #7, #127 ) ) ;
#70 = EDGE_LOOP ( 'NONE', ( #150, #73, #138, #210 ) ) ;
#71 = DIRECTION ( 'NONE',  ( -6.123233995736763571E-17, 1.000000000000000000, -0.000000000000000000 ) ) ;
#72 = FILL_AREA_STYLE_COLOUR ( '', #142 ) ;
#73 = ORIENTED_EDGE ( 'NONE', *, *, #296, .T. ) ;
#74 = STYLED_ITEM ( 'NONE', ( #44 ), #127 ) ;
#75 = DIMENSIONAL_EXPONENTS ( 1.000000000000000000, 0.000000000000000000, 0.000000000000000000, 0.000000000000000000, 0.000000000000000000, 0.000000000000000000, 0.000000000000000000 ) ;
#76 =( CONVERSION_BASED_UNIT ( 'INCH', #307 ) LENGTH_UNIT ( ) NAMED_UNIT ( #114 ) );
#77 = DIRECTION ( 'NONE',  ( -0.000000000000000000, -1.000000000000000000, -0.000000000000000000 ) ) ;
#78 = PRODUCT_DEFINITION_CONTEXT ( 'detailed design', #66, 'design' ) ;
#79 = PRESENTATION_STYLE_ASSIGNMENT (( #292 ) ) ;
#80 = SHAPE_DEFINITION_REPRESENTATION ( #219, #276 ) ;
#81 = DIRECTION ( 'NONE',  ( 1.000000000000000000, 6.123233995736763571E-17, 0.000000000000000000 ) ) ;
#82 = COLOUR_RGB ( '',1.000000000000000000, 0.000000000000000000, 0.000000000000000000 ) ;
#83 = VECTOR ( 'NONE', #211, 39.37007874015748143 ) ;
#84 = LENGTH_MEASURE_WITH_UNIT ( LENGTH_MEASURE( 0.02539999999999999897 ), #232 );
#85 = PRESENTATION_STYLE_ASSIGNMENT (( #270 ) ) ;
#86 =( GEOMETRIC_REPRESENTATION_CONTEXT ( 3 ) GLOBAL_UNCERTAINTY_ASSIGNED_CONTEXT ( ( #109 ) ) GLOBAL_UNIT_ASSIGNED_CONTEXT ( ( #190, #264, #53 ) ) REPRESENTATION_CONTEXT ( 'NONE', 'WORKASPACE' ) );
#87 = EDGE_CURVE ( 'NONE', #227, #229, #51, .T. ) ;
#88 = CARTESIAN_POINT ( 'NONE',  ( 4.686749320818301603E-34, 2.000000000000000000, 0.000000000000000000 ) ) ;
#89 = CARTESIAN_POINT ( 'NONE',  ( -0.2500000000000002220, 4.000000000000000000, 0.000000000000000000 ) ) ;
#90 =( GEOMETRIC_REPRESENTATION_CONTEXT ( 3 ) GLOBAL_UNCERTAINTY_ASSIGNED_CONTEXT ( ( #8 ) ) GLOBAL_UNIT_ASSIGNED_CONTEXT ( ( #76, #282, #188 ) ) REPRESENTATION_CONTEXT ( 'NONE', 'WORKASPACE' ) );
#91 = FILL_AREA_STYLE_COLOUR ( '', #263 ) ;
#92 = LENGTH_MEASURE_WITH_UNIT ( LENGTH_MEASURE( 0.02539999999999999897 ), #228 );
#93 = CARTESIAN_POINT ( 'NONE',  ( -1.224646799147352714E-16, 4.000000000000000000, 0.000000000000000000 ) ) ;
#94 = AXIS2_PLACEMENT_3D ( 'NONE', #268, #154, #196 ) ;
#95 = PRESENTATION_LAYER_ASSIGNMENT (  '', '', ( #269 ) ) ;
#96 = ORIENTED_EDGE ( 'NONE', *, *, #241, .T. ) ;
#97 =( LENGTH_UNIT ( ) NAMED_UNIT ( * ) SI_UNIT ( $, .METRE. ) );
#98 = MECHANICAL_DESIGN_GEOMETRIC_PRESENTATION_REPRESENTATION (  '', ( #56 ), #86 ) ;
#99 = CARTESIAN_POINT ( 'NONE',  ( 0.000000000000000000, 2.000000000000000000, -0.2500000000000000000 ) ) ;
#100 = SURFACE_STYLE_FILL_AREA ( #260 ) ;
#101 = DIRECTION ( 'NONE',  ( 0.000000000000000000, 0.000000000000000000, -1.000000000000000000 ) ) ;
#102 = APPLICATION_PROTOCOL_DEFINITION ( 'draft international standard', 'automotive_design', 1998, #10 ) ;
#103 = ADVANCED_FACE ( 'NONE', ( #236 ), #200, .T. ) ;
#104 =( GEOMETRIC_REPRESENTATION_CONTEXT ( 3 ) GLOBAL_UNCERTAINTY_ASSIGNED_CONTEXT ( ( #37 ) ) GLOBAL_UNIT_ASSIGNED_CONTEXT ( ( #262, #239, #215 ) ) REPRESENTATION_CONTEXT ( 'NONE', 'WORKASPACE' ) );
#105 =( NAMED_UNIT ( * ) SI_UNIT ( $, .STERADIAN. ) SOLID_ANGLE_UNIT ( ) );
#106 = ADVANCED_FACE ( 'NONE', ( #60 ), #11, .F. ) ;
#107 = DIRECTION ( 'NONE',  ( -1.000000000000000000, 0.000000000000000000, 0.000000000000000000 ) ) ;
#108 = FILL_AREA_STYLE ('',( #46 ) ) ;
#109 = UNCERTAINTY_MEASURE_WITH_UNIT (LENGTH_MEASURE( 1.000000000000000082E-05 ), #190, 'distance_accuracy_value', 'NONE');
#110 = AXIS2_PLACEMENT_3D ( 'NONE', #93, #71, #251 ) ;
#111 = ORIENTED_EDGE ( 'NONE', *, *, #296, .F. ) ;
#112 = SURFACE_SIDE_STYLE ('',( #136 ) ) ;
#113 = AXIS2_PLACEMENT_3D ( 'NONE', #184, #166, #288 ) ;
#114 = DIMENSIONAL_EXPONENTS ( 1.000000000000000000, 0.000000000000000000, 0.000000000000000000, 0.000000000000000000, 0.000000000000000000, 0.000000000000000000, 0.000000000000000000 ) ;
#115 = EDGE_CURVE ( 'NONE', #287, #162, #155, .T. ) ;
#116 = VERTEX_POINT ( 'NONE', #222 ) ;
#117 = FACE_OUTER_BOUND ( 'NONE', #193, .T. ) ;
#118 = FILL_AREA_STYLE_COLOUR ( '', #204 ) ;
#119 =( LENGTH_UNIT ( ) NAMED_UNIT ( * ) SI_UNIT ( $, .METRE. ) );
#120 = ORIENTED_EDGE ( 'NONE', *, *, #241, .F. ) ;
#121 = AXIS2_PLACEMENT_3D ( 'NONE', #147, #77, #125 ) ;
#122 = PRODUCT ( '03495', '03495', '', ( #148 ) ) ;
#123 = PLANE ( 'NONE',  #160 ) ;
#124 = ORIENTED_EDGE ( 'NONE', *, *, #233, .T. ) ;
#125 = DIRECTION ( 'NONE',  ( 0.000000000000000000, 0.000000000000000000, -1.000000000000000000 ) ) ;
#126 = CIRCLE ( 'NONE', #173, 0.2500000000000000000 ) ;
#127 = ADVANCED_FACE ( 'NONE', ( #301 ), #64, .T. ) ;
#128 =( LENGTH_UNIT ( ) NAMED_UNIT ( * ) SI_UNIT ( $, .METRE. ) );
#129 = DIRECTION ( 'NONE',  ( -0.000000000000000000, -1.000000000000000000, -0.000000000000000000 ) ) ;
#130 = DIRECTION ( 'NONE',  ( 0.000000000000000000, 0.000000000000000000, -1.000000000000000000 ) ) ;
#131 = UNCERTAINTY_MEASURE_WITH_UNIT (LENGTH_MEASURE( 1.000000000000000082E-05 ), #55, 'distance_accuracy_value', 'NONE');
#132 = CYLINDRICAL_SURFACE ( 'NONE', #299, 0.2500000000000000555 ) ;
#133 = MANIFOLD_SOLID_BREP ( 'Revolve - Cutting Edge', #69 ) ;
#134 = SURFACE_STYLE_USAGE ( .BOTH. , #245 ) ;
#135 = AXIS2_PLACEMENT_3D ( 'NONE', #52, #167, #289 ) ;
#136 = SURFACE_STYLE_FILL_AREA ( #40 ) ;
#137 = SURFACE_STYLE_FILL_AREA ( #108 ) ;
#138 = ORIENTED_EDGE ( 'NONE', *, *, #63, .F. ) ;
#139 = CARTESIAN_POINT ( 'NONE',  ( 0.2500000000000000555, 4.000000000000000000, 3.061616997868384251E-17 ) ) ;
#140 = PRESENTATION_LAYER_ASSIGNMENT (  '', '', ( #56 ) ) ;
#141 = SURFACE_STYLE_USAGE ( .BOTH. , #234 ) ;
#142 = COLOUR_RGB ( '',1.000000000000000000, 0.000000000000000000, 0.000000000000000000 ) ;
#143 = ORIENTED_EDGE ( 'NONE', *, *, #153, .T. ) ;
#144 = CARTESIAN_POINT ( 'NONE',  ( 0.000000000000000000, 0.000000000000000000, 0.000000000000000000 ) ) ;
#145 = ORIENTED_EDGE ( 'NONE', *, *, #43, .F. ) ;
#146 = CARTESIAN_POINT ( 'NONE',  ( 0.2500000000000000555, 2.000000000000000000, 3.061616997868384251E-17 ) ) ;
#147 = CARTESIAN_POINT ( 'NONE',  ( 0.000000000000000000, 0.000000000000000000, 0.000000000000000000 ) ) ;
#148 = PRODUCT_CONTEXT ( 'NONE', #10, 'mechanical' ) ;
#149 = DIRECTION ( 'NONE',  ( -1.000000000000000000, 0.000000000000000000, 0.000000000000000000 ) ) ;
#150 = ORIENTED_EDGE ( 'NONE', *, *, #87, .T. ) ;
#151 = AXIS2_PLACEMENT_3D ( 'NONE', #9, #36, #107 ) ;
#152 = ORIENTED_EDGE ( 'NONE', *, *, #158, .T. ) ;
#153 = EDGE_CURVE ( 'NONE', #227, #258, #16, .T. ) ;
#154 = DIRECTION ( 'NONE',  ( -0.000000000000000000, -1.000000000000000000, -0.000000000000000000 ) ) ;
#155 = LINE ( 'NONE', #217, #28 ) ;
#156 = FILL_AREA_STYLE_COLOUR ( '', #82 ) ;
#157 = PRESENTATION_LAYER_ASSIGNMENT (  '', '', ( #205 ) ) ;
#158 = EDGE_CURVE ( 'NONE', #165, #162, #19, .T. ) ;
#159 = CIRCLE ( 'NONE', #198, 0.2500000000000000000 ) ;
#160 = AXIS2_PLACEMENT_3D ( 'NONE', #25, #209, #81 ) ;
#161 = DIRECTION ( 'NONE',  ( 0.000000000000000000, -1.000000000000000000, -0.000000000000000000 ) ) ;
#162 = VERTEX_POINT ( 'NONE', #139 ) ;
#163 = EDGE_CURVE ( 'NONE', #47, #165, #298, .T. ) ;
#164 = CYLINDRICAL_SURFACE ( 'NONE', #202, 0.2500000000000000000 ) ;
#165 = VERTEX_POINT ( 'NONE', #273 ) ;
#166 = DIRECTION ( 'NONE',  ( 0.000000000000000000, 0.000000000000000000, 1.000000000000000000 ) ) ;
#167 = DIRECTION ( 'NONE',  ( -6.123233995736763571E-17, 1.000000000000000000, -0.000000000000000000 ) ) ;
#168 = COLOUR_RGB ( '',0.7921568627450980005, 0.8196078431372548767, 0.9333333333333333481 ) ;
#169 = PRESENTATION_STYLE_ASSIGNMENT (( #50 ) ) ;
#170 = CARTESIAN_POINT ( 'NONE',  ( 1.516480271171051896E-32, 2.000000000000000000, 0.000000000000000000 ) ) ;
#171 = CARTESIAN_POINT ( 'NONE',  ( -1.224646799147352714E-16, 4.000000000000000000, 0.000000000000000000 ) ) ;
#172 = DIRECTION ( 'NONE',  ( 0.000000000000000000, 0.000000000000000000, -1.000000000000000000 ) ) ;
#173 = AXIS2_PLACEMENT_3D ( 'NONE', #170, #206, #149 ) ;
#174 = SURFACE_STYLE_FILL_AREA ( #293 ) ;
#175 = AXIS2_PLACEMENT_3D ( 'NONE', #39, #271, #220 ) ;
#176 =( NAMED_UNIT ( * ) PLANE_ANGLE_UNIT ( ) SI_UNIT ( $, .RADIAN. ) );
#177 = DIRECTION ( 'NONE',  ( -6.123233995736763571E-17, 1.000000000000000000, -0.000000000000000000 ) ) ;
#178 = MECHANICAL_DESIGN_GEOMETRIC_PRESENTATION_REPRESENTATION (  '', ( #201 ), #237 ) ;
#179 =( NAMED_UNIT ( * ) SI_UNIT ( $, .STERADIAN. ) SOLID_ANGLE_UNIT ( ) );
#180 =( NAMED_UNIT ( * ) PLANE_ANGLE_UNIT ( ) SI_UNIT ( $, .RADIAN. ) );
#181 =( NAMED_UNIT ( * ) SI_UNIT ( $, .STERADIAN. ) SOLID_ANGLE_UNIT ( ) );
#182 = AXIS2_PLACEMENT_3D ( 'NONE', #266, #12, #101 ) ;
#183 = STYLED_ITEM ( 'NONE', ( #85 ), #103 ) ;
#184 = CARTESIAN_POINT ( 'NONE',  ( 0.000000000000000000, 0.000000000000000000, 0.000000000000000000 ) ) ;
#185 = FACE_OUTER_BOUND ( 'NONE', #70, .T. ) ;
#186 = DIRECTION ( 'NONE',  ( -1.000000000000000000, 0.000000000000000000, 0.000000000000000000 ) ) ;
#187 = EDGE_LOOP ( 'NONE', ( #254, #191 ) ) ;
#188 =( NAMED_UNIT ( * ) SI_UNIT ( $, .STERADIAN. ) SOLID_ANGLE_UNIT ( ) );
#189 = MECHANICAL_DESIGN_GEOMETRIC_PRESENTATION_REPRESENTATION (  '', ( #74 ), #291 ) ;
#190 =( CONVERSION_BASED_UNIT ( 'INCH', #21 ) LENGTH_UNIT ( ) NAMED_UNIT ( #42 ) );
#191 = ORIENTED_EDGE ( 'NONE', *, *, #233, .F. ) ;
#192 = CYLINDRICAL_SURFACE ( 'NONE', #135, 0.2500000000000000555 ) ;
#193 = EDGE_LOOP ( 'NONE', ( #17, #283, #250, #145 ) ) ;
#194 = EDGE_LOOP ( 'NONE', ( #111, #124, #143, #2 ) ) ;
#195 = CIRCLE ( 'NONE', #238, 0.2500000000000000000 ) ;
#196 = DIRECTION ( 'NONE',  ( 0.000000000000000000, 0.000000000000000000, -1.000000000000000000 ) ) ;
#197 =( NAMED_UNIT ( * ) PLANE_ANGLE_UNIT ( ) SI_UNIT ( $, .RADIAN. ) );
#198 = AXIS2_PLACEMENT_3D ( 'NONE', #297, #129, #130 ) ;
#199 = MECHANICAL_DESIGN_GEOMETRIC_PRESENTATION_REPRESENTATION (  '', ( #183 ), #224 ) ;
#200 = PLANE ( 'NONE',  #175 ) ;
#201 = STYLED_ITEM ( 'NONE', ( #79 ), #35 ) ;
#202 = AXIS2_PLACEMENT_3D ( 'NONE', #144, #49, #172 ) ;
#203 = DIRECTION ( 'NONE',  ( -0.000000000000000000, -1.000000000000000000, -0.000000000000000000 ) ) ;
#204 = COLOUR_RGB ( '',1.000000000000000000, 0.000000000000000000, 0.000000000000000000 ) ;
#205 = STYLED_ITEM ( 'NONE', ( #15 ), #133 ) ;
#206 = DIRECTION ( 'NONE',  ( -6.123233995736763571E-17, 1.000000000000000000, -0.000000000000000000 ) ) ;
#207 = PRESENTATION_STYLE_ASSIGNMENT (( #141 ) ) ;
#208 = CARTESIAN_POINT ( 'NONE',  ( 0.000000000000000000, 0.000000000000000000, -0.2500000000000000000 ) ) ;
#209 = DIRECTION ( 'NONE',  ( 6.123233995736763571E-17, -1.000000000000000000, 0.000000000000000000 ) ) ;
#210 = ORIENTED_EDGE ( 'NONE', *, *, #153, .F. ) ;
#211 = DIRECTION ( 'NONE',  ( -0.000000000000000000, -1.000000000000000000, -0.000000000000000000 ) ) ;
#212 = FILL_AREA_STYLE ('',( #118 ) ) ;
#213 = ADVANCED_FACE ( 'NONE', ( #61 ), #132, .T. ) ;
#214 = SURFACE_SIDE_STYLE ('',( #235 ) ) ;
#215 =( NAMED_UNIT ( * ) SI_UNIT ( $, .STERADIAN. ) SOLID_ANGLE_UNIT ( ) );
#216 = CLOSED_SHELL ( 'NONE', ( #213, #106, #244, #305 ) ) ;
#217 = CARTESIAN_POINT ( 'NONE',  ( 0.2499999999999999167, 4.000000000000000000, 3.061616997868383634E-17 ) ) ;
#218 = VECTOR ( 'NONE', #203, 39.37007874015748143 ) ;
#219 = PRODUCT_DEFINITION_SHAPE ( 'NONE', 'NONE',  #256 ) ;
#220 = DIRECTION ( 'NONE',  ( 0.000000000000000000, -0.000000000000000000, 1.000000000000000000 ) ) ;
#221 = PRESENTATION_LAYER_ASSIGNMENT (  '', '', ( #201 ) ) ;
#222 = CARTESIAN_POINT ( 'NONE',  ( 3.061616997868383018E-17, 0.000000000000000000, 0.2500000000000000000 ) ) ;
#223 = SURFACE_STYLE_USAGE ( .BOTH. , #112 ) ;
#224 =( GEOMETRIC_REPRESENTATION_CONTEXT ( 3 ) GLOBAL_UNCERTAINTY_ASSIGNED_CONTEXT ( ( #67 ) ) GLOBAL_UNIT_ASSIGNED_CONTEXT ( ( #240, #197, #105 ) ) REPRESENTATION_CONTEXT ( 'NONE', 'WORKASPACE' ) );
#225 =( NAMED_UNIT ( * ) PLANE_ANGLE_UNIT ( ) SI_UNIT ( $, .RADIAN. ) );
#226 =( LENGTH_UNIT ( ) NAMED_UNIT ( * ) SI_UNIT ( $, .METRE. ) );
#227 = VERTEX_POINT ( 'NONE', #99 ) ;
#228 =( LENGTH_UNIT ( ) NAMED_UNIT ( * ) SI_UNIT ( $, .METRE. ) );
#229 = VERTEX_POINT ( 'NONE', #20 ) ;
#230 = ORIENTED_EDGE ( 'NONE', *, *, #163, .F. ) ;
#231 = CIRCLE ( 'NONE', #151, 0.2500000000000000000 ) ;
#232 =( LENGTH_UNIT ( ) NAMED_UNIT ( * ) SI_UNIT ( $, .METRE. ) );
#233 = EDGE_CURVE ( 'NONE', #229, #227, #195, .T. ) ;
#234 = SURFACE_SIDE_STYLE ('',( #285 ) ) ;
#235 = SURFACE_STYLE_FILL_AREA ( #212 ) ;
#236 = FACE_OUTER_BOUND ( 'NONE', #187, .T. ) ;
#237 =( GEOMETRIC_REPRESENTATION_CONTEXT ( 3 ) GLOBAL_UNCERTAINTY_ASSIGNED_CONTEXT ( ( #131 ) ) GLOBAL_UNIT_ASSIGNED_CONTEXT ( ( #55, #176, #32 ) ) REPRESENTATION_CONTEXT ( 'NONE', 'WORKASPACE' ) );
#238 = AXIS2_PLACEMENT_3D ( 'NONE', #253, #30, #257 ) ;
#239 =( NAMED_UNIT ( * ) PLANE_ANGLE_UNIT ( ) SI_UNIT ( $, .RADIAN. ) );
#240 =( CONVERSION_BASED_UNIT ( 'INCH', #267 ) LENGTH_UNIT ( ) NAMED_UNIT ( #275 ) );
#241 = EDGE_CURVE ( 'NONE', #47, #287, #126, .T. ) ;
#242 = DIRECTION ( 'NONE',  ( -6.123233995736763571E-17, 1.000000000000000000, -0.000000000000000000 ) ) ;
#243 = DIRECTION ( 'NONE',  ( -6.123233995736763571E-17, 1.000000000000000000, 0.000000000000000000 ) ) ;
#244 = ADVANCED_FACE ( 'NONE', ( #117 ), #192, .T. ) ;
#245 = SURFACE_SIDE_STYLE ('',( #137 ) ) ;
#246 = CARTESIAN_POINT ( 'NONE',  ( 0.000000000000000000, 0.000000000000000000, 0.000000000000000000 ) ) ;
#247 = UNCERTAINTY_MEASURE_WITH_UNIT (LENGTH_MEASURE( 1.000000000000000082E-05 ), #249, 'distance_accuracy_value', 'NONE');
#248 = CIRCLE ( 'NONE', #284, 0.2500000000000001110 ) ;
#249 =( CONVERSION_BASED_UNIT ( 'INCH', #92 ) LENGTH_UNIT ( ) NAMED_UNIT ( #75 ) );
#250 = ORIENTED_EDGE ( 'NONE', *, *, #163, .T. ) ;
#251 = DIRECTION ( 'NONE',  ( -1.000000000000000000, 0.000000000000000000, 0.000000000000000000 ) ) ;
#252 = EDGE_LOOP ( 'NONE', ( #31, #306 ) ) ;
#253 = CARTESIAN_POINT ( 'NONE',  ( 0.000000000000000000, 2.000000000000000000, 0.000000000000000000 ) ) ;
#254 = ORIENTED_EDGE ( 'NONE', *, *, #87, .F. ) ;
#255 = AXIS2_PLACEMENT_3D ( 'NONE', #88, #243, #58 ) ;
#256 = PRODUCT_DEFINITION ( 'UNKNOWN', '', #34, #78 ) ;
#257 = DIRECTION ( 'NONE',  ( 0.000000000000000000, 0.000000000000000000, -1.000000000000000000 ) ) ;
#258 = VERTEX_POINT ( 'NONE', #208 ) ;
#259 = FILL_AREA_STYLE ('',( #72 ) ) ;
#260 = FILL_AREA_STYLE ('',( #5 ) ) ;
#261 = FACE_OUTER_BOUND ( 'NONE', #24, .T. ) ;
#262 =( CONVERSION_BASED_UNIT ( 'INCH', #286 ) LENGTH_UNIT ( ) NAMED_UNIT ( #22 ) );
#263 = COLOUR_RGB ( '',1.000000000000000000, 0.000000000000000000, 0.000000000000000000 ) ;
#264 =( NAMED_UNIT ( * ) PLANE_ANGLE_UNIT ( ) SI_UNIT ( $, .RADIAN. ) );
#265 = UNCERTAINTY_MEASURE_WITH_UNIT (LENGTH_MEASURE( 1.000000000000000082E-05 ), #18, 'distance_accuracy_value', 'NONE');
#266 = CARTESIAN_POINT ( 'NONE',  ( 0.000000000000000000, 0.000000000000000000, 0.000000000000000000 ) ) ;
#267 = LENGTH_MEASURE_WITH_UNIT ( LENGTH_MEASURE( 0.02539999999999999897 ), #128 );
#268 = CARTESIAN_POINT ( 'NONE',  ( 0.000000000000000000, 2.000000000000000000, 0.000000000000000000 ) ) ;
#269 = STYLED_ITEM ( 'NONE', ( #207 ), #272 ) ;
#270 = SURFACE_STYLE_USAGE ( .BOTH. , #294 ) ;
#271 = DIRECTION ( 'NONE',  ( 0.000000000000000000, 1.000000000000000000, 0.000000000000000000 ) ) ;
#272 = ADVANCED_FACE ( 'NONE', ( #185 ), #164, .T. ) ;
#273 = CARTESIAN_POINT ( 'NONE',  ( -0.2500000000000002776, 4.000000000000000000, 0.000000000000000000 ) ) ;
#274 = PRESENTATION_LAYER_ASSIGNMENT (  '', '', ( #183 ) ) ;
#275 = DIMENSIONAL_EXPONENTS ( 1.000000000000000000, 0.000000000000000000, 0.000000000000000000, 0.000000000000000000, 0.000000000000000000, 0.000000000000000000, 0.000000000000000000 ) ;
#276 = ADVANCED_BREP_SHAPE_REPRESENTATION ( '03495', ( #133, #35, #113 ), #104 ) ;
#277 = LENGTH_MEASURE_WITH_UNIT ( LENGTH_MEASURE( 0.02539999999999999897 ), #226 );
#278 = CIRCLE ( 'NONE', #182, 0.2500000000000000000 ) ;
#279 = PRESENTATION_LAYER_ASSIGNMENT (  '', '', ( #74 ) ) ;
#280 = CARTESIAN_POINT ( 'NONE',  ( -1.224646799147352714E-16, 4.000000000000000000, 0.000000000000000000 ) ) ;
#281 = ORIENTED_EDGE ( 'NONE', *, *, #158, .F. ) ;
#282 =( NAMED_UNIT ( * ) PLANE_ANGLE_UNIT ( ) SI_UNIT ( $, .RADIAN. ) );
#283 = ORIENTED_EDGE ( 'NONE', *, *, #59, .T. ) ;
#284 = AXIS2_PLACEMENT_3D ( 'NONE', #171, #57, #38 ) ;
#285 = SURFACE_STYLE_FILL_AREA ( #259 ) ;
#286 = LENGTH_MEASURE_WITH_UNIT ( LENGTH_MEASURE( 0.02539999999999999897 ), #1 );
#287 = VERTEX_POINT ( 'NONE', #146 ) ;
#288 = DIRECTION ( 'NONE',  ( 1.000000000000000000, 0.000000000000000000, 0.000000000000000000 ) ) ;
#289 = DIRECTION ( 'NONE',  ( -1.000000000000000000, 0.000000000000000000, 0.000000000000000000 ) ) ;
#290 = FACE_OUTER_BOUND ( 'NONE', #194, .T. ) ;
#291 =( GEOMETRIC_REPRESENTATION_CONTEXT ( 3 ) GLOBAL_UNCERTAINTY_ASSIGNED_CONTEXT ( ( #247 ) ) GLOBAL_UNIT_ASSIGNED_CONTEXT ( ( #249, #180, #179 ) ) REPRESENTATION_CONTEXT ( 'NONE', 'WORKASPACE' ) );
#292 = SURFACE_STYLE_USAGE ( .BOTH. , #26 ) ;
#293 = FILL_AREA_STYLE ('',( #156 ) ) ;
#294 = SURFACE_SIDE_STYLE ('',( #174 ) ) ;
#295 = AXIS2_PLACEMENT_3D ( 'NONE', #246, #161, #68 ) ;
#296 = EDGE_CURVE ( 'NONE', #229, #116, #3, .T. ) ;
#297 = CARTESIAN_POINT ( 'NONE',  ( 0.000000000000000000, 0.000000000000000000, 0.000000000000000000 ) ) ;
#298 = LINE ( 'NONE', #89, #303 ) ;
#299 = AXIS2_PLACEMENT_3D ( 'NONE', #280, #304, #186 ) ;
#300 = CARTESIAN_POINT ( 'NONE',  ( 0.000000000000000000, 0.000000000000000000, -0.2500000000000000000 ) ) ;
#301 = FACE_OUTER_BOUND ( 'NONE', #252, .T. ) ;
#302 = ORIENTED_EDGE ( 'NONE', *, *, #43, .T. ) ;
#303 = VECTOR ( 'NONE', #177, 39.37007874015748143 ) ;
#304 = DIRECTION ( 'NONE',  ( -6.123233995736763571E-17, 1.000000000000000000, -0.000000000000000000 ) ) ;
#305 = ADVANCED_FACE ( 'NONE', ( #261 ), #123, .F. ) ;
#306 = ORIENTED_EDGE ( 'NONE', *, *, #54, .T. ) ;
#307 = LENGTH_MEASURE_WITH_UNIT ( LENGTH_MEASURE( 0.02539999999999999897 ), #119 );
#308 = DIMENSIONAL_EXPONENTS ( 1.000000000000000000, 0.000000000000000000, 0.000000000000000000, 0.000000000000000000, 0.000000000000000000, 0.000000000000000000, 0.000000000000000000 ) ;
#309 = CYLINDRICAL_SURFACE ( 'NONE', #121, 0.2500000000000000000 ) ;
ENDSEC;
END-ISO-10303-21;
