ISO-10303-21;
HEADER;
FILE_DESCRIPTION (( 'STEP AP214' ),
    '1' );
FILE_NAME ('03060.STEP',
    '2023-06-22T14:53:30',
    ( '' ),
    ( '' ),
    'SwSTEP 2.0',
    'SolidWorks 2023',
    '' );
FILE_SCHEMA (( 'AUTOMOTIVE_DESIGN' ));
ENDSEC;

DATA;
#1 = FILL_AREA_STYLE_COLOUR ( '', #228 ) ;
#2 = DIRECTION ( 'NONE',  ( -3.498990854706722745E-17, 1.000000000000000000, -0.000000000000000000 ) ) ;
#3 = DIMENSIONAL_EXPONENTS ( 1.000000000000000000, 0.000000000000000000, 0.000000000000000000, 0.000000000000000000, 0.000000000000000000, 0.000000000000000000, 0.000000000000000000 ) ;
#4 = LENGTH_MEASURE_WITH_UNIT ( LENGTH_MEASURE( 0.02539999999999999897 ), #19 );
#5 = PRESENTATION_STYLE_ASSIGNMENT (( #307 ) ) ;
#6 = SURFACE_SIDE_STYLE ('',( #136 ) ) ;
#7 = ORIENTED_EDGE ( 'NONE', *, *, #232, .T. ) ;
#8 = AXIS2_PLACEMENT_3D ( 'NONE', #72, #2, #173 ) ;
#9 = DIRECTION ( 'NONE',  ( -1.000000000000000000, 0.000000000000000000, 0.000000000000000000 ) ) ;
#10 = PRESENTATION_STYLE_ASSIGNMENT (( #130 ) ) ;
#11 = EDGE_LOOP ( 'NONE', ( #129, #36, #206, #298 ) ) ;
#12 = COLOUR_RGB ( '',1.000000000000000000, 0.000000000000000000, 0.000000000000000000 ) ;
#13 = APPLICATION_CONTEXT ( 'automotive_design' ) ;
#14 = FACE_OUTER_BOUND ( 'NONE', #92, .T. ) ;
#15 = UNCERTAINTY_MEASURE_WITH_UNIT (LENGTH_MEASURE( 1.000000000000000082E-05 ), #205, 'distance_accuracy_value', 'NONE');
#16 = VECTOR ( 'NONE', #187, 39.37007874015748143 ) ;
#17 = SURFACE_SIDE_STYLE ('',( #144 ) ) ;
#18 = AXIS2_PLACEMENT_3D ( 'NONE', #171, #26, #260 ) ;
#19 =( LENGTH_UNIT ( ) NAMED_UNIT ( * ) SI_UNIT ( $, .METRE. ) );
#20 = FILL_AREA_STYLE ('',( #1 ) ) ;
#21 = SURFACE_STYLE_USAGE ( .BOTH. , #121 ) ;
#22 = DIMENSIONAL_EXPONENTS ( 1.000000000000000000, 0.000000000000000000, 0.000000000000000000, 0.000000000000000000, 0.000000000000000000, 0.000000000000000000, 0.000000000000000000 ) ;
#23 =( NAMED_UNIT ( * ) PLANE_ANGLE_UNIT ( ) SI_UNIT ( $, .RADIAN. ) );
#24 = DIRECTION ( 'NONE',  ( -0.000000000000000000, -1.000000000000000000, -0.000000000000000000 ) ) ;
#25 =( GEOMETRIC_REPRESENTATION_CONTEXT ( 3 ) GLOBAL_UNCERTAINTY_ASSIGNED_CONTEXT ( ( #304 ) ) GLOBAL_UNIT_ASSIGNED_CONTEXT ( ( #119, #286, #146 ) ) REPRESENTATION_CONTEXT ( 'NONE', 'WORKASPACE' ) );
#26 = DIRECTION ( 'NONE',  ( -3.498990854706722745E-17, 1.000000000000000000, 0.000000000000000000 ) ) ;
#27 = AXIS2_PLACEMENT_3D ( 'NONE', #198, #101, #174 ) ;
#28 = FACE_OUTER_BOUND ( 'NONE', #159, .T. ) ;
#29 = FILL_AREA_STYLE ('',( #56 ) ) ;
#30 =( NAMED_UNIT ( * ) SI_UNIT ( $, .STERADIAN. ) SOLID_ANGLE_UNIT ( ) );
#31 = DIRECTION ( 'NONE',  ( -3.498990854706722745E-17, 1.000000000000000000, -0.000000000000000000 ) ) ;
#32 = VERTEX_POINT ( 'NONE', #204 ) ;
#33 = APPLICATION_CONTEXT ( 'automotive_design' ) ;
#34 = EDGE_LOOP ( 'NONE', ( #7, #61 ) ) ;
#35 = CARTESIAN_POINT ( 'NONE',  ( 0.000000000000000000, 0.000000000000000000, 0.000000000000000000 ) ) ;
#36 = ORIENTED_EDGE ( 'NONE', *, *, #172, .T. ) ;
#37 = EDGE_LOOP ( 'NONE', ( #132, #249 ) ) ;
#38 = FILL_AREA_STYLE ('',( #227 ) ) ;
#39 = MECHANICAL_DESIGN_GEOMETRIC_PRESENTATION_REPRESENTATION (  '', ( #176 ), #149 ) ;
#40 = LINE ( 'NONE', #140, #16 ) ;
#41 = AXIS2_PLACEMENT_3D ( 'NONE', #139, #191, #233 ) ;
#42 = LENGTH_MEASURE_WITH_UNIT ( LENGTH_MEASURE( 0.02539999999999999897 ), #279 );
#43 = DIRECTION ( 'NONE',  ( -1.000000000000000000, 0.000000000000000000, 0.000000000000000000 ) ) ;
#44 = CARTESIAN_POINT ( 'NONE',  ( 0.000000000000000000, 0.000000000000000000, 0.000000000000000000 ) ) ;
#45 = COLOUR_RGB ( '',0.7921568627450980005, 0.8196078431372548767, 0.9333333333333333481 ) ;
#46 = SHAPE_DEFINITION_REPRESENTATION ( #68, #282 ) ;
#47 = DIRECTION ( 'NONE',  ( -3.498990854706722745E-17, 1.000000000000000000, -0.000000000000000000 ) ) ;
#48 = DIRECTION ( 'NONE',  ( 0.000000000000000000, 0.000000000000000000, -1.000000000000000000 ) ) ;
#49 = DIRECTION ( 'NONE',  ( -0.000000000000000000, -1.000000000000000000, -0.000000000000000000 ) ) ;
#50 = LINE ( 'NONE', #145, #143 ) ;
#51 = DIMENSIONAL_EXPONENTS ( 1.000000000000000000, 0.000000000000000000, 0.000000000000000000, 0.000000000000000000, 0.000000000000000000, 0.000000000000000000, 0.000000000000000000 ) ;
#52 = PRODUCT_DEFINITION_CONTEXT ( 'detailed design', #33, 'design' ) ;
#53 =( CONVERSION_BASED_UNIT ( 'INCH', #104 ) LENGTH_UNIT ( ) NAMED_UNIT ( #290 ) );
#54 = PRESENTATION_STYLE_ASSIGNMENT (( #21 ) ) ;
#55 = FACE_OUTER_BOUND ( 'NONE', #37, .T. ) ;
#56 = FILL_AREA_STYLE_COLOUR ( '', #74 ) ;
#57 = SURFACE_SIDE_STYLE ('',( #246 ) ) ;
#58 = PLANE ( 'NONE',  #258 ) ;
#59 = ORIENTED_EDGE ( 'NONE', *, *, #77, .F. ) ;
#60 = DIRECTION ( 'NONE',  ( -0.000000000000000000, -1.000000000000000000, -0.000000000000000000 ) ) ;
#61 = ORIENTED_EDGE ( 'NONE', *, *, #297, .T. ) ;
#62 = CIRCLE ( 'NONE', #211, 0.06250000000000005551 ) ;
#63 = CIRCLE ( 'NONE', #27, 0.06250000000000000000 ) ;
#64 = CYLINDRICAL_SURFACE ( 'NONE', #224, 0.06250000000000001388 ) ;
#65 = COLOUR_RGB ( '',0.7921568627450980005, 0.8196078431372548767, 0.9333333333333333481 ) ;
#66 = EDGE_CURVE ( 'NONE', #113, #296, #90, .T. ) ;
#67 = ADVANCED_FACE ( 'NONE', ( #183 ), #64, .T. ) ;
#68 = PRODUCT_DEFINITION_SHAPE ( 'NONE', 'NONE',  #259 ) ;
#69 = UNCERTAINTY_MEASURE_WITH_UNIT (LENGTH_MEASURE( 1.000000000000000082E-05 ), #76, 'distance_accuracy_value', 'NONE');
#70 =( GEOMETRIC_REPRESENTATION_CONTEXT ( 3 ) GLOBAL_UNCERTAINTY_ASSIGNED_CONTEXT ( ( #277 ) ) GLOBAL_UNIT_ASSIGNED_CONTEXT ( ( #53, #254, #78 ) ) REPRESENTATION_CONTEXT ( 'NONE', 'WORKASPACE' ) );
#71 = DIRECTION ( 'NONE',  ( 0.000000000000000000, 0.000000000000000000, -1.000000000000000000 ) ) ;
#72 = CARTESIAN_POINT ( 'NONE',  ( -6.123233995736766036E-17, 2.500000000000000000, 0.000000000000000000 ) ) ;
#73 = DIRECTION ( 'NONE',  ( 0.000000000000000000, 0.000000000000000000, -1.000000000000000000 ) ) ;
#74 = COLOUR_RGB ( '',1.000000000000000000, 0.000000000000000000, 0.000000000000000000 ) ;
#75 = PRESENTATION_STYLE_ASSIGNMENT (( #166 ) ) ;
#76 =( CONVERSION_BASED_UNIT ( 'INCH', #242 ) LENGTH_UNIT ( ) NAMED_UNIT ( #168 ) );
#77 = EDGE_CURVE ( 'NONE', #184, #32, #62, .T. ) ;
#78 =( NAMED_UNIT ( * ) SI_UNIT ( $, .STERADIAN. ) SOLID_ANGLE_UNIT ( ) );
#79 = LINE ( 'NONE', #126, #231 ) ;
#80 = SURFACE_STYLE_FILL_AREA ( #289 ) ;
#81 = AXIS2_PLACEMENT_3D ( 'NONE', #44, #252, #138 ) ;
#82 = DIRECTION ( 'NONE',  ( 3.498990854706722745E-17, -1.000000000000000000, 0.000000000000000000 ) ) ;
#83 = PRODUCT_RELATED_PRODUCT_CATEGORY ( 'part', '', ( #257 ) ) ;
#84 = CARTESIAN_POINT ( 'NONE',  ( -0.06250000000000000000, 0.7499999999999998890, 0.000000000000000000 ) ) ;
#85 = EDGE_LOOP ( 'NONE', ( #158, #89 ) ) ;
#86 = ORIENTED_EDGE ( 'NONE', *, *, #239, .F. ) ;
#87 =( NAMED_UNIT ( * ) PLANE_ANGLE_UNIT ( ) SI_UNIT ( $, .RADIAN. ) );
#88 = ADVANCED_FACE ( 'NONE', ( #14 ), #117, .F. ) ;
#89 = ORIENTED_EDGE ( 'NONE', *, *, #77, .T. ) ;
#90 = CIRCLE ( 'NONE', #156, 0.06250000000000000000 ) ;
#91 = MECHANICAL_DESIGN_GEOMETRIC_PRESENTATION_REPRESENTATION (  '', ( #288 ), #160 ) ;
#92 = EDGE_LOOP ( 'NONE', ( #86, #182 ) ) ;
#93 = CARTESIAN_POINT ( 'NONE',  ( 0.000000000000000000, 0.000000000000000000, 0.000000000000000000 ) ) ;
#94 = APPLICATION_PROTOCOL_DEFINITION ( 'draft international standard', 'automotive_design', 1998, #13 ) ;
#95 = AXIS2_PLACEMENT_3D ( 'NONE', #261, #24, #71 ) ;
#96 = CARTESIAN_POINT ( 'NONE',  ( 0.000000000000000000, 0.7500000000000001110, 0.000000000000000000 ) ) ;
#97 = MANIFOLD_SOLID_BREP ( 'Revolve - Tool Body (Straight Shanked)', #102 ) ;
#98 = MANIFOLD_SOLID_BREP ( 'Revolve - Cutting Edge', #186 ) ;
#99 =( LENGTH_UNIT ( ) NAMED_UNIT ( * ) SI_UNIT ( $, .METRE. ) );
#100 = UNCERTAINTY_MEASURE_WITH_UNIT (LENGTH_MEASURE( 1.000000000000000082E-05 ), #137, 'distance_accuracy_value', 'NONE');
#101 = DIRECTION ( 'NONE',  ( -3.498990854706722745E-17, 1.000000000000000000, -0.000000000000000000 ) ) ;
#102 = CLOSED_SHELL ( 'NONE', ( #153, #88, #226, #178 ) ) ;
#103 = AXIS2_PLACEMENT_3D ( 'NONE', #35, #60, #291 ) ;
#104 = LENGTH_MEASURE_WITH_UNIT ( LENGTH_MEASURE( 0.02539999999999999897 ), #142 );
#105 = FILL_AREA_STYLE ('',( #234 ) ) ;
#106 = CARTESIAN_POINT ( 'NONE',  ( 0.06250000000000000000, 2.500000000000000000, 0.000000000000000000 ) ) ;
#107 = SURFACE_STYLE_USAGE ( .BOTH. , #6 ) ;
#108 = DIRECTION ( 'NONE',  ( 0.000000000000000000, -0.000000000000000000, 1.000000000000000000 ) ) ;
#109 = PRESENTATION_LAYER_ASSIGNMENT (  '', '', ( #162 ) ) ;
#110 = VERTEX_POINT ( 'NONE', #169 ) ;
#111 = ORIENTED_EDGE ( 'NONE', *, *, #120, .T. ) ;
#112 =( LENGTH_UNIT ( ) NAMED_UNIT ( * ) SI_UNIT ( $, .METRE. ) );
#113 = VERTEX_POINT ( 'NONE', #264 ) ;
#114 = AXIS2_PLACEMENT_3D ( 'NONE', #195, #240, #73 ) ;
#115 = VERTEX_POINT ( 'NONE', #122 ) ;
#116 = LENGTH_MEASURE_WITH_UNIT ( LENGTH_MEASURE( 0.02539999999999999897 ), #278 );
#117 = PLANE ( 'NONE',  #18 ) ;
#118 =( GEOMETRIC_REPRESENTATION_CONTEXT ( 3 ) GLOBAL_UNCERTAINTY_ASSIGNED_CONTEXT ( ( #100 ) ) GLOBAL_UNIT_ASSIGNED_CONTEXT ( ( #137, #281, #306 ) ) REPRESENTATION_CONTEXT ( 'NONE', 'WORKASPACE' ) );
#119 =( CONVERSION_BASED_UNIT ( 'INCH', #165 ) LENGTH_UNIT ( ) NAMED_UNIT ( #22 ) );
#120 = EDGE_CURVE ( 'NONE', #115, #245, #283, .T. ) ;
#121 = SURFACE_SIDE_STYLE ('',( #80 ) ) ;
#122 = CARTESIAN_POINT ( 'NONE',  ( 0.000000000000000000, 0.7500000000000001110, -0.06250000000000000000 ) ) ;
#123 = DIMENSIONAL_EXPONENTS ( 1.000000000000000000, 0.000000000000000000, 0.000000000000000000, 0.000000000000000000, 0.000000000000000000, 0.000000000000000000, 0.000000000000000000 ) ;
#124 = CIRCLE ( 'NONE', #236, 0.06250000000000001388 ) ;
#125 = SURFACE_STYLE_FILL_AREA ( #105 ) ;
#126 = CARTESIAN_POINT ( 'NONE',  ( 7.654042494670959086E-18, 0.000000000000000000, 0.06250000000000001388 ) ) ;
#127 = SURFACE_SIDE_STYLE ('',( #201 ) ) ;
#128 = CARTESIAN_POINT ( 'NONE',  ( 0.06250000000000000000, 2.500000000000000000, 7.654042494670963708E-18 ) ) ;
#129 = ORIENTED_EDGE ( 'NONE', *, *, #239, .T. ) ;
#130 = SURFACE_STYLE_USAGE ( .BOTH. , #57 ) ;
#131 = CIRCLE ( 'NONE', #303, 0.06250000000000005551 ) ;
#132 = ORIENTED_EDGE ( 'NONE', *, *, #134, .F. ) ;
#133 = ORIENTED_EDGE ( 'NONE', *, *, #134, .T. ) ;
#134 = EDGE_CURVE ( 'NONE', #115, #110, #294, .T. ) ;
#135 = EDGE_LOOP ( 'NONE', ( #180, #247, #111, #223 ) ) ;
#136 = SURFACE_STYLE_FILL_AREA ( #38 ) ;
#137 =( CONVERSION_BASED_UNIT ( 'INCH', #116 ) LENGTH_UNIT ( ) NAMED_UNIT ( #3 ) );
#138 = DIRECTION ( 'NONE',  ( 1.000000000000000000, 0.000000000000000000, 0.000000000000000000 ) ) ;
#139 = CARTESIAN_POINT ( 'NONE',  ( 0.000000000000000000, 0.000000000000000000, 0.000000000000000000 ) ) ;
#140 = CARTESIAN_POINT ( 'NONE',  ( -0.06250000000000009714, 2.500000000000000000, 0.000000000000000000 ) ) ;
#141 =( NAMED_UNIT ( * ) PLANE_ANGLE_UNIT ( ) SI_UNIT ( $, .RADIAN. ) );
#142 =( LENGTH_UNIT ( ) NAMED_UNIT ( * ) SI_UNIT ( $, .METRE. ) );
#143 = VECTOR ( 'NONE', #196, 39.37007874015748143 ) ;
#144 = SURFACE_STYLE_FILL_AREA ( #20 ) ;
#145 = CARTESIAN_POINT ( 'NONE',  ( 0.06249999999999997224, 2.500000000000000000, 7.654042494670960626E-18 ) ) ;
#146 =( NAMED_UNIT ( * ) SI_UNIT ( $, .STERADIAN. ) SOLID_ANGLE_UNIT ( ) );
#147 =( NAMED_UNIT ( * ) PLANE_ANGLE_UNIT ( ) SI_UNIT ( $, .RADIAN. ) );
#148 = CYLINDRICAL_SURFACE ( 'NONE', #95, 0.06250000000000001388 ) ;
#149 =( GEOMETRIC_REPRESENTATION_CONTEXT ( 3 ) GLOBAL_UNCERTAINTY_ASSIGNED_CONTEXT ( ( #199 ) ) GLOBAL_UNIT_ASSIGNED_CONTEXT ( ( #194, #23, #308 ) ) REPRESENTATION_CONTEXT ( 'NONE', 'WORKASPACE' ) );
#150 = DIRECTION ( 'NONE',  ( 1.000000000000000000, 3.498990854706722745E-17, 0.000000000000000000 ) ) ;
#151 = FACE_OUTER_BOUND ( 'NONE', #85, .T. ) ;
#152 = ORIENTED_EDGE ( 'NONE', *, *, #120, .F. ) ;
#153 = ADVANCED_FACE ( 'NONE', ( #175 ), #285, .T. ) ;
#154 = DIRECTION ( 'NONE',  ( -3.498990854706722745E-17, 1.000000000000000000, -0.000000000000000000 ) ) ;
#155 = PLANE ( 'NONE',  #41 ) ;
#156 = AXIS2_PLACEMENT_3D ( 'NONE', #250, #154, #9 ) ;
#157 = CARTESIAN_POINT ( 'NONE',  ( 0.000000000000000000, 0.7500000000000001110, 0.000000000000000000 ) ) ;
#158 = ORIENTED_EDGE ( 'NONE', *, *, #190, .T. ) ;
#159 = EDGE_LOOP ( 'NONE', ( #209, #268, #299, #59 ) ) ;
#160 =( GEOMETRIC_REPRESENTATION_CONTEXT ( 3 ) GLOBAL_UNCERTAINTY_ASSIGNED_CONTEXT ( ( #69 ) ) GLOBAL_UNIT_ASSIGNED_CONTEXT ( ( #76, #147, #167 ) ) REPRESENTATION_CONTEXT ( 'NONE', 'WORKASPACE' ) );
#161 = DIRECTION ( 'NONE',  ( -3.498990854706722745E-17, 1.000000000000000000, -0.000000000000000000 ) ) ;
#162 = STYLED_ITEM ( 'NONE', ( #202 ), #67 ) ;
#163 = AXIS2_PLACEMENT_3D ( 'NONE', #255, #47, #200 ) ;
#164 = DIRECTION ( 'NONE',  ( 0.000000000000000000, 0.000000000000000000, -1.000000000000000000 ) ) ;
#165 = LENGTH_MEASURE_WITH_UNIT ( LENGTH_MEASURE( 0.02539999999999999897 ), #214 );
#166 = SURFACE_STYLE_USAGE ( .BOTH. , #256 ) ;
#167 =( NAMED_UNIT ( * ) SI_UNIT ( $, .STERADIAN. ) SOLID_ANGLE_UNIT ( ) );
#168 = DIMENSIONAL_EXPONENTS ( 1.000000000000000000, 0.000000000000000000, 0.000000000000000000, 0.000000000000000000, 0.000000000000000000, 0.000000000000000000, 0.000000000000000000 ) ;
#169 = CARTESIAN_POINT ( 'NONE',  ( 7.654042494670959086E-18, 0.7500000000000001110, 0.06250000000000000000 ) ) ;
#170 = STYLED_ITEM ( 'NONE', ( #75 ), #97 ) ;
#171 = CARTESIAN_POINT ( 'NONE',  ( 3.825917812912900435E-35, 0.7500000000000001110, 0.000000000000000000 ) ) ;
#172 = EDGE_CURVE ( 'NONE', #113, #184, #50, .T. ) ;
#173 = DIRECTION ( 'NONE',  ( -1.000000000000000000, 0.000000000000000000, 0.000000000000000000 ) ) ;
#174 = DIRECTION ( 'NONE',  ( -1.000000000000000000, 0.000000000000000000, 0.000000000000000000 ) ) ;
#175 = FACE_OUTER_BOUND ( 'NONE', #11, .T. ) ;
#176 = STYLED_ITEM ( 'NONE', ( #54 ), #98 ) ;
#177 = PRESENTATION_STYLE_ASSIGNMENT (( #292 ) ) ;
#178 = ADVANCED_FACE ( 'NONE', ( #151 ), #58, .F. ) ;
#179 = FACE_OUTER_BOUND ( 'NONE', #34, .T. ) ;
#180 = ORIENTED_EDGE ( 'NONE', *, *, #230, .F. ) ;
#181 = DIRECTION ( 'NONE',  ( 0.000000000000000000, 1.000000000000000000, 0.000000000000000000 ) ) ;
#182 = ORIENTED_EDGE ( 'NONE', *, *, #66, .F. ) ;
#183 = FACE_OUTER_BOUND ( 'NONE', #225, .T. ) ;
#184 = VERTEX_POINT ( 'NONE', #128 ) ;
#185 = DIRECTION ( 'NONE',  ( -0.000000000000000000, -1.000000000000000000, -0.000000000000000000 ) ) ;
#186 = CLOSED_SHELL ( 'NONE', ( #67, #276, #203, #305 ) ) ;
#187 = DIRECTION ( 'NONE',  ( -3.498990854706722745E-17, 1.000000000000000000, -0.000000000000000000 ) ) ;
#188 = UNCERTAINTY_MEASURE_WITH_UNIT (LENGTH_MEASURE( 1.000000000000000082E-05 ), #302, 'distance_accuracy_value', 'NONE');
#189 = PRODUCT_CONTEXT ( 'NONE', #13, 'mechanical' ) ;
#190 = EDGE_CURVE ( 'NONE', #32, #184, #131, .T. ) ;
#191 = DIRECTION ( 'NONE',  ( 0.000000000000000000, -1.000000000000000000, -0.000000000000000000 ) ) ;
#192 = CIRCLE ( 'NONE', #103, 0.06250000000000001388 ) ;
#193 = DIMENSIONAL_EXPONENTS ( 1.000000000000000000, 0.000000000000000000, 0.000000000000000000, 0.000000000000000000, 0.000000000000000000, 0.000000000000000000, 0.000000000000000000 ) ;
#194 =( CONVERSION_BASED_UNIT ( 'INCH', #4 ) LENGTH_UNIT ( ) NAMED_UNIT ( #123 ) );
#195 = CARTESIAN_POINT ( 'NONE',  ( 0.000000000000000000, 0.7500000000000001110, 0.000000000000000000 ) ) ;
#196 = DIRECTION ( 'NONE',  ( -3.498990854706722745E-17, 1.000000000000000000, -0.000000000000000000 ) ) ;
#197 = PRESENTATION_LAYER_ASSIGNMENT (  '', '', ( #288 ) ) ;
#198 = CARTESIAN_POINT ( 'NONE',  ( -7.582401355855259480E-33, 0.7499999999999998890, 0.000000000000000000 ) ) ;
#199 = UNCERTAINTY_MEASURE_WITH_UNIT (LENGTH_MEASURE( 1.000000000000000082E-05 ), #194, 'distance_accuracy_value', 'NONE');
#200 = DIRECTION ( 'NONE',  ( -1.000000000000000000, 0.000000000000000000, 0.000000000000000000 ) ) ;
#201 = SURFACE_STYLE_FILL_AREA ( #29 ) ;
#202 = PRESENTATION_STYLE_ASSIGNMENT (( #107 ) ) ;
#203 = ADVANCED_FACE ( 'NONE', ( #244 ), #148, .T. ) ;
#204 = CARTESIAN_POINT ( 'NONE',  ( -0.06250000000000012490, 2.500000000000000000, 0.000000000000000000 ) ) ;
#205 =( CONVERSION_BASED_UNIT ( 'INCH', #208 ) LENGTH_UNIT ( ) NAMED_UNIT ( #51 ) );
#206 = ORIENTED_EDGE ( 'NONE', *, *, #190, .F. ) ;
#207 = AXIS2_PLACEMENT_3D ( 'NONE', #157, #181, #108 ) ;
#208 = LENGTH_MEASURE_WITH_UNIT ( LENGTH_MEASURE( 0.02539999999999999897 ), #112 );
#209 = ORIENTED_EDGE ( 'NONE', *, *, #172, .F. ) ;
#210 = MECHANICAL_DESIGN_GEOMETRIC_PRESENTATION_REPRESENTATION (  '', ( #162 ), #118 ) ;
#211 = AXIS2_PLACEMENT_3D ( 'NONE', #274, #161, #43 ) ;
#212 = CIRCLE ( 'NONE', #114, 0.06250000000000000000 ) ;
#213 = DIRECTION ( 'NONE',  ( -0.000000000000000000, -1.000000000000000000, -0.000000000000000000 ) ) ;
#214 =( LENGTH_UNIT ( ) NAMED_UNIT ( * ) SI_UNIT ( $, .METRE. ) );
#215 = CARTESIAN_POINT ( 'NONE',  ( 0.000000000000000000, 0.000000000000000000, -0.06250000000000001388 ) ) ;
#216 = EDGE_CURVE ( 'NONE', #110, #115, #212, .T. ) ;
#217 = PLANE ( 'NONE',  #207 ) ;
#218 = DIRECTION ( 'NONE',  ( -0.000000000000000000, -1.000000000000000000, -0.000000000000000000 ) ) ;
#219 = PRESENTATION_LAYER_ASSIGNMENT (  '', '', ( #170 ) ) ;
#220 = PRESENTATION_LAYER_ASSIGNMENT (  '', '', ( #293 ) ) ;
#221 = CARTESIAN_POINT ( 'NONE',  ( 0.000000000000000000, 0.000000000000000000, 0.000000000000000000 ) ) ;
#222 = CARTESIAN_POINT ( 'NONE',  ( -6.123233995736766036E-17, 2.500000000000000000, 0.000000000000000000 ) ) ;
#223 = ORIENTED_EDGE ( 'NONE', *, *, #297, .F. ) ;
#224 = AXIS2_PLACEMENT_3D ( 'NONE', #93, #185, #164 ) ;
#225 = EDGE_LOOP ( 'NONE', ( #133, #270, #301, #152 ) ) ;
#226 = ADVANCED_FACE ( 'NONE', ( #28 ), #235, .T. ) ;
#227 = FILL_AREA_STYLE_COLOUR ( '', #253 ) ;
#228 = COLOUR_RGB ( '',1.000000000000000000, 0.000000000000000000, 0.000000000000000000 ) ;
#229 = VECTOR ( 'NONE', #287, 39.37007874015748143 ) ;
#230 = EDGE_CURVE ( 'NONE', #110, #271, #79, .T. ) ;
#231 = VECTOR ( 'NONE', #49, 39.37007874015748143 ) ;
#232 = EDGE_CURVE ( 'NONE', #245, #271, #124, .T. ) ;
#233 = DIRECTION ( 'NONE',  ( 0.000000000000000000, 0.000000000000000000, -1.000000000000000000 ) ) ;
#234 = FILL_AREA_STYLE_COLOUR ( '', #45 ) ;
#235 = CYLINDRICAL_SURFACE ( 'NONE', #163, 0.06250000000000002776 ) ;
#236 = AXIS2_PLACEMENT_3D ( 'NONE', #221, #213, #284 ) ;
#237 = PRESENTATION_LAYER_ASSIGNMENT (  '', '', ( #176 ) ) ;
#238 = CARTESIAN_POINT ( 'NONE',  ( 0.000000000000000000, 0.000000000000000000, -0.06250000000000001388 ) ) ;
#239 = EDGE_CURVE ( 'NONE', #296, #113, #63, .T. ) ;
#240 = DIRECTION ( 'NONE',  ( -0.000000000000000000, -1.000000000000000000, -0.000000000000000000 ) ) ;
#241 = PRODUCT_DEFINITION_FORMATION_WITH_SPECIFIED_SOURCE ( 'ANY', '', #257, .NOT_KNOWN. ) ;
#242 = LENGTH_MEASURE_WITH_UNIT ( LENGTH_MEASURE( 0.02539999999999999897 ), #99 );
#243 = DIRECTION ( 'NONE',  ( -1.000000000000000000, 0.000000000000000000, 0.000000000000000000 ) ) ;
#244 = FACE_OUTER_BOUND ( 'NONE', #135, .T. ) ;
#245 = VERTEX_POINT ( 'NONE', #238 ) ;
#246 = SURFACE_STYLE_FILL_AREA ( #267 ) ;
#247 = ORIENTED_EDGE ( 'NONE', *, *, #216, .T. ) ;
#248 = FILL_AREA_STYLE_COLOUR ( '', #12 ) ;
#249 = ORIENTED_EDGE ( 'NONE', *, *, #216, .F. ) ;
#250 = CARTESIAN_POINT ( 'NONE',  ( -7.582401355855259480E-33, 0.7499999999999998890, 0.000000000000000000 ) ) ;
#251 = MECHANICAL_DESIGN_GEOMETRIC_PRESENTATION_REPRESENTATION (  '', ( #170 ), #70 ) ;
#252 = DIRECTION ( 'NONE',  ( 0.000000000000000000, 0.000000000000000000, 1.000000000000000000 ) ) ;
#253 = COLOUR_RGB ( '',1.000000000000000000, 0.000000000000000000, 0.000000000000000000 ) ;
#254 =( NAMED_UNIT ( * ) PLANE_ANGLE_UNIT ( ) SI_UNIT ( $, .RADIAN. ) );
#255 = CARTESIAN_POINT ( 'NONE',  ( -6.123233995736766036E-17, 2.500000000000000000, 0.000000000000000000 ) ) ;
#256 = SURFACE_SIDE_STYLE ('',( #125 ) ) ;
#257 = PRODUCT ( '03060', '03060', '', ( #189 ) ) ;
#258 = AXIS2_PLACEMENT_3D ( 'NONE', #106, #82, #150 ) ;
#259 = PRODUCT_DEFINITION ( 'UNKNOWN', '', #241, #52 ) ;
#260 = DIRECTION ( 'NONE',  ( -1.000000000000000000, -3.498990854706722745E-17, 0.000000000000000000 ) ) ;
#261 = CARTESIAN_POINT ( 'NONE',  ( 0.000000000000000000, 0.000000000000000000, 0.000000000000000000 ) ) ;
#262 = FILL_AREA_STYLE_COLOUR ( '', #65 ) ;
#263 = CARTESIAN_POINT ( 'NONE',  ( 7.654042494670960626E-18, 0.000000000000000000, 0.06250000000000002776 ) ) ;
#264 = CARTESIAN_POINT ( 'NONE',  ( 0.06250000000000000000, 0.7499999999999998890, 7.654042494670963708E-18 ) ) ;
#265 =( GEOMETRIC_REPRESENTATION_CONTEXT ( 3 ) GLOBAL_UNCERTAINTY_ASSIGNED_CONTEXT ( ( #15 ) ) GLOBAL_UNIT_ASSIGNED_CONTEXT ( ( #205, #87, #30 ) ) REPRESENTATION_CONTEXT ( 'NONE', 'WORKASPACE' ) );
#266 =( GEOMETRIC_REPRESENTATION_CONTEXT ( 3 ) GLOBAL_UNCERTAINTY_ASSIGNED_CONTEXT ( ( #188 ) ) GLOBAL_UNIT_ASSIGNED_CONTEXT ( ( #302, #141, #272 ) ) REPRESENTATION_CONTEXT ( 'NONE', 'WORKASPACE' ) );
#267 = FILL_AREA_STYLE ('',( #248 ) ) ;
#268 = ORIENTED_EDGE ( 'NONE', *, *, #66, .T. ) ;
#269 = PRESENTATION_LAYER_ASSIGNMENT (  '', '', ( #295 ) ) ;
#270 = ORIENTED_EDGE ( 'NONE', *, *, #230, .T. ) ;
#271 = VERTEX_POINT ( 'NONE', #263 ) ;
#272 =( NAMED_UNIT ( * ) SI_UNIT ( $, .STERADIAN. ) SOLID_ANGLE_UNIT ( ) );
#273 = AXIS2_PLACEMENT_3D ( 'NONE', #96, #218, #48 ) ;
#274 = CARTESIAN_POINT ( 'NONE',  ( -6.123233995736766036E-17, 2.500000000000000000, 0.000000000000000000 ) ) ;
#275 = APPLICATION_PROTOCOL_DEFINITION ( 'draft international standard', 'automotive_design', 1998, #33 ) ;
#276 = ADVANCED_FACE ( 'NONE', ( #55 ), #217, .T. ) ;
#277 = UNCERTAINTY_MEASURE_WITH_UNIT (LENGTH_MEASURE( 1.000000000000000082E-05 ), #53, 'distance_accuracy_value', 'NONE');
#278 =( LENGTH_UNIT ( ) NAMED_UNIT ( * ) SI_UNIT ( $, .METRE. ) );
#279 =( LENGTH_UNIT ( ) NAMED_UNIT ( * ) SI_UNIT ( $, .METRE. ) );
#280 = MECHANICAL_DESIGN_GEOMETRIC_PRESENTATION_REPRESENTATION (  '', ( #293 ), #25 ) ;
#281 =( NAMED_UNIT ( * ) PLANE_ANGLE_UNIT ( ) SI_UNIT ( $, .RADIAN. ) );
#282 = ADVANCED_BREP_SHAPE_REPRESENTATION ( '03060', ( #98, #97, #81 ), #266 ) ;
#283 = LINE ( 'NONE', #215, #229 ) ;
#284 = DIRECTION ( 'NONE',  ( 0.000000000000000000, 0.000000000000000000, -1.000000000000000000 ) ) ;
#285 = CYLINDRICAL_SURFACE ( 'NONE', #8, 0.06250000000000002776 ) ;
#286 =( NAMED_UNIT ( * ) PLANE_ANGLE_UNIT ( ) SI_UNIT ( $, .RADIAN. ) );
#287 = DIRECTION ( 'NONE',  ( -0.000000000000000000, -1.000000000000000000, -0.000000000000000000 ) ) ;
#288 = STYLED_ITEM ( 'NONE', ( #177 ), #203 ) ;
#289 = FILL_AREA_STYLE ('',( #262 ) ) ;
#290 = DIMENSIONAL_EXPONENTS ( 1.000000000000000000, 0.000000000000000000, 0.000000000000000000, 0.000000000000000000, 0.000000000000000000, 0.000000000000000000, 0.000000000000000000 ) ;
#291 = DIRECTION ( 'NONE',  ( 0.000000000000000000, 0.000000000000000000, -1.000000000000000000 ) ) ;
#292 = SURFACE_STYLE_USAGE ( .BOTH. , #127 ) ;
#293 = STYLED_ITEM ( 'NONE', ( #5 ), #276 ) ;
#294 = CIRCLE ( 'NONE', #273, 0.06250000000000000000 ) ;
#295 = STYLED_ITEM ( 'NONE', ( #10 ), #305 ) ;
#296 = VERTEX_POINT ( 'NONE', #84 ) ;
#297 = EDGE_CURVE ( 'NONE', #271, #245, #192, .T. ) ;
#298 = ORIENTED_EDGE ( 'NONE', *, *, #309, .F. ) ;
#299 = ORIENTED_EDGE ( 'NONE', *, *, #309, .T. ) ;
#300 = MECHANICAL_DESIGN_GEOMETRIC_PRESENTATION_REPRESENTATION (  '', ( #295 ), #265 ) ;
#301 = ORIENTED_EDGE ( 'NONE', *, *, #232, .F. ) ;
#302 =( CONVERSION_BASED_UNIT ( 'INCH', #42 ) LENGTH_UNIT ( ) NAMED_UNIT ( #193 ) );
#303 = AXIS2_PLACEMENT_3D ( 'NONE', #222, #31, #243 ) ;
#304 = UNCERTAINTY_MEASURE_WITH_UNIT (LENGTH_MEASURE( 1.000000000000000082E-05 ), #119, 'distance_accuracy_value', 'NONE');
#305 = ADVANCED_FACE ( 'NONE', ( #179 ), #155, .T. ) ;
#306 =( NAMED_UNIT ( * ) SI_UNIT ( $, .STERADIAN. ) SOLID_ANGLE_UNIT ( ) );
#307 = SURFACE_STYLE_USAGE ( .BOTH. , #17 ) ;
#308 =( NAMED_UNIT ( * ) SI_UNIT ( $, .STERADIAN. ) SOLID_ANGLE_UNIT ( ) );
#309 = EDGE_CURVE ( 'NONE', #296, #32, #40, .T. ) ;
ENDSEC;
END-ISO-10303-21;
