ISO-10303-21;
HEADER;
FILE_DESCRIPTION (( 'STEP AP214' ),
    '1' );
FILE_NAME ('Micro_AEMM-010-4X.STEP',
    '2022-03-15T14:22:36',
    ( '' ),
    ( '' ),
    'SwSTEP 2.0',
    'SolidWorks 2022',
    '' );
FILE_SCHEMA (( 'AUTOMOTIVE_DESIGN' ));
ENDSEC;

DATA;
#1 = CARTESIAN_POINT ( 'NONE',  ( 0.000000000000000000, 0.000000000000000000, 1.953504000000000129 ) ) ;
#2 =( NAMED_UNIT ( * ) SI_UNIT ( $, .STERADIAN. ) SOLID_ANGLE_UNIT ( ) );
#3 = AXIS2_PLACEMENT_3D ( 'NONE', #83, #41, #132 ) ;
#4 = DIRECTION ( 'NONE',  ( -0.1736481776669311639, 2.126576849575782392E-17, 0.9848077530122080203 ) ) ;
#5 = DIRECTION ( 'NONE',  ( -1.000000000000000000, 0.000000000000000000, 0.000000000000000000 ) ) ;
#6 = PRODUCT_DEFINITION_CONTEXT ( 'detailed design', #108, 'design' ) ;
#7 = CARTESIAN_POINT ( 'NONE',  ( 6.031497994593740586E-17, 0.000000000000000000, 0.4925091870401411831 ) ) ;
#8 = AXIS2_PLACEMENT_3D ( 'NONE', #7, #163, #95 ) ;
#9 = DIRECTION ( 'NONE',  ( -1.224646799147353207E-16, -0.000000000000000000, -1.000000000000000000 ) ) ;
#10 = SURFACE_STYLE_FILL_AREA ( #238 ) ;
#11 = FACE_OUTER_BOUND ( 'NONE', #171, .T. ) ;
#12 = AXIS2_PLACEMENT_3D ( 'NONE', #202, #272, #298 ) ;
#13 =( LENGTH_UNIT ( ) NAMED_UNIT ( * ) SI_UNIT ( $, .METRE. ) );
#14 = CARTESIAN_POINT ( 'NONE',  ( 1.928573779297252010E-17, 0.000000000000000000, 0.1574800000000000366 ) ) ;
#15 = CARTESIAN_POINT ( 'NONE',  ( 0.000000000000000000, 0.000000000000000000, 1.968503999999999809 ) ) ;
#16 = EDGE_CURVE ( 'NONE', #213, #74, #242, .T. ) ;
#17 = ORIENTED_EDGE ( 'NONE', *, *, #89, .F. ) ;
#18 = ORIENTED_EDGE ( 'NONE', *, *, #16, .F. ) ;
#19 = CARTESIAN_POINT ( 'NONE',  ( 0.000000000000000000, 0.000000000000000000, 0.000000000000000000 ) ) ;
#20 = CARTESIAN_POINT ( 'NONE',  ( -0.06374000000000018540, 0.000000000000000000, 1.968503999999999809 ) ) ;
#21 = CARTESIAN_POINT ( 'NONE',  ( 0.000000000000000000, 0.000000000000000000, 1.968503999999999809 ) ) ;
#22 =( NAMED_UNIT ( * ) SI_UNIT ( $, .STERADIAN. ) SOLID_ANGLE_UNIT ( ) );
#23 = ADVANCED_FACE ( 'NONE', ( #274 ), #53, .T. ) ;
#24 = CONICAL_SURFACE ( 'NONE', #101, 0.01966531500000001306, 0.1745329251994338360 ) ;
#25 = LINE ( 'NONE', #230, #172 ) ;
#26 = UNCERTAINTY_MEASURE_WITH_UNIT (LENGTH_MEASURE( 1.000000000000000082E-05 ), #286, 'distance_accuracy_value', 'NONE');
#27 = CARTESIAN_POINT ( 'NONE',  ( -0.01966531500000000265, 0.000000000000000000, 4.816613013794886973E-18 ) ) ;
#28 = CARTESIAN_POINT ( 'NONE',  ( 0.000000000000000000, 0.000000000000000000, 1.968503999999999809 ) ) ;
#29 = AXIS2_PLACEMENT_3D ( 'NONE', #61, #154, #291 ) ;
#30 = CARTESIAN_POINT ( 'NONE',  ( 1.928573779297252010E-17, 0.000000000000000000, 0.1574800000000000366 ) ) ;
#31 = VERTEX_POINT ( 'NONE', #106 ) ;
#32 = FACE_OUTER_BOUND ( 'NONE', #241, .T. ) ;
#33 = ADVANCED_FACE ( 'NONE', ( #219 ), #134, .T. ) ;
#34 = DIRECTION ( 'NONE',  ( 1.000000000000000000, 0.000000000000000000, 0.000000000000000000 ) ) ;
#35 = CONICAL_SURFACE ( 'NONE', #210, 0.06374000000000018540, 0.7853981633974522758 ) ;
#36 = ORIENTED_EDGE ( 'NONE', *, *, #214, .F. ) ;
#37 = EDGE_CURVE ( 'NONE', #293, #215, #285, .T. ) ;
#38 = EDGE_LOOP ( 'NONE', ( #178, #239 ) ) ;
#39 = EDGE_LOOP ( 'NONE', ( #82, #166, #174, #80 ) ) ;
#40 = MECHANICAL_DESIGN_GEOMETRIC_PRESENTATION_REPRESENTATION (  '', ( #162 ), #76 ) ;
#41 = DIRECTION ( 'NONE',  ( 0.000000000000000000, 0.000000000000000000, 1.000000000000000000 ) ) ;
#42 = ORIENTED_EDGE ( 'NONE', *, *, #237, .F. ) ;
#43 = EDGE_CURVE ( 'NONE', #74, #169, #139, .T. ) ;
#44 = ORIENTED_EDGE ( 'NONE', *, *, #148, .F. ) ;
#45 = AXIS2_PLACEMENT_3D ( 'NONE', #30, #168, #34 ) ;
#46 = LINE ( 'NONE', #161, #266 ) ;
#47 = ADVANCED_FACE ( 'NONE', ( #65 ), #194, .T. ) ;
#48 =( LENGTH_UNIT ( ) NAMED_UNIT ( * ) SI_UNIT ( $, .METRE. ) );
#49 = AXIS2_PLACEMENT_3D ( 'NONE', #206, #180, #5 ) ;
#50 = CYLINDRICAL_SURFACE ( 'NONE', #297, 0.07874000000000000443 ) ;
#51 = DIRECTION ( 'NONE',  ( -0.000000000000000000, -0.000000000000000000, -1.000000000000000000 ) ) ;
#52 = CARTESIAN_POINT ( 'NONE',  ( 0.000000000000000000, 0.000000000000000000, 1.953504000000000129 ) ) ;
#53 = CONICAL_SURFACE ( 'NONE', #220, 0.06374000000000018540, 0.7853981633974522758 ) ;
#54 =( GEOMETRIC_REPRESENTATION_CONTEXT ( 3 ) GLOBAL_UNCERTAINTY_ASSIGNED_CONTEXT ( ( #207 ) ) GLOBAL_UNIT_ASSIGNED_CONTEXT ( ( #197, #299, #2 ) ) REPRESENTATION_CONTEXT ( 'NONE', 'WORKASPACE' ) );
#55 = ORIENTED_EDGE ( 'NONE', *, *, #37, .T. ) ;
#56 = CARTESIAN_POINT ( 'NONE',  ( -0.01966531499999999225, 6.025587701691850612E-18, 0.1574800000000000366 ) ) ;
#57 = CARTESIAN_POINT ( 'NONE',  ( -0.01966531500000000959, 0.000000000000000000, 2.408306506897444257E-18 ) ) ;
#58 = CIRCLE ( 'NONE', #8, 0.07874000000000000443 ) ;
#59 = EDGE_LOOP ( 'NONE', ( #268, #155, #265, #284 ) ) ;
#60 = DIRECTION ( 'NONE',  ( 0.000000000000000000, 0.000000000000000000, -1.000000000000000000 ) ) ;
#61 = CARTESIAN_POINT ( 'NONE',  ( 0.000000000000000000, 0.000000000000000000, 0.000000000000000000 ) ) ;
#62 = MECHANICAL_DESIGN_GEOMETRIC_PRESENTATION_REPRESENTATION (  '', ( #201 ), #54 ) ;
#63 = EDGE_LOOP ( 'NONE', ( #17, #44, #78, #42 ) ) ;
#64 = EDGE_CURVE ( 'NONE', #260, #263, #85, .T. ) ;
#65 = FACE_OUTER_BOUND ( 'NONE', #218, .T. ) ;
#66 = VECTOR ( 'NONE', #127, 39.37007874015748143 ) ;
#67 = CIRCLE ( 'NONE', #123, 0.07874000000000000443 ) ;
#68 = ADVANCED_FACE ( 'NONE', ( #245 ), #295, .T. ) ;
#69 = DIRECTION ( 'NONE',  ( -1.000000000000000000, 0.000000000000000000, 0.000000000000000000 ) ) ;
#70 = FACE_OUTER_BOUND ( 'NONE', #189, .T. ) ;
#71 = LENGTH_MEASURE_WITH_UNIT ( LENGTH_MEASURE( 0.02539999999999999897 ), #48 );
#72 = FACE_OUTER_BOUND ( 'NONE', #121, .T. ) ;
#73 = LINE ( 'NONE', #57, #204 ) ;
#74 = VERTEX_POINT ( 'NONE', #175 ) ;
#75 = PRODUCT_RELATED_PRODUCT_CATEGORY ( 'part', '', ( #221 ) ) ;
#76 =( GEOMETRIC_REPRESENTATION_CONTEXT ( 3 ) GLOBAL_UNCERTAINTY_ASSIGNED_CONTEXT ( ( #141 ) ) GLOBAL_UNIT_ASSIGNED_CONTEXT ( ( #255, #138, #22 ) ) REPRESENTATION_CONTEXT ( 'NONE', 'WORKASPACE' ) );
#77 = DIRECTION ( 'NONE',  ( -1.000000000000000000, 0.000000000000000000, 0.000000000000000000 ) ) ;
#78 = ORIENTED_EDGE ( 'NONE', *, *, #107, .T. ) ;
#79 = PRESENTATION_STYLE_ASSIGNMENT (( #97 ) ) ;
#80 = ORIENTED_EDGE ( 'NONE', *, *, #107, .F. ) ;
#81 = CIRCLE ( 'NONE', #249, 0.01966531500000001306 ) ;
#82 = ORIENTED_EDGE ( 'NONE', *, *, #64, .F. ) ;
#83 = CARTESIAN_POINT ( 'NONE',  ( 0.000000000000000000, 0.000000000000000000, 1.968503999999999809 ) ) ;
#84 = CARTESIAN_POINT ( 'NONE',  ( 0.000000000000000000, 0.000000000000000000, 1.968503999999999809 ) ) ;
#85 = CIRCLE ( 'NONE', #135, 0.06374000000000018540 ) ;
#86 = CARTESIAN_POINT ( 'NONE',  ( 0.06374000000000018540, 7.805898697765251255E-18, 1.968503999999999809 ) ) ;
#87 = VECTOR ( 'NONE', #256, 39.37007874015748143 ) ;
#88 = EDGE_LOOP ( 'NONE', ( #18, #270, #102, #130 ) ) ;
#89 = EDGE_CURVE ( 'NONE', #260, #223, #199, .T. ) ;
#90 = PRODUCT_CONTEXT ( 'NONE', #136, 'mechanical' ) ;
#91 = DIRECTION ( 'NONE',  ( -1.224646799147353207E-16, -0.000000000000000000, -1.000000000000000000 ) ) ;
#92 = AXIS2_PLACEMENT_3D ( 'NONE', #93, #278, #187 ) ;
#93 = CARTESIAN_POINT ( 'NONE',  ( 0.000000000000000000, 0.000000000000000000, 1.968503999999999809 ) ) ;
#94 = CYLINDRICAL_SURFACE ( 'NONE', #49, 0.07874000000000000443 ) ;
#95 = DIRECTION ( 'NONE',  ( 1.000000000000000000, 0.000000000000000000, 0.000000000000000000 ) ) ;
#96 = VECTOR ( 'NONE', #252, 39.37007874015748854 ) ;
#97 = SURFACE_STYLE_USAGE ( .BOTH. , #122 ) ;
#98 = ADVANCED_FACE ( 'NONE', ( #114 ), #94, .T. ) ;
#99 = DIRECTION ( 'NONE',  ( 1.000000000000000000, 0.000000000000000000, 0.000000000000000000 ) ) ;
#100 = ORIENTED_EDGE ( 'NONE', *, *, #200, .T. ) ;
#101 = AXIS2_PLACEMENT_3D ( 'NONE', #116, #236, #99 ) ;
#102 = ORIENTED_EDGE ( 'NONE', *, *, #229, .T. ) ;
#103 = ORIENTED_EDGE ( 'NONE', *, *, #214, .T. ) ;
#104 = DIRECTION ( 'NONE',  ( 0.000000000000000000, 0.000000000000000000, 1.000000000000000000 ) ) ;
#105 = ADVANCED_BREP_SHAPE_REPRESENTATION ( 'Micro_AEMM-010-4X', ( #124, #222 ), #232 ) ;
#106 = CARTESIAN_POINT ( 'NONE',  ( -0.07874000000000000443, 0.000000000000000000, 1.953504000000000129 ) ) ;
#107 = EDGE_CURVE ( 'NONE', #263, #31, #276, .T. ) ;
#108 = APPLICATION_CONTEXT ( 'automotive_design' ) ;
#109 = ORIENTED_EDGE ( 'NONE', *, *, #183, .F. ) ;
#110 = DIRECTION ( 'NONE',  ( -1.224646799147353207E-16, -0.000000000000000000, -1.000000000000000000 ) ) ;
#111 = PRESENTATION_LAYER_ASSIGNMENT (  '', '', ( #201 ) ) ;
#112 = DIRECTION ( 'NONE',  ( 0.000000000000000000, 0.000000000000000000, -1.000000000000000000 ) ) ;
#113 = DIRECTION ( 'NONE',  ( 0.000000000000000000, 0.000000000000000000, 1.000000000000000000 ) ) ;
#114 = FACE_OUTER_BOUND ( 'NONE', #59, .T. ) ;
#115 = DIRECTION ( 'NONE',  ( -0.000000000000000000, -0.000000000000000000, -1.000000000000000000 ) ) ;
#116 = CARTESIAN_POINT ( 'NONE',  ( 1.928573779297252010E-17, 0.000000000000000000, 0.1574800000000000366 ) ) ;
#117 = DIMENSIONAL_EXPONENTS ( 1.000000000000000000, 0.000000000000000000, 0.000000000000000000, 0.000000000000000000, 0.000000000000000000, 0.000000000000000000, 0.000000000000000000 ) ;
#118 = DIRECTION ( 'NONE',  ( -1.224646799147353207E-16, -0.000000000000000000, -1.000000000000000000 ) ) ;
#119 = ADVANCED_FACE ( 'NONE', ( #72 ), #185, .F. ) ;
#120 = FACE_OUTER_BOUND ( 'NONE', #39, .T. ) ;
#121 = EDGE_LOOP ( 'NONE', ( #247, #224 ) ) ;
#122 = SURFACE_SIDE_STYLE ('',( #10 ) ) ;
#123 = AXIS2_PLACEMENT_3D ( 'NONE', #52, #262, #235 ) ;
#124 = MANIFOLD_SOLID_BREP ( 'Cut-Revolve1', #296 ) ;
#125 = ORIENTED_EDGE ( 'NONE', *, *, #200, .F. ) ;
#126 = EDGE_CURVE ( 'NONE', #223, #293, #46, .T. ) ;
#127 = DIRECTION ( 'NONE',  ( -1.224646799147353207E-16, -0.000000000000000000, -1.000000000000000000 ) ) ;
#128 = PRODUCT_DEFINITION_SHAPE ( 'NONE', 'NONE',  #257 ) ;
#129 = CIRCLE ( 'NONE', #280, 0.01966531500000001306 ) ;
#130 = ORIENTED_EDGE ( 'NONE', *, *, #43, .F. ) ;
#131 = EDGE_CURVE ( 'NONE', #248, #215, #250, .T. ) ;
#132 = DIRECTION ( 'NONE',  ( 1.000000000000000000, 0.000000000000000000, -0.000000000000000000 ) ) ;
#133 = ORIENTED_EDGE ( 'NONE', *, *, #131, .T. ) ;
#134 = CYLINDRICAL_SURFACE ( 'NONE', #181, 0.01966531500000000959 ) ;
#135 = AXIS2_PLACEMENT_3D ( 'NONE', #15, #104, #196 ) ;
#136 = APPLICATION_CONTEXT ( 'automotive_design' ) ;
#137 = FILL_AREA_STYLE ('',( #208 ) ) ;
#138 =( NAMED_UNIT ( * ) PLANE_ANGLE_UNIT ( ) SI_UNIT ( $, .RADIAN. ) );
#139 = CIRCLE ( 'NONE', #12, 0.01966531500000000265 ) ;
#140 = VECTOR ( 'NONE', #4, 39.37007874015747433 ) ;
#141 = UNCERTAINTY_MEASURE_WITH_UNIT (LENGTH_MEASURE( 1.000000000000000082E-05 ), #255, 'distance_accuracy_value', 'NONE');
#142 = CARTESIAN_POINT ( 'NONE',  ( 0.000000000000000000, 0.000000000000000000, 0.000000000000000000 ) ) ;
#143 = EDGE_CURVE ( 'NONE', #31, #215, #25, .T. ) ;
#144 = VECTOR ( 'NONE', #159, 39.37007874015748854 ) ;
#145 = LINE ( 'NONE', #264, #87 ) ;
#146 = FILL_AREA_STYLE_COLOUR ( '', #226 ) ;
#147 =( NAMED_UNIT ( * ) PLANE_ANGLE_UNIT ( ) SI_UNIT ( $, .RADIAN. ) );
#148 = EDGE_CURVE ( 'NONE', #263, #260, #267, .T. ) ;
#149 = ORIENTED_EDGE ( 'NONE', *, *, #290, .T. ) ;
#150 = ADVANCED_FACE ( 'NONE', ( #70 ), #50, .T. ) ;
#151 = APPLICATION_PROTOCOL_DEFINITION ( 'draft international standard', 'automotive_design', 1998, #108 ) ;
#152 = ORIENTED_EDGE ( 'NONE', *, *, #229, .F. ) ;
#153 = PRESENTATION_LAYER_ASSIGNMENT (  '', '', ( #162 ) ) ;
#154 = DIRECTION ( 'NONE',  ( -1.224646799147353207E-16, -0.000000000000000000, -1.000000000000000000 ) ) ;
#155 = ORIENTED_EDGE ( 'NONE', *, *, #237, .T. ) ;
#156 = ORIENTED_EDGE ( 'NONE', *, *, #16, .T. ) ;
#157 = LENGTH_MEASURE_WITH_UNIT ( LENGTH_MEASURE( 0.02539999999999999897 ), #13 );
#158 = AXIS2_PLACEMENT_3D ( 'NONE', #142, #113, #182 ) ;
#159 = DIRECTION ( 'NONE',  ( -0.7071067811865502373, 0.000000000000000000, -0.7071067811865446862 ) ) ;
#160 = DIRECTION ( 'NONE',  ( -1.000000000000000000, 0.000000000000000000, 1.224646799147353207E-16 ) ) ;
#161 = CARTESIAN_POINT ( 'NONE',  ( 0.07874000000000000443, 9.642868896486258509E-18, 1.968503999999999809 ) ) ;
#162 = STYLED_ITEM ( 'NONE', ( #233 ), #124 ) ;
#163 = DIRECTION ( 'NONE',  ( -1.224646799147353207E-16, -0.000000000000000000, -1.000000000000000000 ) ) ;
#164 = DIRECTION ( 'NONE',  ( 0.000000000000000000, 0.000000000000000000, -1.000000000000000000 ) ) ;
#165 = CARTESIAN_POINT ( 'NONE',  ( 0.06374000000000018540, 8.724383797125754882E-18, 1.968503999999999809 ) ) ;
#166 = ORIENTED_EDGE ( 'NONE', *, *, #89, .T. ) ;
#167 = CARTESIAN_POINT ( 'NONE',  ( 0.07874000000000000443, 9.642868896486258509E-18, 1.953504000000000129 ) ) ;
#168 = DIRECTION ( 'NONE',  ( 1.224646799147353207E-16, 0.000000000000000000, 1.000000000000000000 ) ) ;
#169 = VERTEX_POINT ( 'NONE', #27 ) ;
#170 = CARTESIAN_POINT ( 'NONE',  ( -0.07873999999999993504, 0.000000000000000000, 0.4925091870401411831 ) ) ;
#171 = EDGE_LOOP ( 'NONE', ( #186, #133, #100, #36 ) ) ;
#172 = VECTOR ( 'NONE', #254, 39.37007874015748143 ) ;
#173 = DIRECTION ( 'NONE',  ( 1.000000000000000000, 0.000000000000000000, 0.000000000000000000 ) ) ;
#174 = ORIENTED_EDGE ( 'NONE', *, *, #179, .F. ) ;
#175 = CARTESIAN_POINT ( 'NONE',  ( 0.01966531500000000265, 2.408306506897443871E-18, 4.739000847409537175E-34 ) ) ;
#176 = DIRECTION ( 'NONE',  ( 1.000000000000000000, 0.000000000000000000, 0.000000000000000000 ) ) ;
#177 = DIRECTION ( 'NONE',  ( -1.224646799147353207E-16, -0.000000000000000000, -1.000000000000000000 ) ) ;
#178 = ORIENTED_EDGE ( 'NONE', *, *, #148, .T. ) ;
#179 = EDGE_CURVE ( 'NONE', #31, #223, #253, .T. ) ;
#180 = DIRECTION ( 'NONE',  ( -0.000000000000000000, -0.000000000000000000, -1.000000000000000000 ) ) ;
#181 = AXIS2_PLACEMENT_3D ( 'NONE', #19, #177, #227 ) ;
#182 = DIRECTION ( 'NONE',  ( 1.000000000000000000, 0.000000000000000000, -0.000000000000000000 ) ) ;
#183 = EDGE_CURVE ( 'NONE', #169, #74, #216, .T. ) ;
#184 = SURFACE_SIDE_STYLE ('',( #279 ) ) ;
#185 = PLANE ( 'NONE',  #158 ) ;
#186 = ORIENTED_EDGE ( 'NONE', *, *, #290, .F. ) ;
#187 = DIRECTION ( 'NONE',  ( 1.000000000000000000, 0.000000000000000000, 0.000000000000000000 ) ) ;
#188 = LENGTH_MEASURE_WITH_UNIT ( LENGTH_MEASURE( 0.02539999999999999897 ), #258 );
#189 = EDGE_LOOP ( 'NONE', ( #193, #243, #125, #191 ) ) ;
#190 = CARTESIAN_POINT ( 'NONE',  ( 1.928573779297252010E-17, 0.000000000000000000, 0.1574800000000000366 ) ) ;
#191 = ORIENTED_EDGE ( 'NONE', *, *, #143, .F. ) ;
#192 = CARTESIAN_POINT ( 'NONE',  ( 0.07874000000000007382, 9.642868896486267753E-18, 0.4925091870401411831 ) ) ;
#193 = ORIENTED_EDGE ( 'NONE', *, *, #179, .T. ) ;
#194 = CYLINDRICAL_SURFACE ( 'NONE', #29, 0.01966531500000000959 ) ;
#195 = COLOUR_RGB ( '',0.7921568627450980005, 0.8196078431372548767, 0.9333333333333333481 ) ;
#196 = DIRECTION ( 'NONE',  ( 1.000000000000000000, 0.000000000000000000, 0.000000000000000000 ) ) ;
#197 =( CONVERSION_BASED_UNIT ( 'INCH', #157 ) LENGTH_UNIT ( ) NAMED_UNIT ( #282 ) );
#198 = CARTESIAN_POINT ( 'NONE',  ( 6.031497994593740586E-17, 0.000000000000000000, 0.4925091870401411831 ) ) ;
#199 = LINE ( 'NONE', #86, #96 ) ;
#200 = EDGE_CURVE ( 'NONE', #215, #293, #58, .T. ) ;
#201 = STYLED_ITEM ( 'NONE', ( #79 ), #105 ) ;
#202 = CARTESIAN_POINT ( 'NONE',  ( 2.949324855037697299E-34, 0.000000000000000000, 2.408306506897443486E-18 ) ) ;
#203 = CARTESIAN_POINT ( 'NONE',  ( 2.949324855037697299E-34, 0.000000000000000000, 2.408306506897443486E-18 ) ) ;
#204 = VECTOR ( 'NONE', #118, 39.37007874015748143 ) ;
#205 = CARTESIAN_POINT ( 'NONE',  ( -0.01966531499999999225, 2.408306506897445027E-18, 0.1574800000000000366 ) ) ;
#206 = CARTESIAN_POINT ( 'NONE',  ( 0.000000000000000000, 0.000000000000000000, 1.968503999999999809 ) ) ;
#207 = UNCERTAINTY_MEASURE_WITH_UNIT (LENGTH_MEASURE( 1.000000000000000082E-05 ), #197, 'distance_accuracy_value', 'NONE');
#208 = FILL_AREA_STYLE_COLOUR ( '', #195 ) ;
#209 = DIRECTION ( 'NONE',  ( -1.000000000000000000, 0.000000000000000000, 0.000000000000000000 ) ) ;
#210 = AXIS2_PLACEMENT_3D ( 'NONE', #28, #164, #289 ) ;
#211 = DIMENSIONAL_EXPONENTS ( 1.000000000000000000, 0.000000000000000000, 0.000000000000000000, 0.000000000000000000, 0.000000000000000000, 0.000000000000000000, 0.000000000000000000 ) ;
#212 = DIRECTION ( 'NONE',  ( -1.224646799147353207E-16, -0.000000000000000000, -1.000000000000000000 ) ) ;
#213 = VERTEX_POINT ( 'NONE', #231 ) ;
#214 = EDGE_CURVE ( 'NONE', #213, #293, #145, .T. ) ;
#215 = VERTEX_POINT ( 'NONE', #170 ) ;
#216 = CIRCLE ( 'NONE', #240, 0.01966531500000000265 ) ;
#217 = CARTESIAN_POINT ( 'NONE',  ( -0.06374000000000018540, 0.000000000000000000, 1.968503999999999809 ) ) ;
#218 = EDGE_LOOP ( 'NONE', ( #149, #156, #109, #152 ) ) ;
#219 = FACE_OUTER_BOUND ( 'NONE', #88, .T. ) ;
#220 = AXIS2_PLACEMENT_3D ( 'NONE', #84, #60, #225 ) ;
#221 = PRODUCT ( 'Micro_AEMM-010-4X', 'Micro_AEMM-010-4X', '', ( #90 ) ) ;
#222 = AXIS2_PLACEMENT_3D ( 'NONE', #228, #269, #173 ) ;
#223 = VERTEX_POINT ( 'NONE', #167 ) ;
#224 = ORIENTED_EDGE ( 'NONE', *, *, #43, .T. ) ;
#225 = DIRECTION ( 'NONE',  ( -1.000000000000000000, 0.000000000000000000, 0.000000000000000000 ) ) ;
#226 = COLOUR_RGB ( '',0.7921568627450980005, 0.8196078431372548767, 0.9333333333333333481 ) ;
#227 = DIRECTION ( 'NONE',  ( -1.000000000000000000, 0.000000000000000000, 1.224646799147353207E-16 ) ) ;
#228 = CARTESIAN_POINT ( 'NONE',  ( 0.000000000000000000, 0.000000000000000000, 0.000000000000000000 ) ) ;
#229 = EDGE_CURVE ( 'NONE', #248, #169, #73, .T. ) ;
#230 = CARTESIAN_POINT ( 'NONE',  ( -0.07874000000000000443, 0.000000000000000000, 1.968503999999999809 ) ) ;
#231 = CARTESIAN_POINT ( 'NONE',  ( 0.01966531500000003735, 0.000000000000000000, 0.1574800000000000366 ) ) ;
#232 =( GEOMETRIC_REPRESENTATION_CONTEXT ( 3 ) GLOBAL_UNCERTAINTY_ASSIGNED_CONTEXT ( ( #26 ) ) GLOBAL_UNIT_ASSIGNED_CONTEXT ( ( #286, #147, #261 ) ) REPRESENTATION_CONTEXT ( 'NONE', 'WORKASPACE' ) );
#233 = PRESENTATION_STYLE_ASSIGNMENT (( #251 ) ) ;
#234 = ADVANCED_FACE ( 'NONE', ( #32 ), #259, .T. ) ;
#235 = DIRECTION ( 'NONE',  ( 1.000000000000000000, 0.000000000000000000, 0.000000000000000000 ) ) ;
#236 = DIRECTION ( 'NONE',  ( 1.224646799147353207E-16, 0.000000000000000000, 1.000000000000000000 ) ) ;
#237 = EDGE_CURVE ( 'NONE', #223, #31, #67, .T. ) ;
#238 = FILL_AREA_STYLE ('',( #146 ) ) ;
#239 = ORIENTED_EDGE ( 'NONE', *, *, #64, .T. ) ;
#240 = AXIS2_PLACEMENT_3D ( 'NONE', #203, #91, #160 ) ;
#241 = EDGE_LOOP ( 'NONE', ( #287, #294, #103, #55 ) ) ;
#242 = LINE ( 'NONE', #275, #66 ) ;
#243 = ORIENTED_EDGE ( 'NONE', *, *, #126, .T. ) ;
#244 = PRODUCT_DEFINITION_FORMATION_WITH_SPECIFIED_SOURCE ( 'ANY', '', #221, .NOT_KNOWN. ) ;
#245 = FACE_OUTER_BOUND ( 'NONE', #38, .T. ) ;
#246 = ADVANCED_FACE ( 'NONE', ( #120 ), #35, .T. ) ;
#247 = ORIENTED_EDGE ( 'NONE', *, *, #183, .T. ) ;
#248 = VERTEX_POINT ( 'NONE', #56 ) ;
#249 = AXIS2_PLACEMENT_3D ( 'NONE', #190, #212, #77 ) ;
#250 = LINE ( 'NONE', #205, #140 ) ;
#251 = SURFACE_STYLE_USAGE ( .BOTH. , #184 ) ;
#252 = DIRECTION ( 'NONE',  ( 0.7071067811865502373, 8.659560562354966138E-17, -0.7071067811865446862 ) ) ;
#253 = CIRCLE ( 'NONE', #292, 0.07874000000000000443 ) ;
#254 = DIRECTION ( 'NONE',  ( -0.000000000000000000, -0.000000000000000000, -1.000000000000000000 ) ) ;
#255 =( CONVERSION_BASED_UNIT ( 'INCH', #71 ) LENGTH_UNIT ( ) NAMED_UNIT ( #117 ) );
#256 = DIRECTION ( 'NONE',  ( 0.1736481776669313304, 0.000000000000000000, 0.9848077530122077983 ) ) ;
#257 = PRODUCT_DEFINITION ( 'UNKNOWN', '', #244, #6 ) ;
#258 =( LENGTH_UNIT ( ) NAMED_UNIT ( * ) SI_UNIT ( $, .METRE. ) );
#259 = CONICAL_SURFACE ( 'NONE', #45, 0.01966531500000001306, 0.1745329251994338360 ) ;
#260 = VERTEX_POINT ( 'NONE', #165 ) ;
#261 =( NAMED_UNIT ( * ) SI_UNIT ( $, .STERADIAN. ) SOLID_ANGLE_UNIT ( ) );
#262 = DIRECTION ( 'NONE',  ( 0.000000000000000000, 0.000000000000000000, -1.000000000000000000 ) ) ;
#263 = VERTEX_POINT ( 'NONE', #217 ) ;
#264 = CARTESIAN_POINT ( 'NONE',  ( 0.01966531500000003735, 0.000000000000000000, 0.1574800000000000366 ) ) ;
#265 = ORIENTED_EDGE ( 'NONE', *, *, #143, .T. ) ;
#266 = VECTOR ( 'NONE', #51, 39.37007874015748143 ) ;
#267 = CIRCLE ( 'NONE', #92, 0.06374000000000018540 ) ;
#268 = ORIENTED_EDGE ( 'NONE', *, *, #126, .F. ) ;
#269 = DIRECTION ( 'NONE',  ( 0.000000000000000000, 0.000000000000000000, 1.000000000000000000 ) ) ;
#270 = ORIENTED_EDGE ( 'NONE', *, *, #271, .T. ) ;
#271 = EDGE_CURVE ( 'NONE', #213, #248, #81, .T. ) ;
#272 = DIRECTION ( 'NONE',  ( -1.224646799147353207E-16, -0.000000000000000000, -1.000000000000000000 ) ) ;
#273 = AXIS2_PLACEMENT_3D ( 'NONE', #198, #110, #176 ) ;
#274 = FACE_OUTER_BOUND ( 'NONE', #63, .T. ) ;
#275 = CARTESIAN_POINT ( 'NONE',  ( 0.01966531500000000959, 2.408306506897444257E-18, -2.408306506897444257E-18 ) ) ;
#276 = LINE ( 'NONE', #20, #144 ) ;
#277 = SHAPE_DEFINITION_REPRESENTATION ( #128, #105 ) ;
#278 = DIRECTION ( 'NONE',  ( 0.000000000000000000, 0.000000000000000000, 1.000000000000000000 ) ) ;
#279 = SURFACE_STYLE_FILL_AREA ( #137 ) ;
#280 = AXIS2_PLACEMENT_3D ( 'NONE', #14, #9, #209 ) ;
#281 = DIRECTION ( 'NONE',  ( 1.000000000000000000, 0.000000000000000000, 0.000000000000000000 ) ) ;
#282 = DIMENSIONAL_EXPONENTS ( 1.000000000000000000, 0.000000000000000000, 0.000000000000000000, 0.000000000000000000, 0.000000000000000000, 0.000000000000000000, 0.000000000000000000 ) ;
#283 = ADVANCED_FACE ( 'NONE', ( #11 ), #24, .T. ) ;
#284 = ORIENTED_EDGE ( 'NONE', *, *, #37, .F. ) ;
#285 = CIRCLE ( 'NONE', #273, 0.07874000000000000443 ) ;
#286 =( CONVERSION_BASED_UNIT ( 'INCH', #188 ) LENGTH_UNIT ( ) NAMED_UNIT ( #211 ) );
#287 = ORIENTED_EDGE ( 'NONE', *, *, #131, .F. ) ;
#288 = APPLICATION_PROTOCOL_DEFINITION ( 'draft international standard', 'automotive_design', 1998, #136 ) ;
#289 = DIRECTION ( 'NONE',  ( -1.000000000000000000, 0.000000000000000000, 0.000000000000000000 ) ) ;
#290 = EDGE_CURVE ( 'NONE', #248, #213, #129, .T. ) ;
#291 = DIRECTION ( 'NONE',  ( -1.000000000000000000, 0.000000000000000000, 1.224646799147353207E-16 ) ) ;
#292 = AXIS2_PLACEMENT_3D ( 'NONE', #1, #112, #281 ) ;
#293 = VERTEX_POINT ( 'NONE', #192 ) ;
#294 = ORIENTED_EDGE ( 'NONE', *, *, #271, .F. ) ;
#295 = PLANE ( 'NONE',  #3 ) ;
#296 = CLOSED_SHELL ( 'NONE', ( #47, #283, #246, #150, #98, #68, #23, #234, #33, #119 ) ) ;
#297 = AXIS2_PLACEMENT_3D ( 'NONE', #21, #115, #69 ) ;
#298 = DIRECTION ( 'NONE',  ( -1.000000000000000000, 0.000000000000000000, 1.224646799147353207E-16 ) ) ;
#299 =( NAMED_UNIT ( * ) PLANE_ANGLE_UNIT ( ) SI_UNIT ( $, .RADIAN. ) );
ENDSEC;
END-ISO-10303-21;
