ISO-10303-21;
HEADER;
FILE_DESCRIPTION (( 'STEP AP214' ),
    '1' );
FILE_NAME ('59849.STEP',
    '2023-06-22T23:29:53',
    ( '' ),
    ( '' ),
    'SwSTEP 2.0',
    'SolidWorks 2023',
    '' );
FILE_SCHEMA (( 'AUTOMOTIVE_DESIGN' ));
ENDSEC;

DATA;
#1 = CARTESIAN_POINT ( 'NONE',  ( 0.000000000000000000, 0.7500000000000001110, 0.000000000000000000 ) ) ;
#2 = UNCERTAINTY_MEASURE_WITH_UNIT (LENGTH_MEASURE( 1.000000000000000082E-05 ), #220, 'distance_accuracy_value', 'NONE');
#3 =( NAMED_UNIT ( * ) PLANE_ANGLE_UNIT ( ) SI_UNIT ( $, .RADIAN. ) );
#4 = AXIS2_PLACEMENT_3D ( 'NONE', #282, #148, #177 ) ;
#5 = DIMENSIONAL_EXPONENTS ( 1.000000000000000000, 0.000000000000000000, 0.000000000000000000, 0.000000000000000000, 0.000000000000000000, 0.000000000000000000, 0.000000000000000000 ) ;
#6 = MECHANICAL_DESIGN_GEOMETRIC_PRESENTATION_REPRESENTATION (  '', ( #186 ), #41 ) ;
#7 = ADVANCED_BREP_SHAPE_REPRESENTATION ( '59849', ( #163, #55, #50 ), #263 ) ;
#8 = DIRECTION ( 'NONE',  ( 0.000000000000000000, 0.000000000000000000, -1.000000000000000000 ) ) ;
#9 = CIRCLE ( 'NONE', #299, 0.3124999999999998890 ) ;
#10 =( NAMED_UNIT ( * ) SI_UNIT ( $, .STERADIAN. ) SOLID_ANGLE_UNIT ( ) );
#11 = CIRCLE ( 'NONE', #290, 0.3125000000000000000 ) ;
#12 =( LENGTH_UNIT ( ) NAMED_UNIT ( * ) SI_UNIT ( $, .METRE. ) );
#13 = DIRECTION ( 'NONE',  ( 5.442874662877122010E-17, 1.000000000000000000, -0.000000000000000000 ) ) ;
#14 =( CONVERSION_BASED_UNIT ( 'INCH', #128 ) LENGTH_UNIT ( ) NAMED_UNIT ( #5 ) );
#15 =( NAMED_UNIT ( * ) SI_UNIT ( $, .STERADIAN. ) SOLID_ANGLE_UNIT ( ) );
#16 =( NAMED_UNIT ( * ) SI_UNIT ( $, .STERADIAN. ) SOLID_ANGLE_UNIT ( ) );
#17 = ADVANCED_FACE ( 'NONE', ( #74 ), #172, .T. ) ;
#18 = PRODUCT ( '59849', '59849', '', ( #45 ) ) ;
#19 = MECHANICAL_DESIGN_GEOMETRIC_PRESENTATION_REPRESENTATION (  '', ( #31 ), #114 ) ;
#20 = DIRECTION ( 'NONE',  ( 0.000000000000000000, 1.000000000000000000, 0.000000000000000000 ) ) ;
#21 = VERTEX_POINT ( 'NONE', #156 ) ;
#22 = LINE ( 'NONE', #188, #26 ) ;
#23 =( LENGTH_UNIT ( ) NAMED_UNIT ( * ) SI_UNIT ( $, .METRE. ) );
#24 = STYLED_ITEM ( 'NONE', ( #234 ), #163 ) ;
#25 = PRESENTATION_LAYER_ASSIGNMENT (  '', '', ( #31 ) ) ;
#26 = VECTOR ( 'NONE', #168, 39.37007874015748143 ) ;
#27 = PRODUCT_RELATED_PRODUCT_CATEGORY ( 'part', '', ( #18 ) ) ;
#28 = DIMENSIONAL_EXPONENTS ( 1.000000000000000000, 0.000000000000000000, 0.000000000000000000, 0.000000000000000000, 0.000000000000000000, 0.000000000000000000, 0.000000000000000000 ) ;
#29 = FILL_AREA_STYLE_COLOUR ( '', #279 ) ;
#30 =( CONVERSION_BASED_UNIT ( 'INCH', #73 ) LENGTH_UNIT ( ) NAMED_UNIT ( #284 ) );
#31 = STYLED_ITEM ( 'NONE', ( #38 ), #55 ) ;
#32 = LENGTH_MEASURE_WITH_UNIT ( LENGTH_MEASURE( 0.02539999999999999897 ), #237 );
#33 = CARTESIAN_POINT ( 'NONE',  ( 3.827021247335478926E-17, 0.7500000000000001110, 0.3125000000000000000 ) ) ;
#34 = CARTESIAN_POINT ( 'NONE',  ( 0.000000000000000000, 0.000000000000000000, 0.000000000000000000 ) ) ;
#35 = DIRECTION ( 'NONE',  ( 5.442874662877122626E-17, 1.000000000000000000, -0.000000000000000000 ) ) ;
#36 = ORIENTED_EDGE ( 'NONE', *, *, #221, .F. ) ;
#37 = STYLED_ITEM ( 'NONE', ( #224 ), #254 ) ;
#38 = PRESENTATION_STYLE_ASSIGNMENT (( #294 ) ) ;
#39 = ORIENTED_EDGE ( 'NONE', *, *, #164, .T. ) ;
#40 =( NAMED_UNIT ( * ) SI_UNIT ( $, .STERADIAN. ) SOLID_ANGLE_UNIT ( ) );
#41 =( GEOMETRIC_REPRESENTATION_CONTEXT ( 3 ) GLOBAL_UNCERTAINTY_ASSIGNED_CONTEXT ( ( #260 ) ) GLOBAL_UNIT_ASSIGNED_CONTEXT ( ( #185, #261, #217 ) ) REPRESENTATION_CONTEXT ( 'NONE', 'WORKASPACE' ) );
#42 = DIRECTION ( 'NONE',  ( 0.000000000000000000, 0.000000000000000000, 1.000000000000000000 ) ) ;
#43 = PRESENTATION_LAYER_ASSIGNMENT (  '', '', ( #37 ) ) ;
#44 = FILL_AREA_STYLE ('',( #65 ) ) ;
#45 = PRODUCT_CONTEXT ( 'NONE', #197, 'mechanical' ) ;
#46 = ORIENTED_EDGE ( 'NONE', *, *, #236, .T. ) ;
#47 = VERTEX_POINT ( 'NONE', #265 ) ;
#48 = ORIENTED_EDGE ( 'NONE', *, *, #268, .F. ) ;
#49 = VERTEX_POINT ( 'NONE', #33 ) ;
#50 = AXIS2_PLACEMENT_3D ( 'NONE', #189, #42, #134 ) ;
#51 = PRESENTATION_LAYER_ASSIGNMENT (  '', '', ( #186 ) ) ;
#52 = SURFACE_STYLE_FILL_AREA ( #174 ) ;
#53 = DIMENSIONAL_EXPONENTS ( 1.000000000000000000, 0.000000000000000000, 0.000000000000000000, 0.000000000000000000, 0.000000000000000000, 0.000000000000000000, 0.000000000000000000 ) ;
#54 = PRODUCT_DEFINITION_CONTEXT ( 'detailed design', #266, 'design' ) ;
#55 = MANIFOLD_SOLID_BREP ( 'Revolve - Tool Body (Straight Shanked)', #257 ) ;
#56 = DIMENSIONAL_EXPONENTS ( 1.000000000000000000, 0.000000000000000000, 0.000000000000000000, 0.000000000000000000, 0.000000000000000000, 0.000000000000000000, 0.000000000000000000 ) ;
#57 = LENGTH_MEASURE_WITH_UNIT ( LENGTH_MEASURE( 0.02539999999999999897 ), #12 );
#58 = ADVANCED_FACE ( 'NONE', ( #181 ), #198, .T. ) ;
#59 = DIRECTION ( 'NONE',  ( 0.000000000000000000, 0.000000000000000000, -1.000000000000000000 ) ) ;
#60 = PLANE ( 'NONE',  #93 ) ;
#61 = VECTOR ( 'NONE', #76, 39.37007874015748143 ) ;
#62 = SURFACE_STYLE_USAGE ( .BOTH. , #274 ) ;
#63 = SURFACE_STYLE_FILL_AREA ( #44 ) ;
#64 =( LENGTH_UNIT ( ) NAMED_UNIT ( * ) SI_UNIT ( $, .METRE. ) );
#65 = FILL_AREA_STYLE_COLOUR ( '', #243 ) ;
#66 = AXIS2_PLACEMENT_3D ( 'NONE', #147, #238, #144 ) ;
#67 = LINE ( 'NONE', #258, #61 ) ;
#68 = VERTEX_POINT ( 'NONE', #176 ) ;
#69 = AXIS2_PLACEMENT_3D ( 'NONE', #165, #149, #180 ) ;
#70 = CARTESIAN_POINT ( 'NONE',  ( 3.827021247335478926E-17, 0.000000000000000000, 0.3125000000000000000 ) ) ;
#71 = ADVANCED_FACE ( 'NONE', ( #222 ), #60, .F. ) ;
#72 = AXIS2_PLACEMENT_3D ( 'NONE', #1, #121, #112 ) ;
#73 = LENGTH_MEASURE_WITH_UNIT ( LENGTH_MEASURE( 0.02539999999999999897 ), #23 );
#74 = FACE_OUTER_BOUND ( 'NONE', #108, .T. ) ;
#75 = UNCERTAINTY_MEASURE_WITH_UNIT (LENGTH_MEASURE( 1.000000000000000082E-05 ), #88, 'distance_accuracy_value', 'NONE');
#76 = DIRECTION ( 'NONE',  ( -0.000000000000000000, -1.000000000000000000, -0.000000000000000000 ) ) ;
#77 =( NAMED_UNIT ( * ) PLANE_ANGLE_UNIT ( ) SI_UNIT ( $, .RADIAN. ) );
#78 = ORIENTED_EDGE ( 'NONE', *, *, #202, .T. ) ;
#79 = DIRECTION ( 'NONE',  ( -0.000000000000000000, -1.000000000000000000, -0.000000000000000000 ) ) ;
#80 =( GEOMETRIC_REPRESENTATION_CONTEXT ( 3 ) GLOBAL_UNCERTAINTY_ASSIGNED_CONTEXT ( ( #286 ) ) GLOBAL_UNIT_ASSIGNED_CONTEXT ( ( #201, #113, #16 ) ) REPRESENTATION_CONTEXT ( 'NONE', 'WORKASPACE' ) );
#81 = CIRCLE ( 'NONE', #72, 0.3125000000000000000 ) ;
#82 = CARTESIAN_POINT ( 'NONE',  ( 0.000000000000000000, 0.000000000000000000, -0.3125000000000000000 ) ) ;
#83 = LINE ( 'NONE', #127, #105 ) ;
#84 = SURFACE_STYLE_USAGE ( .BOTH. , #242 ) ;
#85 = PLANE ( 'NONE',  #140 ) ;
#86 = FILL_AREA_STYLE ('',( #248 ) ) ;
#87 =( LENGTH_UNIT ( ) NAMED_UNIT ( * ) SI_UNIT ( $, .METRE. ) );
#88 =( CONVERSION_BASED_UNIT ( 'INCH', #226 ) LENGTH_UNIT ( ) NAMED_UNIT ( #56 ) );
#89 = DIRECTION ( 'NONE',  ( 5.442874662877122626E-17, 1.000000000000000000, -0.000000000000000000 ) ) ;
#90 = CARTESIAN_POINT ( 'NONE',  ( 0.000000000000000000, 0.000000000000000000, 0.000000000000000000 ) ) ;
#91 = ORIENTED_EDGE ( 'NONE', *, *, #164, .F. ) ;
#92 = LENGTH_MEASURE_WITH_UNIT ( LENGTH_MEASURE( 0.02539999999999999897 ), #136 );
#93 = AXIS2_PLACEMENT_3D ( 'NONE', #246, #153, #205 ) ;
#94 = VERTEX_POINT ( 'NONE', #270 ) ;
#95 = ORIENTED_EDGE ( 'NONE', *, *, #233, .F. ) ;
#96 = SURFACE_STYLE_USAGE ( .BOTH. , #232 ) ;
#97 = PRODUCT_DEFINITION_FORMATION_WITH_SPECIFIED_SOURCE ( 'ANY', '', #18, .NOT_KNOWN. ) ;
#98 = UNCERTAINTY_MEASURE_WITH_UNIT (LENGTH_MEASURE( 1.000000000000000082E-05 ), #30, 'distance_accuracy_value', 'NONE');
#99 = MECHANICAL_DESIGN_GEOMETRIC_PRESENTATION_REPRESENTATION (  '', ( #37 ), #178 ) ;
#100 = CARTESIAN_POINT ( 'NONE',  ( 0.000000000000000000, 0.7500000000000001110, -0.3125000000000000000 ) ) ;
#101 = SURFACE_SIDE_STYLE ('',( #293 ) ) ;
#102 = EDGE_LOOP ( 'NONE', ( #104, #211 ) ) ;
#103 = FILL_AREA_STYLE ('',( #29 ) ) ;
#104 = ORIENTED_EDGE ( 'NONE', *, *, #236, .F. ) ;
#105 = VECTOR ( 'NONE', #13, 39.37007874015748143 ) ;
#106 = ORIENTED_EDGE ( 'NONE', *, *, #139, .F. ) ;
#107 = ORIENTED_EDGE ( 'NONE', *, *, #268, .T. ) ;
#108 = EDGE_LOOP ( 'NONE', ( #46, #39, #256, #291 ) ) ;
#109 = FILL_AREA_STYLE ('',( #304 ) ) ;
#110 = FACE_OUTER_BOUND ( 'NONE', #215, .T. ) ;
#111 = ADVANCED_FACE ( 'NONE', ( #196 ), #85, .T. ) ;
#112 = DIRECTION ( 'NONE',  ( 0.000000000000000000, 0.000000000000000000, -1.000000000000000000 ) ) ;
#113 =( NAMED_UNIT ( * ) PLANE_ANGLE_UNIT ( ) SI_UNIT ( $, .RADIAN. ) );
#114 =( GEOMETRIC_REPRESENTATION_CONTEXT ( 3 ) GLOBAL_UNCERTAINTY_ASSIGNED_CONTEXT ( ( #2 ) ) GLOBAL_UNIT_ASSIGNED_CONTEXT ( ( #220, #77, #10 ) ) REPRESENTATION_CONTEXT ( 'NONE', 'WORKASPACE' ) );
#115 = ORIENTED_EDGE ( 'NONE', *, *, #139, .T. ) ;
#116 = ORIENTED_EDGE ( 'NONE', *, *, #273, .T. ) ;
#117 = PRESENTATION_STYLE_ASSIGNMENT (( #62 ) ) ;
#118 = DIRECTION ( 'NONE',  ( 0.000000000000000000, -1.000000000000000000, -0.000000000000000000 ) ) ;
#119 = COLOUR_RGB ( '',1.000000000000000000, 0.000000000000000000, 0.000000000000000000 ) ;
#120 = DIRECTION ( 'NONE',  ( -0.000000000000000000, -1.000000000000000000, -0.000000000000000000 ) ) ;
#121 = DIRECTION ( 'NONE',  ( -0.000000000000000000, -1.000000000000000000, -0.000000000000000000 ) ) ;
#122 = AXIS2_PLACEMENT_3D ( 'NONE', #280, #120, #209 ) ;
#123 = PRESENTATION_STYLE_ASSIGNMENT (( #239 ) ) ;
#124 = DIRECTION ( 'NONE',  ( -1.000000000000000000, 0.000000000000000000, 0.000000000000000000 ) ) ;
#125 = UNCERTAINTY_MEASURE_WITH_UNIT (LENGTH_MEASURE( 1.000000000000000082E-05 ), #14, 'distance_accuracy_value', 'NONE');
#126 = EDGE_CURVE ( 'NONE', #227, #47, #22, .T. ) ;
#127 = CARTESIAN_POINT ( 'NONE',  ( 0.3125000000000000555, 3.000000000000000444, 3.827021247335477694E-17 ) ) ;
#128 = LENGTH_MEASURE_WITH_UNIT ( LENGTH_MEASURE( 0.02539999999999999897 ), #303 );
#129 =( NAMED_UNIT ( * ) PLANE_ANGLE_UNIT ( ) SI_UNIT ( $, .RADIAN. ) );
#130 = VERTEX_POINT ( 'NONE', #100 ) ;
#131 = DIRECTION ( 'NONE',  ( -1.000000000000000000, 0.000000000000000000, 0.000000000000000000 ) ) ;
#132 = AXIS2_PLACEMENT_3D ( 'NONE', #214, #218, #8 ) ;
#133 = AXIS2_PLACEMENT_3D ( 'NONE', #150, #118, #193 ) ;
#134 = DIRECTION ( 'NONE',  ( 1.000000000000000000, 0.000000000000000000, 0.000000000000000000 ) ) ;
#135 = EDGE_LOOP ( 'NONE', ( #78, #116 ) ) ;
#136 =( LENGTH_UNIT ( ) NAMED_UNIT ( * ) SI_UNIT ( $, .METRE. ) );
#137 =( CONVERSION_BASED_UNIT ( 'INCH', #162 ) LENGTH_UNIT ( ) NAMED_UNIT ( #142 ) );
#138 = CARTESIAN_POINT ( 'NONE',  ( 0.000000000000000000, 0.000000000000000000, 0.000000000000000000 ) ) ;
#139 = EDGE_CURVE ( 'NONE', #49, #130, #213, .T. ) ;
#140 = AXIS2_PLACEMENT_3D ( 'NONE', #207, #20, #305 ) ;
#141 = FILL_AREA_STYLE ('',( #259 ) ) ;
#142 = DIMENSIONAL_EXPONENTS ( 1.000000000000000000, 0.000000000000000000, 0.000000000000000000, 0.000000000000000000, 0.000000000000000000, 0.000000000000000000, 0.000000000000000000 ) ;
#143 = UNCERTAINTY_MEASURE_WITH_UNIT (LENGTH_MEASURE( 1.000000000000000082E-05 ), #137, 'distance_accuracy_value', 'NONE');
#144 = DIRECTION ( 'NONE',  ( -1.000000000000000000, 0.000000000000000000, 0.000000000000000000 ) ) ;
#145 = CIRCLE ( 'NONE', #199, 0.3124999999999998890 ) ;
#146 = DIRECTION ( 'NONE',  ( -0.000000000000000000, -1.000000000000000000, -0.000000000000000000 ) ) ;
#147 = CARTESIAN_POINT ( 'NONE',  ( -1.516480271171051896E-32, 0.7499999999999998890, 0.000000000000000000 ) ) ;
#148 = DIRECTION ( 'NONE',  ( 5.442874662877122626E-17, 1.000000000000000000, -0.000000000000000000 ) ) ;
#149 = DIRECTION ( 'NONE',  ( 5.442874662877122626E-17, 1.000000000000000000, -0.000000000000000000 ) ) ;
#150 = CARTESIAN_POINT ( 'NONE',  ( 0.000000000000000000, 0.000000000000000000, 0.000000000000000000 ) ) ;
#151 = ORIENTED_EDGE ( 'NONE', *, *, #187, .T. ) ;
#152 = PLANE ( 'NONE',  #297 ) ;
#153 = DIRECTION ( 'NONE',  ( 5.442874662877122010E-17, 1.000000000000000000, -0.000000000000000000 ) ) ;
#154 = MECHANICAL_DESIGN_GEOMETRIC_PRESENTATION_REPRESENTATION (  '', ( #24 ), #194 ) ;
#155 = MECHANICAL_DESIGN_GEOMETRIC_PRESENTATION_REPRESENTATION (  '', ( #240 ), #275 ) ;
#156 = CARTESIAN_POINT ( 'NONE',  ( 0.3125000000000000000, 0.7499999999999998890, 3.827021247335477694E-17 ) ) ;
#157 = EDGE_CURVE ( 'NONE', #130, #49, #81, .T. ) ;
#158 = ORIENTED_EDGE ( 'NONE', *, *, #195, .F. ) ;
#159 = SURFACE_STYLE_USAGE ( .BOTH. , #228 ) ;
#160 = AXIS2_PLACEMENT_3D ( 'NONE', #90, #79, #175 ) ;
#161 = CIRCLE ( 'NONE', #132, 0.3125000000000000000 ) ;
#162 = LENGTH_MEASURE_WITH_UNIT ( LENGTH_MEASURE( 0.02539999999999999897 ), #87 );
#163 = MANIFOLD_SOLID_BREP ( 'Revolve - Cutting Edge', #208 ) ;
#164 = EDGE_CURVE ( 'NONE', #21, #94, #83, .T. ) ;
#165 = CARTESIAN_POINT ( 'NONE',  ( 1.224646799147352714E-16, 3.000000000000000444, 0.000000000000000000 ) ) ;
#166 = COLOUR_RGB ( '',0.7921568627450980005, 0.8196078431372548767, 0.9333333333333333481 ) ;
#167 = EDGE_LOOP ( 'NONE', ( #158, #115, #250, #95 ) ) ;
#168 = DIRECTION ( 'NONE',  ( 5.442874662877122010E-17, 1.000000000000000000, -0.000000000000000000 ) ) ;
#169 = CARTESIAN_POINT ( 'NONE',  ( 0.3125000000000000000, 3.000000000000000444, 0.000000000000000000 ) ) ;
#170 = MECHANICAL_DESIGN_GEOMETRIC_PRESENTATION_REPRESENTATION (  '', ( #235 ), #80 ) ;
#171 = SHAPE_DEFINITION_REPRESENTATION ( #204, #7 ) ;
#172 = CYLINDRICAL_SURFACE ( 'NONE', #69, 0.3124999999999999445 ) ;
#173 = CYLINDRICAL_SURFACE ( 'NONE', #267, 0.3125000000000000000 ) ;
#174 = FILL_AREA_STYLE ('',( #182 ) ) ;
#175 = DIRECTION ( 'NONE',  ( 0.000000000000000000, 0.000000000000000000, -1.000000000000000000 ) ) ;
#176 = CARTESIAN_POINT ( 'NONE',  ( 3.827021247335478926E-17, 0.000000000000000000, 0.3125000000000000000 ) ) ;
#177 = DIRECTION ( 'NONE',  ( -1.000000000000000000, 0.000000000000000000, 0.000000000000000000 ) ) ;
#178 =( GEOMETRIC_REPRESENTATION_CONTEXT ( 3 ) GLOBAL_UNCERTAINTY_ASSIGNED_CONTEXT ( ( #125 ) ) GLOBAL_UNIT_ASSIGNED_CONTEXT ( ( #14, #129, #40 ) ) REPRESENTATION_CONTEXT ( 'NONE', 'WORKASPACE' ) );
#179 = COLOUR_RGB ( '',1.000000000000000000, 0.000000000000000000, 0.000000000000000000 ) ;
#180 = DIRECTION ( 'NONE',  ( -1.000000000000000000, 0.000000000000000000, 0.000000000000000000 ) ) ;
#181 = FACE_OUTER_BOUND ( 'NONE', #272, .T. ) ;
#182 = FILL_AREA_STYLE_COLOUR ( '', #119 ) ;
#183 = ORIENTED_EDGE ( 'NONE', *, *, #195, .T. ) ;
#184 = SURFACE_STYLE_FILL_AREA ( #86 ) ;
#185 =( CONVERSION_BASED_UNIT ( 'INCH', #92 ) LENGTH_UNIT ( ) NAMED_UNIT ( #253 ) );
#186 = STYLED_ITEM ( 'NONE', ( #251 ), #278 ) ;
#187 = EDGE_CURVE ( 'NONE', #21, #227, #223, .T. ) ;
#188 = CARTESIAN_POINT ( 'NONE',  ( -0.3124999999999998335, 3.000000000000000444, 0.000000000000000000 ) ) ;
#189 = CARTESIAN_POINT ( 'NONE',  ( 0.000000000000000000, 0.000000000000000000, 0.000000000000000000 ) ) ;
#190 = ORIENTED_EDGE ( 'NONE', *, *, #126, .T. ) ;
#191 = DIRECTION ( 'NONE',  ( -1.000000000000000000, 0.000000000000000000, 0.000000000000000000 ) ) ;
#192 = VERTEX_POINT ( 'NONE', #82 ) ;
#193 = DIRECTION ( 'NONE',  ( 0.000000000000000000, 0.000000000000000000, -1.000000000000000000 ) ) ;
#194 =( GEOMETRIC_REPRESENTATION_CONTEXT ( 3 ) GLOBAL_UNCERTAINTY_ASSIGNED_CONTEXT ( ( #98 ) ) GLOBAL_UNIT_ASSIGNED_CONTEXT ( ( #30, #295, #302 ) ) REPRESENTATION_CONTEXT ( 'NONE', 'WORKASPACE' ) );
#195 = EDGE_CURVE ( 'NONE', #49, #68, #289, .T. ) ;
#196 = FACE_OUTER_BOUND ( 'NONE', #308, .T. ) ;
#197 = APPLICATION_CONTEXT ( 'automotive_design' ) ;
#198 = CYLINDRICAL_SURFACE ( 'NONE', #244, 0.3124999999999999445 ) ;
#199 = AXIS2_PLACEMENT_3D ( 'NONE', #262, #89, #131 ) ;
#200 = CIRCLE ( 'NONE', #66, 0.3125000000000000000 ) ;
#201 =( CONVERSION_BASED_UNIT ( 'INCH', #32 ) LENGTH_UNIT ( ) NAMED_UNIT ( #53 ) );
#202 = EDGE_CURVE ( 'NONE', #47, #94, #9, .T. ) ;
#203 = SURFACE_SIDE_STYLE ('',( #225 ) ) ;
#204 = PRODUCT_DEFINITION_SHAPE ( 'NONE', 'NONE',  #206 ) ;
#205 = DIRECTION ( 'NONE',  ( -1.000000000000000000, 5.442874662877122010E-17, 0.000000000000000000 ) ) ;
#206 = PRODUCT_DEFINITION ( 'UNKNOWN', '', #97, #54 ) ;
#207 = CARTESIAN_POINT ( 'NONE',  ( 0.000000000000000000, 0.7500000000000001110, 0.000000000000000000 ) ) ;
#208 = CLOSED_SHELL ( 'NONE', ( #278, #111, #245, #254 ) ) ;
#209 = DIRECTION ( 'NONE',  ( 0.000000000000000000, 0.000000000000000000, -1.000000000000000000 ) ) ;
#210 = DIRECTION ( 'NONE',  ( 5.442874662877122626E-17, 1.000000000000000000, -0.000000000000000000 ) ) ;
#211 = ORIENTED_EDGE ( 'NONE', *, *, #187, .F. ) ;
#212 = PRESENTATION_LAYER_ASSIGNMENT (  '', '', ( #24 ) ) ;
#213 = CIRCLE ( 'NONE', #122, 0.3125000000000000000 ) ;
#214 = CARTESIAN_POINT ( 'NONE',  ( 0.000000000000000000, 0.000000000000000000, 0.000000000000000000 ) ) ;
#215 = EDGE_LOOP ( 'NONE', ( #107, #283 ) ) ;
#216 = DIRECTION ( 'NONE',  ( -0.000000000000000000, -1.000000000000000000, -0.000000000000000000 ) ) ;
#217 =( NAMED_UNIT ( * ) SI_UNIT ( $, .STERADIAN. ) SOLID_ANGLE_UNIT ( ) );
#218 = DIRECTION ( 'NONE',  ( -0.000000000000000000, -1.000000000000000000, -0.000000000000000000 ) ) ;
#219 = ORIENTED_EDGE ( 'NONE', *, *, #157, .T. ) ;
#220 =( CONVERSION_BASED_UNIT ( 'INCH', #57 ) LENGTH_UNIT ( ) NAMED_UNIT ( #28 ) );
#221 = EDGE_CURVE ( 'NONE', #130, #192, #67, .T. ) ;
#222 = FACE_OUTER_BOUND ( 'NONE', #102, .T. ) ;
#223 = CIRCLE ( 'NONE', #4, 0.3125000000000000000 ) ;
#224 = PRESENTATION_STYLE_ASSIGNMENT (( #84 ) ) ;
#225 = SURFACE_STYLE_FILL_AREA ( #109 ) ;
#226 = LENGTH_MEASURE_WITH_UNIT ( LENGTH_MEASURE( 0.02539999999999999897 ), #64 );
#227 = VERTEX_POINT ( 'NONE', #288 ) ;
#228 = SURFACE_SIDE_STYLE ('',( #63 ) ) ;
#229 = PRESENTATION_LAYER_ASSIGNMENT (  '', '', ( #235 ) ) ;
#230 = EDGE_LOOP ( 'NONE', ( #219, #183, #48, #36 ) ) ;
#231 =( NAMED_UNIT ( * ) SI_UNIT ( $, .STERADIAN. ) SOLID_ANGLE_UNIT ( ) );
#232 = SURFACE_SIDE_STYLE ('',( #287 ) ) ;
#233 = EDGE_CURVE ( 'NONE', #68, #192, #161, .T. ) ;
#234 = PRESENTATION_STYLE_ASSIGNMENT (( #96 ) ) ;
#235 = STYLED_ITEM ( 'NONE', ( #123 ), #245 ) ;
#236 = EDGE_CURVE ( 'NONE', #227, #21, #200, .T. ) ;
#237 =( LENGTH_UNIT ( ) NAMED_UNIT ( * ) SI_UNIT ( $, .METRE. ) );
#238 = DIRECTION ( 'NONE',  ( 5.442874662877122626E-17, 1.000000000000000000, -0.000000000000000000 ) ) ;
#239 = SURFACE_STYLE_USAGE ( .BOTH. , #101 ) ;
#240 = STYLED_ITEM ( 'NONE', ( #117 ), #111 ) ;
#241 = PLANE ( 'NONE',  #133 ) ;
#242 = SURFACE_SIDE_STYLE ('',( #184 ) ) ;
#243 = COLOUR_RGB ( '',1.000000000000000000, 0.000000000000000000, 0.000000000000000000 ) ;
#244 = AXIS2_PLACEMENT_3D ( 'NONE', #298, #35, #124 ) ;
#245 = ADVANCED_FACE ( 'NONE', ( #264 ), #173, .T. ) ;
#246 = CARTESIAN_POINT ( 'NONE',  ( 4.628888218092148898E-34, 0.7500000000000001110, 0.000000000000000000 ) ) ;
#247 = DIRECTION ( 'NONE',  ( -5.442874662877122010E-17, -1.000000000000000000, 0.000000000000000000 ) ) ;
#248 = FILL_AREA_STYLE_COLOUR ( '', #179 ) ;
#249 =( NAMED_UNIT ( * ) PLANE_ANGLE_UNIT ( ) SI_UNIT ( $, .RADIAN. ) );
#250 = ORIENTED_EDGE ( 'NONE', *, *, #221, .T. ) ;
#251 = PRESENTATION_STYLE_ASSIGNMENT (( #159 ) ) ;
#252 = COLOUR_RGB ( '',0.7921568627450980005, 0.8196078431372548767, 0.9333333333333333481 ) ;
#253 = DIMENSIONAL_EXPONENTS ( 1.000000000000000000, 0.000000000000000000, 0.000000000000000000, 0.000000000000000000, 0.000000000000000000, 0.000000000000000000, 0.000000000000000000 ) ;
#254 = ADVANCED_FACE ( 'NONE', ( #110 ), #241, .T. ) ;
#255 = APPLICATION_PROTOCOL_DEFINITION ( 'draft international standard', 'automotive_design', 1998, #197 ) ;
#256 = ORIENTED_EDGE ( 'NONE', *, *, #202, .F. ) ;
#257 = CLOSED_SHELL ( 'NONE', ( #17, #71, #58, #301 ) ) ;
#258 = CARTESIAN_POINT ( 'NONE',  ( 0.000000000000000000, 0.000000000000000000, -0.3125000000000000000 ) ) ;
#259 = FILL_AREA_STYLE_COLOUR ( '', #252 ) ;
#260 = UNCERTAINTY_MEASURE_WITH_UNIT (LENGTH_MEASURE( 1.000000000000000082E-05 ), #185, 'distance_accuracy_value', 'NONE');
#261 =( NAMED_UNIT ( * ) PLANE_ANGLE_UNIT ( ) SI_UNIT ( $, .RADIAN. ) );
#262 = CARTESIAN_POINT ( 'NONE',  ( 1.224646799147352714E-16, 3.000000000000000444, 0.000000000000000000 ) ) ;
#263 =( GEOMETRIC_REPRESENTATION_CONTEXT ( 3 ) GLOBAL_UNCERTAINTY_ASSIGNED_CONTEXT ( ( #75 ) ) GLOBAL_UNIT_ASSIGNED_CONTEXT ( ( #88, #249, #15 ) ) REPRESENTATION_CONTEXT ( 'NONE', 'WORKASPACE' ) );
#264 = FACE_OUTER_BOUND ( 'NONE', #167, .T. ) ;
#265 = CARTESIAN_POINT ( 'NONE',  ( -0.3124999999999997224, 3.000000000000000444, 0.000000000000000000 ) ) ;
#266 = APPLICATION_CONTEXT ( 'automotive_design' ) ;
#267 = AXIS2_PLACEMENT_3D ( 'NONE', #34, #300, #59 ) ;
#268 = EDGE_CURVE ( 'NONE', #192, #68, #11, .T. ) ;
#269 = FACE_OUTER_BOUND ( 'NONE', #135, .T. ) ;
#270 = CARTESIAN_POINT ( 'NONE',  ( 0.3125000000000000000, 3.000000000000000444, 3.827021247335477694E-17 ) ) ;
#271 = CARTESIAN_POINT ( 'NONE',  ( 1.224646799147352714E-16, 3.000000000000000444, 0.000000000000000000 ) ) ;
#272 = EDGE_LOOP ( 'NONE', ( #91, #151, #190, #281 ) ) ;
#273 = EDGE_CURVE ( 'NONE', #94, #47, #145, .T. ) ;
#274 = SURFACE_SIDE_STYLE ('',( #52 ) ) ;
#275 =( GEOMETRIC_REPRESENTATION_CONTEXT ( 3 ) GLOBAL_UNCERTAINTY_ASSIGNED_CONTEXT ( ( #143 ) ) GLOBAL_UNIT_ASSIGNED_CONTEXT ( ( #137, #3, #231 ) ) REPRESENTATION_CONTEXT ( 'NONE', 'WORKASPACE' ) );
#276 = ORIENTED_EDGE ( 'NONE', *, *, #157, .F. ) ;
#277 = FACE_OUTER_BOUND ( 'NONE', #230, .T. ) ;
#278 = ADVANCED_FACE ( 'NONE', ( #277 ), #306, .T. ) ;
#279 = COLOUR_RGB ( '',1.000000000000000000, 0.000000000000000000, 0.000000000000000000 ) ;
#280 = CARTESIAN_POINT ( 'NONE',  ( 0.000000000000000000, 0.7500000000000001110, 0.000000000000000000 ) ) ;
#281 = ORIENTED_EDGE ( 'NONE', *, *, #273, .F. ) ;
#282 = CARTESIAN_POINT ( 'NONE',  ( -1.516480271171051896E-32, 0.7499999999999998890, 0.000000000000000000 ) ) ;
#283 = ORIENTED_EDGE ( 'NONE', *, *, #233, .T. ) ;
#284 = DIMENSIONAL_EXPONENTS ( 1.000000000000000000, 0.000000000000000000, 0.000000000000000000, 0.000000000000000000, 0.000000000000000000, 0.000000000000000000, 0.000000000000000000 ) ;
#285 = APPLICATION_PROTOCOL_DEFINITION ( 'draft international standard', 'automotive_design', 1998, #266 ) ;
#286 = UNCERTAINTY_MEASURE_WITH_UNIT (LENGTH_MEASURE( 1.000000000000000082E-05 ), #201, 'distance_accuracy_value', 'NONE');
#287 = SURFACE_STYLE_FILL_AREA ( #141 ) ;
#288 = CARTESIAN_POINT ( 'NONE',  ( -0.3125000000000000000, 0.7499999999999998890, 0.000000000000000000 ) ) ;
#289 = LINE ( 'NONE', #70, #309 ) ;
#290 = AXIS2_PLACEMENT_3D ( 'NONE', #138, #146, #307 ) ;
#291 = ORIENTED_EDGE ( 'NONE', *, *, #126, .F. ) ;
#292 = PRESENTATION_LAYER_ASSIGNMENT (  '', '', ( #240 ) ) ;
#293 = SURFACE_STYLE_FILL_AREA ( #103 ) ;
#294 = SURFACE_STYLE_USAGE ( .BOTH. , #203 ) ;
#295 =( NAMED_UNIT ( * ) PLANE_ANGLE_UNIT ( ) SI_UNIT ( $, .RADIAN. ) );
#296 = DIRECTION ( 'NONE',  ( 1.000000000000000000, -5.442874662877122010E-17, 0.000000000000000000 ) ) ;
#297 = AXIS2_PLACEMENT_3D ( 'NONE', #169, #247, #296 ) ;
#298 = CARTESIAN_POINT ( 'NONE',  ( 1.224646799147352714E-16, 3.000000000000000444, 0.000000000000000000 ) ) ;
#299 = AXIS2_PLACEMENT_3D ( 'NONE', #271, #210, #191 ) ;
#300 = DIRECTION ( 'NONE',  ( -0.000000000000000000, -1.000000000000000000, -0.000000000000000000 ) ) ;
#301 = ADVANCED_FACE ( 'NONE', ( #269 ), #152, .F. ) ;
#302 =( NAMED_UNIT ( * ) SI_UNIT ( $, .STERADIAN. ) SOLID_ANGLE_UNIT ( ) );
#303 =( LENGTH_UNIT ( ) NAMED_UNIT ( * ) SI_UNIT ( $, .METRE. ) );
#304 = FILL_AREA_STYLE_COLOUR ( '', #166 ) ;
#305 = DIRECTION ( 'NONE',  ( 0.000000000000000000, -0.000000000000000000, 1.000000000000000000 ) ) ;
#306 = CYLINDRICAL_SURFACE ( 'NONE', #160, 0.3125000000000000000 ) ;
#307 = DIRECTION ( 'NONE',  ( 0.000000000000000000, 0.000000000000000000, -1.000000000000000000 ) ) ;
#308 = EDGE_LOOP ( 'NONE', ( #276, #106 ) ) ;
#309 = VECTOR ( 'NONE', #216, 39.37007874015748143 ) ;
ENDSEC;
END-ISO-10303-21;
