ISO-10303-21;
HEADER;
FILE_DESCRIPTION (( 'STEP AP214' ),
    '1' );
FILE_NAME ('Micro_SBMM-080-464X.STEP',
    '2021-09-02T17:19:28',
    ( '' ),
    ( '' ),
    'SwSTEP 2.0',
    'SolidWorks 2020',
    '' );
FILE_SCHEMA (( 'AUTOMOTIVE_DESIGN' ));
ENDSEC;

DATA;
#1 = VERTEX_POINT ( 'NONE', #322 ) ;
#2 = ADVANCED_FACE ( 'NONE', ( #297 ), #50, .T. ) ;
#3 = DIRECTION ( 'NONE',  ( -0.0000000000000000000, -0.0000000000000000000, -1.000000000000000000 ) ) ;
#4 = DIRECTION ( 'NONE',  ( -0.0000000000000000000, -0.0000000000000000000, -1.000000000000000000 ) ) ;
#5 = LENGTH_MEASURE_WITH_UNIT ( LENGTH_MEASURE( 0.02539999999999999897 ), #88 );
#6 = VECTOR ( 'NONE', #227, 39.37007874015748143 ) ;
#7 = CARTESIAN_POINT ( 'NONE',  ( 1.301787301025644282E-17, -0.1062989999999999491, 0.2736715358320045977 ) ) ;
#8 = ORIENTED_EDGE ( 'NONE', *, *, #228, .T. ) ;
#9 = EDGE_CURVE ( 'NONE', #21, #144, #67, .T. ) ;
#10 = ORIENTED_EDGE ( 'NONE', *, *, #75, .T. ) ;
#11 = DIRECTION ( 'NONE',  ( -0.0000000000000000000, -0.0000000000000000000, -1.000000000000000000 ) ) ;
#12 = AXIS2_PLACEMENT_3D ( 'NONE', #156, #201, #303 ) ;
#13 = CIRCLE ( 'NONE', #32, 0.1574804999999999955 ) ;
#14 = FILL_AREA_STYLE_COLOUR ( '', #336 ) ;
#15 =( CONVERSION_BASED_UNIT ( 'INCH', #97 ) LENGTH_UNIT ( ) NAMED_UNIT ( #133 ) );
#16 = DIRECTION ( 'NONE',  ( 0.0000000000000000000, 0.0000000000000000000, 1.000000000000000000 ) ) ;
#17 = CLOSED_SHELL ( 'NONE', ( #46, #114, #145, #2, #39, #23, #342, #328, #136, #149, #152 ) ) ;
#18 = DIRECTION ( 'NONE',  ( 1.000000000000000000, 0.0000000000000000000, 0.0000000000000000000 ) ) ;
#19 = DIRECTION ( 'NONE',  ( 0.0000000000000000000, 0.0000000000000000000, -1.000000000000000000 ) ) ;
#20 = DIRECTION ( 'NONE',  ( -0.0000000000000000000, -0.0000000000000000000, -1.000000000000000000 ) ) ;
#21 = VERTEX_POINT ( 'NONE', #176 ) ;
#22 = PLANE ( 'NONE',  #331 ) ;
#23 = ADVANCED_FACE ( 'NONE', ( #33 ), #216, .T. ) ;
#24 = ORIENTED_EDGE ( 'NONE', *, *, #154, .F. ) ;
#25 = DIRECTION ( 'NONE',  ( 1.000000000000000000, 0.0000000000000000000, -0.0000000000000000000 ) ) ;
#26 = ORIENTED_EDGE ( 'NONE', *, *, #277, .T. ) ;
#27 = DIRECTION ( 'NONE',  ( 1.000000000000000000, 0.0000000000000000000, 0.0000000000000000000 ) ) ;
#28 = VERTEX_POINT ( 'NONE', #175 ) ;
#29 = SHAPE_DEFINITION_REPRESENTATION ( #209, #93 ) ;
#30 = LINE ( 'NONE', #319, #86 ) ;
#31 = LINE ( 'NONE', #117, #105 ) ;
#32 = AXIS2_PLACEMENT_3D ( 'NONE', #282, #82, #309 ) ;
#33 = FACE_OUTER_BOUND ( 'NONE', #289, .T. ) ;
#34 = CARTESIAN_POINT ( 'NONE',  ( -0.1574804999999999955, 0.0000000000000000000, 3.937007999999999619 ) ) ;
#35 = CARTESIAN_POINT ( 'NONE',  ( 0.0000000000000000000, 0.0000000000000000000, 0.0000000000000000000 ) ) ;
#36 = DIMENSIONAL_EXPONENTS ( 1.000000000000000000, 0.0000000000000000000, 0.0000000000000000000, 0.0000000000000000000, 0.0000000000000000000, 0.0000000000000000000, 0.0000000000000000000 ) ;
#37 = DIRECTION ( 'NONE',  ( -1.000000000000000000, 0.0000000000000000000, 0.0000000000000000000 ) ) ;
#38 = CARTESIAN_POINT ( 'NONE',  ( -0.1424805000000004540, 0.0000000000000000000, 3.937007999999999619 ) ) ;
#39 = ADVANCED_FACE ( 'NONE', ( #294 ), #172, .T. ) ;
#40 = LINE ( 'NONE', #38, #6 ) ;
#41 = CIRCLE ( 'NONE', #187, 0.1574799999999999256 ) ;
#42 = AXIS2_PLACEMENT_3D ( 'NONE', #150, #250, #163 ) ;
#43 = CARTESIAN_POINT ( 'NONE',  ( 0.1732285499999997036, 0.0000000000000000000, 2.834644269238882242 ) ) ;
#44 = DIRECTION ( 'NONE',  ( 0.0000000000000000000, 0.0000000000000000000, 1.000000000000000000 ) ) ;
#45 = EDGE_LOOP ( 'NONE', ( #312, #274, #246, #213, #290 ) ) ;
#46 = ADVANCED_FACE ( 'NONE', ( #138 ), #91, .T. ) ;
#47 = DIRECTION ( 'NONE',  ( -1.000000000000000000, 0.0000000000000000000, 0.0000000000000000000 ) ) ;
#48 = PRODUCT_DEFINITION_CONTEXT ( 'detailed design', #239, 'design' ) ;
#49 = ORIENTED_EDGE ( 'NONE', *, *, #228, .F. ) ;
#50 = CONICAL_SURFACE ( 'NONE', #212, 0.1424805000000004540, 0.7853981633974608245 ) ;
#51 = AXIS2_PLACEMENT_3D ( 'NONE', #183, #55, #47 ) ;
#52 = SURFACE_STYLE_USAGE ( .BOTH. , #306 ) ;
#53 = ORIENTED_EDGE ( 'NONE', *, *, #191, .T. ) ;
#54 = DIMENSIONAL_EXPONENTS ( 1.000000000000000000, 0.0000000000000000000, 0.0000000000000000000, 0.0000000000000000000, 0.0000000000000000000, 0.0000000000000000000, 0.0000000000000000000 ) ;
#55 = DIRECTION ( 'NONE',  ( -0.0000000000000000000, -0.0000000000000000000, -1.000000000000000000 ) ) ;
#56 = EDGE_LOOP ( 'NONE', ( #132, #182, #269, #265, #164 ) ) ;
#57 = VERTEX_POINT ( 'NONE', #118 ) ;
#58 = EDGE_CURVE ( 'NONE', #28, #310, #31, .T. ) ;
#59 = MECHANICAL_DESIGN_GEOMETRIC_PRESENTATION_REPRESENTATION (  '', ( #174 ), #113 ) ;
#60 = EDGE_CURVE ( 'NONE', #161, #188, #30, .T. ) ;
#61 = DIRECTION ( 'NONE',  ( 0.0000000000000000000, 0.0000000000000000000, 1.000000000000000000 ) ) ;
#62 = LINE ( 'NONE', #273, #126 ) ;
#63 = VERTEX_POINT ( 'NONE', #85 ) ;
#64 = SPHERICAL_SURFACE ( 'NONE', #263, 0.1574799999999999811 ) ;
#65 = PRESENTATION_LAYER_ASSIGNMENT (  '', '', ( #174 ) ) ;
#66 = DIRECTION ( 'NONE',  ( -1.224646799147352961E-16, 1.000000000000000000, 0.0000000000000000000 ) ) ;
#67 = LINE ( 'NONE', #219, #99 ) ;
#68 = CARTESIAN_POINT ( 'NONE',  ( 0.0000000000000000000, 0.0000000000000000000, 0.2736715358320045977 ) ) ;
#69 =( NAMED_UNIT ( * ) PLANE_ANGLE_UNIT ( ) SI_UNIT ( $, .RADIAN. ) );
#70 = AXIS2_PLACEMENT_3D ( 'NONE', #324, #3, #95 ) ;
#71 = DIRECTION ( 'NONE',  ( 0.0000000000000000000, 0.0000000000000000000, 1.000000000000000000 ) ) ;
#72 = PRESENTATION_STYLE_ASSIGNMENT (( #127 ) ) ;
#73 = DIRECTION ( 'NONE',  ( 0.09950448898117796037, 0.0000000000000000000, 0.9950371132136703878 ) ) ;
#74 = ORIENTED_EDGE ( 'NONE', *, *, #226, .F. ) ;
#75 = EDGE_CURVE ( 'NONE', #1, #341, #41, .T. ) ;
#76 = DIRECTION ( 'NONE',  ( 0.0000000000000000000, 0.0000000000000000000, 1.000000000000000000 ) ) ;
#77 = VERTEX_POINT ( 'NONE', #7 ) ;
#78 =( NAMED_UNIT ( * ) SI_UNIT ( $, .STERADIAN. ) SOLID_ANGLE_UNIT ( ) );
#79 = ORIENTED_EDGE ( 'NONE', *, *, #249, .T. ) ;
#80 = CIRCLE ( 'NONE', #272, 0.1574799999999999811 ) ;
#81 = COLOUR_RGB ( '',0.7921568627450980005, 0.8196078431372548767, 0.9333333333333333481 ) ;
#82 = DIRECTION ( 'NONE',  ( 0.0000000000000000000, 0.0000000000000000000, 1.000000000000000000 ) ) ;
#83 = ORIENTED_EDGE ( 'NONE', *, *, #218, .T. ) ;
#84 = ORIENTED_EDGE ( 'NONE', *, *, #60, .T. ) ;
#85 = CARTESIAN_POINT ( 'NONE',  ( -0.1574804999999999955, 0.0000000000000000000, 3.922008000000000827 ) ) ;
#86 = VECTOR ( 'NONE', #140, 39.37007874015748143 ) ;
#87 = CIRCLE ( 'NONE', #337, 0.1574804999999999955 ) ;
#88 =( LENGTH_UNIT ( ) NAMED_UNIT ( * ) SI_UNIT ( $, .METRE. ) );
#89 = DIRECTION ( 'NONE',  ( -0.0000000000000000000, -0.0000000000000000000, -1.000000000000000000 ) ) ;
#90 = DIRECTION ( 'NONE',  ( -1.000000000000000000, 0.0000000000000000000, 0.0000000000000000000 ) ) ;
#91 = CYLINDRICAL_SURFACE ( 'NONE', #330, 0.1062989999999998519 ) ;
#92 = PRODUCT_CONTEXT ( 'NONE', #220, 'mechanical' ) ;
#93 = ADVANCED_BREP_SHAPE_REPRESENTATION ( 'Micro_SBMM-080-464X', ( #139, #259 ), #199 ) ;
#94 = CIRCLE ( 'NONE', #142, 0.1574804999999999955 ) ;
#95 = DIRECTION ( 'NONE',  ( -1.000000000000000000, 0.0000000000000000000, 0.0000000000000000000 ) ) ;
#96 =( NAMED_UNIT ( * ) SI_UNIT ( $, .STERADIAN. ) SOLID_ANGLE_UNIT ( ) );
#97 = LENGTH_MEASURE_WITH_UNIT ( LENGTH_MEASURE( 0.02539999999999999897 ), #222 );
#98 = DIRECTION ( 'NONE',  ( 0.0000000000000000000, 0.0000000000000000000, 1.000000000000000000 ) ) ;
#99 = VECTOR ( 'NONE', #123, 39.37007874015748143 ) ;
#100 = AXIS2_PLACEMENT_3D ( 'NONE', #68, #275, #37 ) ;
#101 = EDGE_CURVE ( 'NONE', #77, #341, #80, .T. ) ;
#102 = SPHERICAL_SURFACE ( 'NONE', #325, 0.1574799999999999811 ) ;
#103 = CARTESIAN_POINT ( 'NONE',  ( 0.0000000000000000000, 0.0000000000000000000, 0.1574800000000000089 ) ) ;
#104 = CARTESIAN_POINT ( 'NONE',  ( -0.1062989999999998519, 0.0000000000000000000, 0.0000000000000000000 ) ) ;
#105 = VECTOR ( 'NONE', #197, 39.37007874015748143 ) ;
#106 = ORIENTED_EDGE ( 'NONE', *, *, #251, .F. ) ;
#107 = AXIS2_PLACEMENT_3D ( 'NONE', #311, #160, #128 ) ;
#108 = FACE_OUTER_BOUND ( 'NONE', #257, .T. ) ;
#109 = ORIENTED_EDGE ( 'NONE', *, *, #121, .T. ) ;
#110 = FACE_OUTER_BOUND ( 'NONE', #166, .T. ) ;
#111 = ORIENTED_EDGE ( 'NONE', *, *, #75, .F. ) ;
#112 = ORIENTED_EDGE ( 'NONE', *, *, #180, .F. ) ;
#113 =( GEOMETRIC_REPRESENTATION_CONTEXT ( 3 ) GLOBAL_UNCERTAINTY_ASSIGNED_CONTEXT ( ( #158 ) ) GLOBAL_UNIT_ASSIGNED_CONTEXT ( ( #15, #69, #96 ) ) REPRESENTATION_CONTEXT ( 'NONE', 'WORKASPACE' ) );
#114 = ADVANCED_FACE ( 'NONE', ( #295 ), #64, .T. ) ;
#115 =( LENGTH_UNIT ( ) NAMED_UNIT ( * ) SI_UNIT ( $, .METRE. ) );
#116 = EDGE_LOOP ( 'NONE', ( #267, #74, #238, #214 ) ) ;
#117 = CARTESIAN_POINT ( 'NONE',  ( 0.1062989999999998519, 1.301787301025643050E-17, 0.0000000000000000000 ) ) ;
#118 = CARTESIAN_POINT ( 'NONE',  ( 0.1574804999999999955, 1.928579902531247412E-17, 2.677165000000000461 ) ) ;
#119 =( NAMED_UNIT ( * ) PLANE_ANGLE_UNIT ( ) SI_UNIT ( $, .RADIAN. ) );
#120 = DIRECTION ( 'NONE',  ( -1.000000000000000000, 0.0000000000000000000, 0.0000000000000000000 ) ) ;
#121 = EDGE_CURVE ( 'NONE', #188, #57, #62, .T. ) ;
#122 = DIRECTION ( 'NONE',  ( 0.0000000000000000000, 0.0000000000000000000, 1.000000000000000000 ) ) ;
#123 = DIRECTION ( 'NONE',  ( -0.09950448898117796037, 1.218578539315926480E-17, 0.9950371132136703878 ) ) ;
#124 = CARTESIAN_POINT ( 'NONE',  ( 0.0000000000000000000, 0.0000000000000000000, 2.834644269238882242 ) ) ;
#125 = EDGE_CURVE ( 'NONE', #63, #144, #171, .T. ) ;
#126 = VECTOR ( 'NONE', #321, 39.37007874015748143 ) ;
#127 = SURFACE_STYLE_USAGE ( .BOTH. , #252 ) ;
#128 = DIRECTION ( 'NONE',  ( -1.000000000000000000, 0.0000000000000000000, 0.0000000000000000000 ) ) ;
#129 = EDGE_LOOP ( 'NONE', ( #79, #109, #8, #283 ) ) ;
#130 = VERTEX_POINT ( 'NONE', #143 ) ;
#131 = PRESENTATION_STYLE_ASSIGNMENT (( #52 ) ) ;
#132 = ORIENTED_EDGE ( 'NONE', *, *, #58, .F. ) ;
#133 = DIMENSIONAL_EXPONENTS ( 1.000000000000000000, 0.0000000000000000000, 0.0000000000000000000, 0.0000000000000000000, 0.0000000000000000000, 0.0000000000000000000, 0.0000000000000000000 ) ;
#134 = CIRCLE ( 'NONE', #248, 0.1574804999999999955 ) ;
#135 = APPLICATION_PROTOCOL_DEFINITION ( 'draft international standard', 'automotive_design', 1998, #239 ) ;
#136 = ADVANCED_FACE ( 'NONE', ( #245 ), #313, .T. ) ;
#137 = CARTESIAN_POINT ( 'NONE',  ( 0.0000000000000000000, 0.0000000000000000000, 0.0000000000000000000 ) ) ;
#138 = FACE_OUTER_BOUND ( 'NONE', #45, .T. ) ;
#139 = MANIFOLD_SOLID_BREP ( 'Cut-Revolve3', #17 ) ;
#140 = DIRECTION ( 'NONE',  ( 0.7071067811865563435, 8.659560562355041327E-17, -0.7071067811865386910 ) ) ;
#141 = AXIS2_PLACEMENT_3D ( 'NONE', #200, #4, #120 ) ;
#142 = AXIS2_PLACEMENT_3D ( 'NONE', #157, #19, #338 ) ;
#143 = CARTESIAN_POINT ( 'NONE',  ( -0.1424805000000004540, 0.0000000000000000000, 3.937007999999999619 ) ) ;
#144 = VERTEX_POINT ( 'NONE', #181 ) ;
#145 = ADVANCED_FACE ( 'NONE', ( #333 ), #230, .T. ) ;
#146 = FILL_AREA_STYLE ('',( #14 ) ) ;
#147 = AXIS2_PLACEMENT_3D ( 'NONE', #332, #16, #300 ) ;
#148 = VECTOR ( 'NONE', #73, 39.37007874015748143 ) ;
#149 = ADVANCED_FACE ( 'NONE', ( #223 ), #102, .T. ) ;
#150 = CARTESIAN_POINT ( 'NONE',  ( 0.0000000000000000000, 0.0000000000000000000, 2.165353999999999779 ) ) ;
#151 = DIRECTION ( 'NONE',  ( 1.000000000000000000, 0.0000000000000000000, 0.0000000000000000000 ) ) ;
#152 = ADVANCED_FACE ( 'NONE', ( #177 ), #153, .T. ) ;
#153 = CYLINDRICAL_SURFACE ( 'NONE', #168, 0.1062989999999998519 ) ;
#154 = EDGE_CURVE ( 'NONE', #21, #28, #305, .T. ) ;
#155 = VECTOR ( 'NONE', #89, 39.37007874015748143 ) ;
#156 = CARTESIAN_POINT ( 'NONE',  ( 0.0000000000000000000, 0.0000000000000000000, 2.165353999999999779 ) ) ;
#157 = CARTESIAN_POINT ( 'NONE',  ( 0.0000000000000000000, 0.0000000000000000000, 3.922008000000000827 ) ) ;
#158 = UNCERTAINTY_MEASURE_WITH_UNIT (LENGTH_MEASURE( 1.000000000000000082E-05 ), #15, 'distance_accuracy_value', 'NONE');
#159 = ORIENTED_EDGE ( 'NONE', *, *, #60, .F. ) ;
#160 = DIRECTION ( 'NONE',  ( 0.0000000000000000000, 0.0000000000000000000, -1.000000000000000000 ) ) ;
#161 = VERTEX_POINT ( 'NONE', #276 ) ;
#162 = CIRCLE ( 'NONE', #301, 0.1424805000000004540 ) ;
#163 = DIRECTION ( 'NONE',  ( -1.000000000000000000, 0.0000000000000000000, 0.0000000000000000000 ) ) ;
#164 = ORIENTED_EDGE ( 'NONE', *, *, #277, .F. ) ;
#165 = LINE ( 'NONE', #43, #148 ) ;
#166 = EDGE_LOOP ( 'NONE', ( #159, #208, #192, #221 ) ) ;
#167 = EDGE_LOOP ( 'NONE', ( #24, #234, #49, #106 ) ) ;
#168 = AXIS2_PLACEMENT_3D ( 'NONE', #253, #204, #247 ) ;
#169 = CONICAL_SURFACE ( 'NONE', #107, 0.1424805000000004540, 0.7853981633974608245 ) ;
#170 = EDGE_CURVE ( 'NONE', #161, #130, #206, .T. ) ;
#171 = LINE ( 'NONE', #34, #155 ) ;
#172 = CYLINDRICAL_SURFACE ( 'NONE', #141, 0.1574804999999999955 ) ;
#173 = VERTEX_POINT ( 'NONE', #329 ) ;
#174 = STYLED_ITEM ( 'NONE', ( #72 ), #139 ) ;
#175 = CARTESIAN_POINT ( 'NONE',  ( 0.1062989999999997270, 0.0000000000000000000, 2.165353999999999779 ) ) ;
#176 = CARTESIAN_POINT ( 'NONE',  ( -0.1062989999999997270, 1.615183601778444846E-17, 2.165353999999999779 ) ) ;
#177 = FACE_OUTER_BOUND ( 'NONE', #56, .T. ) ;
#178 = DIRECTION ( 'NONE',  ( 0.0000000000000000000, 1.000000000000000000, 0.0000000000000000000 ) ) ;
#179 = DIRECTION ( 'NONE',  ( 1.000000000000000000, 0.0000000000000000000, 0.0000000000000000000 ) ) ;
#180 = EDGE_CURVE ( 'NONE', #130, #63, #40, .T. ) ;
#181 = CARTESIAN_POINT ( 'NONE',  ( -0.1574804999999999955, 0.0000000000000000000, 2.677165000000000461 ) ) ;
#182 = ORIENTED_EDGE ( 'NONE', *, *, #226, .T. ) ;
#183 = CARTESIAN_POINT ( 'NONE',  ( 0.0000000000000000000, 0.0000000000000000000, 0.2736715358320045977 ) ) ;
#184 = UNCERTAINTY_MEASURE_WITH_UNIT (LENGTH_MEASURE( 1.000000000000000082E-05 ), #270, 'distance_accuracy_value', 'NONE');
#185 = ORIENTED_EDGE ( 'NONE', *, *, #101, .T. ) ;
#186 = PRODUCT_RELATED_PRODUCT_CATEGORY ( 'part', '', ( #266 ) ) ;
#187 = AXIS2_PLACEMENT_3D ( 'NONE', #243, #296, #122 ) ;
#188 = VERTEX_POINT ( 'NONE', #327 ) ;
#189 = CARTESIAN_POINT ( 'NONE',  ( 0.0000000000000000000, 0.0000000000000000000, 3.937007999999999619 ) ) ;
#190 = ORIENTED_EDGE ( 'NONE', *, *, #170, .T. ) ;
#191 = EDGE_CURVE ( 'NONE', #77, #173, #279, .T. ) ;
#192 = ORIENTED_EDGE ( 'NONE', *, *, #180, .T. ) ;
#193 = CARTESIAN_POINT ( 'NONE',  ( 0.0000000000000000000, 0.0000000000000000000, 0.1574800000000000089 ) ) ;
#194 = AXIS2_PLACEMENT_3D ( 'NONE', #278, #98, #18 ) ;
#195 = EDGE_CURVE ( 'NONE', #188, #63, #87, .T. ) ;
#196 = DIRECTION ( 'NONE',  ( 1.000000000000000000, 1.224646799147353207E-16, -0.0000000000000000000 ) ) ;
#197 = DIRECTION ( 'NONE',  ( -0.0000000000000000000, -0.0000000000000000000, -1.000000000000000000 ) ) ;
#198 = DIRECTION ( 'NONE',  ( -1.000000000000000000, 0.0000000000000000000, 0.0000000000000000000 ) ) ;
#199 =( GEOMETRIC_REPRESENTATION_CONTEXT ( 3 ) GLOBAL_UNCERTAINTY_ASSIGNED_CONTEXT ( ( #285 ) ) GLOBAL_UNIT_ASSIGNED_CONTEXT ( ( #343, #317, #78 ) ) REPRESENTATION_CONTEXT ( 'NONE', 'WORKASPACE' ) );
#200 = CARTESIAN_POINT ( 'NONE',  ( 0.0000000000000000000, 0.0000000000000000000, 3.937007999999999619 ) ) ;
#201 = DIRECTION ( 'NONE',  ( -0.0000000000000000000, -0.0000000000000000000, -1.000000000000000000 ) ) ;
#202 = AXIS2_PLACEMENT_3D ( 'NONE', #205, #11, #203 ) ;
#203 = DIRECTION ( 'NONE',  ( -1.000000000000000000, 0.0000000000000000000, 0.0000000000000000000 ) ) ;
#204 = DIRECTION ( 'NONE',  ( -0.0000000000000000000, -0.0000000000000000000, -1.000000000000000000 ) ) ;
#205 = CARTESIAN_POINT ( 'NONE',  ( 0.0000000000000000000, 0.0000000000000000000, 0.2736715358320045977 ) ) ;
#206 = CIRCLE ( 'NONE', #194, 0.1424805000000004540 ) ;
#207 = ORIENTED_EDGE ( 'NONE', *, *, #195, .T. ) ;
#208 = ORIENTED_EDGE ( 'NONE', *, *, #254, .F. ) ;
#209 = PRODUCT_DEFINITION_SHAPE ( 'NONE', 'NONE',  #268 ) ;
#210 = ORIENTED_EDGE ( 'NONE', *, *, #170, .F. ) ;
#211 = LINE ( 'NONE', #104, #237 ) ;
#212 = AXIS2_PLACEMENT_3D ( 'NONE', #215, #323, #198 ) ;
#213 = ORIENTED_EDGE ( 'NONE', *, *, #308, .F. ) ;
#214 = ORIENTED_EDGE ( 'NONE', *, *, #293, .F. ) ;
#215 = CARTESIAN_POINT ( 'NONE',  ( 0.0000000000000000000, 0.0000000000000000000, 3.937007999999999619 ) ) ;
#216 = CYLINDRICAL_SURFACE ( 'NONE', #70, 0.1574804999999999955 ) ;
#217 = AXIS2_PLACEMENT_3D ( 'NONE', #340, #20, #288 ) ;
#218 = EDGE_CURVE ( 'NONE', #1, #310, #291, .T. ) ;
#219 = CARTESIAN_POINT ( 'NONE',  ( -0.1732285499999997036, 2.121437892784368764E-17, 2.834644269238882242 ) ) ;
#220 = APPLICATION_CONTEXT ( 'automotive_design' ) ;
#221 = ORIENTED_EDGE ( 'NONE', *, *, #195, .F. ) ;
#222 =( LENGTH_UNIT ( ) NAMED_UNIT ( * ) SI_UNIT ( $, .METRE. ) );
#223 = FACE_OUTER_BOUND ( 'NONE', #232, .T. ) ;
#224 = CIRCLE ( 'NONE', #51, 0.1062989999999999768 ) ;
#225 = MECHANICAL_DESIGN_GEOMETRIC_PRESENTATION_REPRESENTATION (  '', ( #320 ), #264 ) ;
#226 = EDGE_CURVE ( 'NONE', #28, #21, #286, .T. ) ;
#227 = DIRECTION ( 'NONE',  ( -0.7071067811865563435, 0.0000000000000000000, -0.7071067811865386910 ) ) ;
#228 = EDGE_CURVE ( 'NONE', #57, #144, #13, .T. ) ;
#229 = CARTESIAN_POINT ( 'NONE',  ( 0.0000000000000000000, 9.642868896486256968E-18, 3.414809992080329023E-17 ) ) ;
#230 = CONICAL_SURFACE ( 'NONE', #147, 0.1732285499999997036, 0.09966942629159522560 ) ;
#231 = CARTESIAN_POINT ( 'NONE',  ( 0.0000000000000000000, 0.0000000000000000000, 3.937007999999999619 ) ) ;
#232 = EDGE_LOOP ( 'NONE', ( #335, #53, #287, #10 ) ) ;
#233 = LENGTH_MEASURE_WITH_UNIT ( LENGTH_MEASURE( 0.02539999999999999897 ), #115 );
#234 = ORIENTED_EDGE ( 'NONE', *, *, #9, .T. ) ;
#235 = DIRECTION ( 'NONE',  ( -0.0000000000000000000, -0.0000000000000000000, -1.000000000000000000 ) ) ;
#236 = AXIS2_PLACEMENT_3D ( 'NONE', #124, #71, #151 ) ;
#237 = VECTOR ( 'NONE', #235, 39.37007874015748143 ) ;
#238 = ORIENTED_EDGE ( 'NONE', *, *, #251, .T. ) ;
#239 = APPLICATION_CONTEXT ( 'automotive_design' ) ;
#240 = DIRECTION ( 'NONE',  ( -0.0000000000000000000, -0.0000000000000000000, -1.000000000000000000 ) ) ;
#241 =( NAMED_UNIT ( * ) SI_UNIT ( $, .STERADIAN. ) SOLID_ANGLE_UNIT ( ) );
#242 = DIRECTION ( 'NONE',  ( 1.000000000000000000, 0.0000000000000000000, 0.0000000000000000000 ) ) ;
#243 = CARTESIAN_POINT ( 'NONE',  ( 0.0000000000000000000, 0.0000000000000000000, 0.1574800000000000089 ) ) ;
#244 = CIRCLE ( 'NONE', #217, 0.1062989999999999768 ) ;
#245 = FACE_OUTER_BOUND ( 'NONE', #116, .T. ) ;
#246 = ORIENTED_EDGE ( 'NONE', *, *, #218, .F. ) ;
#247 = DIRECTION ( 'NONE',  ( -1.000000000000000000, 0.0000000000000000000, 0.0000000000000000000 ) ) ;
#248 = AXIS2_PLACEMENT_3D ( 'NONE', #261, #256, #258 ) ;
#249 = EDGE_CURVE ( 'NONE', #63, #188, #94, .T. ) ;
#250 = DIRECTION ( 'NONE',  ( -0.0000000000000000000, -0.0000000000000000000, -1.000000000000000000 ) ) ;
#251 = EDGE_CURVE ( 'NONE', #28, #57, #165, .T. ) ;
#252 = SURFACE_SIDE_STYLE ('',( #280 ) ) ;
#253 = CARTESIAN_POINT ( 'NONE',  ( 0.0000000000000000000, 0.0000000000000000000, 0.0000000000000000000 ) ) ;
#254 = EDGE_CURVE ( 'NONE', #130, #161, #162, .T. ) ;
#255 = FILL_AREA_STYLE_COLOUR ( '', #81 ) ;
#256 = DIRECTION ( 'NONE',  ( 0.0000000000000000000, 0.0000000000000000000, 1.000000000000000000 ) ) ;
#257 = EDGE_LOOP ( 'NONE', ( #344, #190 ) ) ;
#258 = DIRECTION ( 'NONE',  ( 1.000000000000000000, 0.0000000000000000000, 0.0000000000000000000 ) ) ;
#259 = AXIS2_PLACEMENT_3D ( 'NONE', #137, #61, #27 ) ;
#260 = ORIENTED_EDGE ( 'NONE', *, *, #125, .T. ) ;
#261 = CARTESIAN_POINT ( 'NONE',  ( 0.0000000000000000000, 0.0000000000000000000, 2.677165000000000461 ) ) ;
#262 = EDGE_LOOP ( 'NONE', ( #210, #84, #316, #112 ) ) ;
#263 = AXIS2_PLACEMENT_3D ( 'NONE', #292, #242, #271 ) ;
#264 =( GEOMETRIC_REPRESENTATION_CONTEXT ( 3 ) GLOBAL_UNCERTAINTY_ASSIGNED_CONTEXT ( ( #184 ) ) GLOBAL_UNIT_ASSIGNED_CONTEXT ( ( #270, #119, #241 ) ) REPRESENTATION_CONTEXT ( 'NONE', 'WORKASPACE' ) );
#265 = ORIENTED_EDGE ( 'NONE', *, *, #191, .F. ) ;
#266 = PRODUCT ( 'Micro_SBMM-080-464X', 'Micro_SBMM-080-464X', '', ( #92 ) ) ;
#267 = ORIENTED_EDGE ( 'NONE', *, *, #9, .F. ) ;
#268 = PRODUCT_DEFINITION ( 'UNKNOWN', '', #314, #48 ) ;
#269 = ORIENTED_EDGE ( 'NONE', *, *, #298, .T. ) ;
#270 =( CONVERSION_BASED_UNIT ( 'INCH', #5 ) LENGTH_UNIT ( ) NAMED_UNIT ( #36 ) );
#271 = DIRECTION ( 'NONE',  ( 0.0000000000000000000, 1.000000000000000000, 0.0000000000000000000 ) ) ;
#272 = AXIS2_PLACEMENT_3D ( 'NONE', #193, #196, #66 ) ;
#273 = CARTESIAN_POINT ( 'NONE',  ( 0.1574804999999999955, 1.928579902531247412E-17, 3.937007999999999619 ) ) ;
#274 = ORIENTED_EDGE ( 'NONE', *, *, #58, .T. ) ;
#275 = DIRECTION ( 'NONE',  ( -0.0000000000000000000, -0.0000000000000000000, -1.000000000000000000 ) ) ;
#276 = CARTESIAN_POINT ( 'NONE',  ( 0.1424805000000004540, 1.836731392595198898E-17, 3.937007999999999619 ) ) ;
#277 = EDGE_CURVE ( 'NONE', #310, #77, #224, .T. ) ;
#278 = CARTESIAN_POINT ( 'NONE',  ( 0.0000000000000000000, 0.0000000000000000000, 3.937007999999999619 ) ) ;
#279 = CIRCLE ( 'NONE', #202, 0.1062989999999999768 ) ;
#280 = SURFACE_STYLE_FILL_AREA ( #146 ) ;
#281 = APPLICATION_PROTOCOL_DEFINITION ( 'draft international standard', 'automotive_design', 1998, #220 ) ;
#282 = CARTESIAN_POINT ( 'NONE',  ( 0.0000000000000000000, 0.0000000000000000000, 2.677165000000000461 ) ) ;
#283 = ORIENTED_EDGE ( 'NONE', *, *, #125, .F. ) ;
#284 = SURFACE_STYLE_FILL_AREA ( #315 ) ;
#285 = UNCERTAINTY_MEASURE_WITH_UNIT (LENGTH_MEASURE( 1.000000000000000082E-05 ), #343, 'distance_accuracy_value', 'NONE');
#286 = CIRCLE ( 'NONE', #42, 0.1062989999999997270 ) ;
#287 = ORIENTED_EDGE ( 'NONE', *, *, #308, .T. ) ;
#288 = DIRECTION ( 'NONE',  ( -1.000000000000000000, 0.0000000000000000000, 0.0000000000000000000 ) ) ;
#289 = EDGE_LOOP ( 'NONE', ( #339, #207, #260, #307 ) ) ;
#290 = ORIENTED_EDGE ( 'NONE', *, *, #298, .F. ) ;
#291 = CIRCLE ( 'NONE', #100, 0.1062989999999999768 ) ;
#292 = CARTESIAN_POINT ( 'NONE',  ( 0.0000000000000000000, 0.0000000000000000000, 0.1574800000000000089 ) ) ;
#293 = EDGE_CURVE ( 'NONE', #144, #57, #134, .T. ) ;
#294 = FACE_OUTER_BOUND ( 'NONE', #129, .T. ) ;
#295 = FACE_OUTER_BOUND ( 'NONE', #318, .T. ) ;
#296 = DIRECTION ( 'NONE',  ( -1.000000000000000000, 0.0000000000000000000, 0.0000000000000000000 ) ) ;
#297 = FACE_OUTER_BOUND ( 'NONE', #262, .T. ) ;
#298 = EDGE_CURVE ( 'NONE', #21, #173, #211, .T. ) ;
#299 = DIRECTION ( 'NONE',  ( 0.0000000000000000000, 0.0000000000000000000, -1.000000000000000000 ) ) ;
#300 = DIRECTION ( 'NONE',  ( 1.000000000000000000, 0.0000000000000000000, 0.0000000000000000000 ) ) ;
#301 = AXIS2_PLACEMENT_3D ( 'NONE', #231, #44, #345 ) ;
#302 = DIRECTION ( 'NONE',  ( 1.000000000000000000, 0.0000000000000000000, 0.0000000000000000000 ) ) ;
#303 = DIRECTION ( 'NONE',  ( -1.000000000000000000, 0.0000000000000000000, 0.0000000000000000000 ) ) ;
#304 = CARTESIAN_POINT ( 'NONE',  ( 0.0000000000000000000, 0.0000000000000000000, 3.922008000000000827 ) ) ;
#305 = CIRCLE ( 'NONE', #12, 0.1062989999999997270 ) ;
#306 = SURFACE_SIDE_STYLE ('',( #284 ) ) ;
#307 = ORIENTED_EDGE ( 'NONE', *, *, #293, .T. ) ;
#308 = EDGE_CURVE ( 'NONE', #173, #1, #244, .T. ) ;
#309 = DIRECTION ( 'NONE',  ( 1.000000000000000000, 0.0000000000000000000, 0.0000000000000000000 ) ) ;
#310 = VERTEX_POINT ( 'NONE', #334 ) ;
#311 = CARTESIAN_POINT ( 'NONE',  ( 0.0000000000000000000, 0.0000000000000000000, 3.937007999999999619 ) ) ;
#312 = ORIENTED_EDGE ( 'NONE', *, *, #154, .T. ) ;
#313 = CONICAL_SURFACE ( 'NONE', #236, 0.1732285499999997036, 0.09966942629159522560 ) ;
#314 = PRODUCT_DEFINITION_FORMATION_WITH_SPECIFIED_SOURCE ( 'ANY', '', #266, .NOT_KNOWN. ) ;
#315 = FILL_AREA_STYLE ('',( #255 ) ) ;
#316 = ORIENTED_EDGE ( 'NONE', *, *, #249, .F. ) ;
#317 =( NAMED_UNIT ( * ) PLANE_ANGLE_UNIT ( ) SI_UNIT ( $, .RADIAN. ) );
#318 = EDGE_LOOP ( 'NONE', ( #83, #26, #185, #111 ) ) ;
#319 = CARTESIAN_POINT ( 'NONE',  ( 0.1424805000000004540, 1.744882882659150076E-17, 3.937007999999999619 ) ) ;
#320 = STYLED_ITEM ( 'NONE', ( #131 ), #93 ) ;
#321 = DIRECTION ( 'NONE',  ( -0.0000000000000000000, -0.0000000000000000000, -1.000000000000000000 ) ) ;
#322 = CARTESIAN_POINT ( 'NONE',  ( 0.0000000000000000000, 0.1062989999999999491, 0.2736715358320045977 ) ) ;
#323 = DIRECTION ( 'NONE',  ( 0.0000000000000000000, 0.0000000000000000000, -1.000000000000000000 ) ) ;
#324 = CARTESIAN_POINT ( 'NONE',  ( 0.0000000000000000000, 0.0000000000000000000, 3.937007999999999619 ) ) ;
#325 = AXIS2_PLACEMENT_3D ( 'NONE', #103, #179, #178 ) ;
#326 = PRESENTATION_LAYER_ASSIGNMENT (  '', '', ( #320 ) ) ;
#327 = CARTESIAN_POINT ( 'NONE',  ( 0.1574804999999999955, 1.928579902531247412E-17, 3.922008000000000827 ) ) ;
#328 = ADVANCED_FACE ( 'NONE', ( #110 ), #169, .T. ) ;
#329 = CARTESIAN_POINT ( 'NONE',  ( -0.1062989999999999768, 0.0000000000000000000, 0.2736715358320045977 ) ) ;
#330 = AXIS2_PLACEMENT_3D ( 'NONE', #35, #240, #90 ) ;
#331 = AXIS2_PLACEMENT_3D ( 'NONE', #189, #76, #25 ) ;
#332 = CARTESIAN_POINT ( 'NONE',  ( 0.0000000000000000000, 0.0000000000000000000, 2.834644269238882242 ) ) ;
#333 = FACE_OUTER_BOUND ( 'NONE', #167, .T. ) ;
#334 = CARTESIAN_POINT ( 'NONE',  ( 0.1062989999999999768, 1.301787301025644591E-17, 0.2736715358320045977 ) ) ;
#335 = ORIENTED_EDGE ( 'NONE', *, *, #101, .F. ) ;
#336 = COLOUR_RGB ( '',0.7921568627450980005, 0.8196078431372548767, 0.9333333333333333481 ) ;
#337 = AXIS2_PLACEMENT_3D ( 'NONE', #304, #299, #302 ) ;
#338 = DIRECTION ( 'NONE',  ( 1.000000000000000000, 0.0000000000000000000, 0.0000000000000000000 ) ) ;
#339 = ORIENTED_EDGE ( 'NONE', *, *, #121, .F. ) ;
#340 = CARTESIAN_POINT ( 'NONE',  ( 0.0000000000000000000, 0.0000000000000000000, 0.2736715358320045977 ) ) ;
#341 = VERTEX_POINT ( 'NONE', #229 ) ;
#342 = ADVANCED_FACE ( 'NONE', ( #108 ), #22, .T. ) ;
#343 =( CONVERSION_BASED_UNIT ( 'INCH', #233 ) LENGTH_UNIT ( ) NAMED_UNIT ( #54 ) );
#344 = ORIENTED_EDGE ( 'NONE', *, *, #254, .T. ) ;
#345 = DIRECTION ( 'NONE',  ( 1.000000000000000000, 0.0000000000000000000, 0.0000000000000000000 ) ) ;
ENDSEC;
END-ISO-10303-21;
