ISO-10303-21;
HEADER;
FILE_DESCRIPTION (( 'STEP AP214' ),
    '1' );
FILE_NAME ('Micro_SFP-062-42.STEP',
    '2021-09-02T05:57:35',
    ( '' ),
    ( '' ),
    'SwSTEP 2.0',
    'SolidWorks 2020',
    '' );
FILE_SCHEMA (( 'AUTOMOTIVE_DESIGN' ));
ENDSEC;

DATA;
#1 = DIRECTION ( 'NONE',  ( -1.224646799147353207E-16, -0.0000000000000000000, -1.000000000000000000 ) ) ;
#2 = LINE ( 'NONE', #93, #190 ) ;
#3 = AXIS2_PLACEMENT_3D ( 'NONE', #73, #261, #264 ) ;
#4 = DIRECTION ( 'NONE',  ( 1.000000000000000000, 0.0000000000000000000, 0.0000000000000000000 ) ) ;
#5 = ADVANCED_FACE ( 'NONE', ( #111 ), #183, .T. ) ;
#6 = LINE ( 'NONE', #202, #219 ) ;
#7 = CARTESIAN_POINT ( 'NONE',  ( -0.03121874999999997222, 3.823194226088143687E-18, 0.2500000000000000555 ) ) ;
#8 = AXIS2_PLACEMENT_3D ( 'NONE', #32, #175, #96 ) ;
#9 = ADVANCED_FACE ( 'NONE', ( #87 ), #115, .F. ) ;
#10 = LINE ( 'NONE', #238, #74 ) ;
#11 = DIRECTION ( 'NONE',  ( -1.000000000000000000, 0.0000000000000000000, 0.0000000000000000000 ) ) ;
#12 = AXIS2_PLACEMENT_3D ( 'NONE', #276, #63, #189 ) ;
#13 = CIRCLE ( 'NONE', #247, 0.03121874999999999650 ) ;
#14 =( CONVERSION_BASED_UNIT ( 'INCH', #184 ) LENGTH_UNIT ( ) NAMED_UNIT ( #159 ) );
#15 = ORIENTED_EDGE ( 'NONE', *, *, #19, .T. ) ;
#16 = VERTEX_POINT ( 'NONE', #142 ) ;
#17 =( LENGTH_UNIT ( ) NAMED_UNIT ( * ) SI_UNIT ( $, .METRE. ) );
#18 = CYLINDRICAL_SURFACE ( 'NONE', #177, 0.1250000000000000000 ) ;
#19 = EDGE_CURVE ( 'NONE', #279, #237, #112, .T. ) ;
#20 = AXIS2_PLACEMENT_3D ( 'NONE', #75, #203, #258 ) ;
#21 = VERTEX_POINT ( 'NONE', #113 ) ;
#22 = VERTEX_POINT ( 'NONE', #165 ) ;
#23 = ORIENTED_EDGE ( 'NONE', *, *, #46, .T. ) ;
#24 = AXIS2_PLACEMENT_3D ( 'NONE', #90, #253, #236 ) ;
#25 = DIRECTION ( 'NONE',  ( 1.224646799147353207E-16, 0.0000000000000000000, 1.000000000000000000 ) ) ;
#26 = CARTESIAN_POINT ( 'NONE',  ( 3.061616997868383634E-17, 0.0000000000000000000, 0.2500000000000000555 ) ) ;
#27 = EDGE_LOOP ( 'NONE', ( #226, #275, #136, #181 ) ) ;
#28 = PRODUCT_DEFINITION_CONTEXT ( 'detailed design', #42, 'design' ) ;
#29 = EDGE_CURVE ( 'NONE', #149, #16, #82, .T. ) ;
#30 = MECHANICAL_DESIGN_GEOMETRIC_PRESENTATION_REPRESENTATION (  '', ( #232 ), #291 ) ;
#31 = CARTESIAN_POINT ( 'NONE',  ( 0.0000000000000000000, 0.0000000000000000000, 2.000000000000000000 ) ) ;
#32 = CARTESIAN_POINT ( 'NONE',  ( 0.0000000000000000000, 0.0000000000000000000, 0.0000000000000000000 ) ) ;
#33 = FACE_OUTER_BOUND ( 'NONE', #139, .T. ) ;
#34 = AXIS2_PLACEMENT_3D ( 'NONE', #154, #242, #205 ) ;
#35 = CARTESIAN_POINT ( 'NONE',  ( 3.061616997868383634E-17, 0.0000000000000000000, 0.2500000000000000555 ) ) ;
#36 = LINE ( 'NONE', #97, #94 ) ;
#37 = CLOSED_SHELL ( 'NONE', ( #207, #243, #92, #262, #196, #186, #41, #5, #162, #9 ) ) ;
#38 = SURFACE_SIDE_STYLE ('',( #290 ) ) ;
#39 = ORIENTED_EDGE ( 'NONE', *, *, #235, .T. ) ;
#40 = EDGE_CURVE ( 'NONE', #103, #227, #13, .T. ) ;
#41 = ADVANCED_FACE ( 'NONE', ( #278 ), #145, .T. ) ;
#42 = APPLICATION_CONTEXT ( 'automotive_design' ) ;
#43 = EDGE_LOOP ( 'NONE', ( #161, #188, #65, #39 ) ) ;
#44 = DIRECTION ( 'NONE',  ( 0.7071067811865434649, 8.659560562354883554E-17, -0.7071067811865515695 ) ) ;
#45 = ORIENTED_EDGE ( 'NONE', *, *, #252, .T. ) ;
#46 = EDGE_CURVE ( 'NONE', #21, #119, #60, .T. ) ;
#47 = ORIENTED_EDGE ( 'NONE', *, *, #218, .T. ) ;
#48 = EDGE_LOOP ( 'NONE', ( #268, #64, #178, #105 ) ) ;
#49 = DIRECTION ( 'NONE',  ( 0.0000000000000000000, 0.0000000000000000000, -1.000000000000000000 ) ) ;
#50 = DIRECTION ( 'NONE',  ( 0.0000000000000000000, 0.0000000000000000000, -1.000000000000000000 ) ) ;
#51 = MECHANICAL_DESIGN_GEOMETRIC_PRESENTATION_REPRESENTATION (  '', ( #88 ), #168 ) ;
#52 = CARTESIAN_POINT ( 'NONE',  ( -0.1099999999999996397, 0.0000000000000000000, 2.000000000000000000 ) ) ;
#53 = DIRECTION ( 'NONE',  ( 1.000000000000000000, 0.0000000000000000000, 0.0000000000000000000 ) ) ;
#54 = CARTESIAN_POINT ( 'NONE',  ( 9.575022216461993972E-17, 0.0000000000000000000, 0.7818598981460203046 ) ) ;
#55 = LINE ( 'NONE', #7, #152 ) ;
#56 = PRODUCT_DEFINITION ( 'UNKNOWN', '', #259, #28 ) ;
#57 = EDGE_CURVE ( 'NONE', #245, #237, #277, .T. ) ;
#58 = DIMENSIONAL_EXPONENTS ( 1.000000000000000000, 0.0000000000000000000, 0.0000000000000000000, 0.0000000000000000000, 0.0000000000000000000, 0.0000000000000000000, 0.0000000000000000000 ) ;
#59 = PRODUCT_CONTEXT ( 'NONE', #293, 'mechanical' ) ;
#60 = CIRCLE ( 'NONE', #287, 0.03121874999999999997 ) ;
#61 =( LENGTH_UNIT ( ) NAMED_UNIT ( * ) SI_UNIT ( $, .METRE. ) );
#62 = EDGE_LOOP ( 'NONE', ( #167, #80, #246, #141 ) ) ;
#63 = DIRECTION ( 'NONE',  ( 0.0000000000000000000, 0.0000000000000000000, 1.000000000000000000 ) ) ;
#64 = ORIENTED_EDGE ( 'NONE', *, *, #212, .T. ) ;
#65 = ORIENTED_EDGE ( 'NONE', *, *, #150, .T. ) ;
#66 = EDGE_LOOP ( 'NONE', ( #102, #47 ) ) ;
#67 = CIRCLE ( 'NONE', #251, 0.1250000000000000000 ) ;
#68 = CIRCLE ( 'NONE', #292, 0.1099999999999996397 ) ;
#69 = EDGE_CURVE ( 'NONE', #237, #16, #2, .T. ) ;
#70 = FACE_OUTER_BOUND ( 'NONE', #62, .T. ) ;
#71 = UNCERTAINTY_MEASURE_WITH_UNIT (LENGTH_MEASURE( 1.000000000000000082E-05 ), #86, 'distance_accuracy_value', 'NONE');
#72 = FILL_AREA_STYLE ('',( #280 ) ) ;
#73 = CARTESIAN_POINT ( 'NONE',  ( 0.0000000000000000000, 0.0000000000000000000, 2.000000000000000000 ) ) ;
#74 = VECTOR ( 'NONE', #176, 39.37007874015748143 ) ;
#75 = CARTESIAN_POINT ( 'NONE',  ( 0.0000000000000000000, 0.0000000000000000000, 0.0000000000000000000 ) ) ;
#76 = CARTESIAN_POINT ( 'NONE',  ( 0.0000000000000000000, 0.0000000000000000000, 1.984999999999999432 ) ) ;
#77 = CIRCLE ( 'NONE', #134, 0.03121874999999999997 ) ;
#78 = ORIENTED_EDGE ( 'NONE', *, *, #69, .T. ) ;
#79 = APPLICATION_PROTOCOL_DEFINITION ( 'draft international standard', 'automotive_design', 1998, #293 ) ;
#80 = ORIENTED_EDGE ( 'NONE', *, *, #57, .T. ) ;
#81 = SURFACE_STYLE_USAGE ( .BOTH. , #38 ) ;
#82 = CIRCLE ( 'NONE', #98, 0.1250000000000000000 ) ;
#83 =( NAMED_UNIT ( * ) SI_UNIT ( $, .STERADIAN. ) SOLID_ANGLE_UNIT ( ) );
#84 = ORIENTED_EDGE ( 'NONE', *, *, #150, .F. ) ;
#85 = DIRECTION ( 'NONE',  ( -1.224646799147353207E-16, -0.0000000000000000000, -1.000000000000000000 ) ) ;
#86 =( CONVERSION_BASED_UNIT ( 'INCH', #109 ) LENGTH_UNIT ( ) NAMED_UNIT ( #180 ) );
#87 = FACE_OUTER_BOUND ( 'NONE', #249, .T. ) ;
#88 = STYLED_ITEM ( 'NONE', ( #131 ), #192 ) ;
#89 = ORIENTED_EDGE ( 'NONE', *, *, #40, .T. ) ;
#90 = CARTESIAN_POINT ( 'NONE',  ( 0.0000000000000000000, 0.0000000000000000000, 2.000000000000000000 ) ) ;
#91 = CARTESIAN_POINT ( 'NONE',  ( 4.682062571497486172E-34, 0.0000000000000000000, 3.823194226088142917E-18 ) ) ;
#92 = ADVANCED_FACE ( 'NONE', ( #70 ), #260, .T. ) ;
#93 = CARTESIAN_POINT ( 'NONE',  ( 0.1250000000000000000, 1.530808498934191509E-17, 2.000000000000000000 ) ) ;
#94 = VECTOR ( 'NONE', #263, 39.37007874015748143 ) ;
#95 = CARTESIAN_POINT ( 'NONE',  ( 0.1250000000000000000, 1.530808498934191509E-17, 1.984999999999999432 ) ) ;
#96 = DIRECTION ( 'NONE',  ( -1.000000000000000000, 0.0000000000000000000, 1.224646799147353207E-16 ) ) ;
#97 = CARTESIAN_POINT ( 'NONE',  ( 0.03121874999999999650, 3.823194226088142917E-18, -3.823194226088142917E-18 ) ) ;
#98 = AXIS2_PLACEMENT_3D ( 'NONE', #214, #1, #299 ) ;
#99 = CARTESIAN_POINT ( 'NONE',  ( -0.1249999999999999029, 0.0000000000000000000, 0.7818598981460203046 ) ) ;
#100 = CARTESIAN_POINT ( 'NONE',  ( 0.1099999999999996397, 1.438959988998137757E-17, 2.000000000000000000 ) ) ;
#101 = AXIS2_PLACEMENT_3D ( 'NONE', #225, #85, #133 ) ;
#102 = ORIENTED_EDGE ( 'NONE', *, *, #295, .T. ) ;
#103 = VERTEX_POINT ( 'NONE', #285 ) ;
#104 = PRESENTATION_STYLE_ASSIGNMENT (( #129 ) ) ;
#105 = ORIENTED_EDGE ( 'NONE', *, *, #40, .F. ) ;
#106 = CIRCLE ( 'NONE', #101, 0.03121874999999999650 ) ;
#107 = CARTESIAN_POINT ( 'NONE',  ( 0.0000000000000000000, 0.0000000000000000000, 2.000000000000000000 ) ) ;
#108 = ORIENTED_EDGE ( 'NONE', *, *, #146, .T. ) ;
#109 = LENGTH_MEASURE_WITH_UNIT ( LENGTH_MEASURE( 0.02539999999999999897 ), #233 );
#110 = EDGE_LOOP ( 'NONE', ( #297, #230, #296, #84 ) ) ;
#111 = FACE_OUTER_BOUND ( 'NONE', #43, .T. ) ;
#112 = CIRCLE ( 'NONE', #223, 0.1250000000000000000 ) ;
#113 = CARTESIAN_POINT ( 'NONE',  ( -0.03121874999999997222, 9.565639607715028618E-18, 0.2500000000000000555 ) ) ;
#114 = PRODUCT_RELATED_PRODUCT_CATEGORY ( 'part', '', ( #274 ) ) ;
#115 = PLANE ( 'NONE',  #12 ) ;
#116 = DIRECTION ( 'NONE',  ( -1.000000000000000000, 0.0000000000000000000, 0.0000000000000000000 ) ) ;
#117 = UNCERTAINTY_MEASURE_WITH_UNIT (LENGTH_MEASURE( 1.000000000000000082E-05 ), #206, 'distance_accuracy_value', 'NONE');
#118 = PRESENTATION_LAYER_ASSIGNMENT (  '', '', ( #88 ) ) ;
#119 = VERTEX_POINT ( 'NONE', #121 ) ;
#120 = AXIS2_PLACEMENT_3D ( 'NONE', #31, #174, #123 ) ;
#121 = CARTESIAN_POINT ( 'NONE',  ( 0.03121875000000003120, 0.0000000000000000000, 0.2500000000000000555 ) ) ;
#122 = CARTESIAN_POINT ( 'NONE',  ( -0.03121874999999999650, 0.0000000000000000000, 7.646388452176285834E-18 ) ) ;
#123 = DIRECTION ( 'NONE',  ( -1.000000000000000000, 0.0000000000000000000, 0.0000000000000000000 ) ) ;
#124 = VECTOR ( 'NONE', #144, 39.37007874015748143 ) ;
#125 = EDGE_CURVE ( 'NONE', #279, #149, #10, .T. ) ;
#126 = DIRECTION ( 'NONE',  ( 1.224646799147353207E-16, 0.0000000000000000000, 1.000000000000000000 ) ) ;
#127 = DIRECTION ( 'NONE',  ( 1.000000000000000000, 0.0000000000000000000, 0.0000000000000000000 ) ) ;
#128 = FILL_AREA_STYLE_COLOUR ( '', #135 ) ;
#129 = SURFACE_STYLE_USAGE ( .BOTH. , #271 ) ;
#130 = AXIS2_PLACEMENT_3D ( 'NONE', #191, #25, #166 ) ;
#131 = PRESENTATION_STYLE_ASSIGNMENT (( #81 ) ) ;
#132 = LENGTH_MEASURE_WITH_UNIT ( LENGTH_MEASURE( 0.02539999999999999897 ), #61 );
#133 = DIRECTION ( 'NONE',  ( -1.000000000000000000, 0.0000000000000000000, 1.224646799147353207E-16 ) ) ;
#134 = AXIS2_PLACEMENT_3D ( 'NONE', #220, #199, #11 ) ;
#135 = COLOUR_RGB ( '',0.7921568627450980005, 0.8196078431372548767, 0.9333333333333333481 ) ;
#136 = ORIENTED_EDGE ( 'NONE', *, *, #182, .T. ) ;
#137 = EDGE_CURVE ( 'NONE', #21, #149, #55, .T. ) ;
#138 = ORIENTED_EDGE ( 'NONE', *, *, #125, .T. ) ;
#139 = EDGE_LOOP ( 'NONE', ( #23, #234, #231, #157 ) ) ;
#140 = CIRCLE ( 'NONE', #173, 0.1250000000000000000 ) ;
#141 = ORIENTED_EDGE ( 'NONE', *, *, #182, .F. ) ;
#142 = CARTESIAN_POINT ( 'NONE',  ( 0.1250000000000001110, 1.530808498934192742E-17, 0.7818598981460203046 ) ) ;
#143 = DIRECTION ( 'NONE',  ( -1.000000000000000000, 0.0000000000000000000, 0.0000000000000000000 ) ) ;
#144 = DIRECTION ( 'NONE',  ( 0.1736481776669314137, 0.0000000000000000000, 0.9848077530122077983 ) ) ;
#145 = CONICAL_SURFACE ( 'NONE', #24, 0.1099999999999996397, 0.7853981633974426169 ) ;
#146 = EDGE_CURVE ( 'NONE', #237, #279, #67, .T. ) ;
#147 = DIRECTION ( 'NONE',  ( 0.0000000000000000000, 0.0000000000000000000, 1.000000000000000000 ) ) ;
#148 = FACE_OUTER_BOUND ( 'NONE', #66, .T. ) ;
#149 = VERTEX_POINT ( 'NONE', #99 ) ;
#150 = EDGE_CURVE ( 'NONE', #119, #16, #244, .T. ) ;
#151 = FACE_OUTER_BOUND ( 'NONE', #160, .T. ) ;
#152 = VECTOR ( 'NONE', #283, 39.37007874015747433 ) ;
#153 =( GEOMETRIC_REPRESENTATION_CONTEXT ( 3 ) GLOBAL_UNCERTAINTY_ASSIGNED_CONTEXT ( ( #71 ) ) GLOBAL_UNIT_ASSIGNED_CONTEXT ( ( #86, #288, #267 ) ) REPRESENTATION_CONTEXT ( 'NONE', 'WORKASPACE' ) );
#154 = CARTESIAN_POINT ( 'NONE',  ( 0.0000000000000000000, 0.0000000000000000000, 0.0000000000000000000 ) ) ;
#155 = CYLINDRICAL_SURFACE ( 'NONE', #120, 0.1250000000000000000 ) ;
#156 = FILL_AREA_STYLE ('',( #128 ) ) ;
#157 = ORIENTED_EDGE ( 'NONE', *, *, #158, .F. ) ;
#158 = EDGE_CURVE ( 'NONE', #21, #227, #6, .T. ) ;
#159 = DIMENSIONAL_EXPONENTS ( 1.000000000000000000, 0.0000000000000000000, 0.0000000000000000000, 0.0000000000000000000, 0.0000000000000000000, 0.0000000000000000000, 0.0000000000000000000 ) ;
#160 = EDGE_LOOP ( 'NONE', ( #185, #108, #138, #256 ) ) ;
#161 = ORIENTED_EDGE ( 'NONE', *, *, #137, .F. ) ;
#162 = ADVANCED_FACE ( 'NONE', ( #172 ), #200, .T. ) ;
#163 = ORIENTED_EDGE ( 'NONE', *, *, #125, .F. ) ;
#164 = VECTOR ( 'NONE', #221, 39.37007874015748143 ) ;
#165 = CARTESIAN_POINT ( 'NONE',  ( -0.1099999999999996397, 0.0000000000000000000, 2.000000000000000000 ) ) ;
#166 = DIRECTION ( 'NONE',  ( 1.000000000000000000, 0.0000000000000000000, 0.0000000000000000000 ) ) ;
#167 = ORIENTED_EDGE ( 'NONE', *, *, #218, .F. ) ;
#168 =( GEOMETRIC_REPRESENTATION_CONTEXT ( 3 ) GLOBAL_UNCERTAINTY_ASSIGNED_CONTEXT ( ( #284 ) ) GLOBAL_UNIT_ASSIGNED_CONTEXT ( ( #14, #269, #208 ) ) REPRESENTATION_CONTEXT ( 'NONE', 'WORKASPACE' ) );
#169 = EDGE_LOOP ( 'NONE', ( #15, #78, #255, #163 ) ) ;
#170 = DIRECTION ( 'NONE',  ( -1.000000000000000000, 0.0000000000000000000, 1.224646799147353207E-16 ) ) ;
#171 = CARTESIAN_POINT ( 'NONE',  ( 0.0000000000000000000, 0.0000000000000000000, 2.000000000000000000 ) ) ;
#172 = FACE_OUTER_BOUND ( 'NONE', #48, .T. ) ;
#173 = AXIS2_PLACEMENT_3D ( 'NONE', #54, #241, #4 ) ;
#174 = DIRECTION ( 'NONE',  ( -0.0000000000000000000, -0.0000000000000000000, -1.000000000000000000 ) ) ;
#175 = DIRECTION ( 'NONE',  ( -1.224646799147353207E-16, -0.0000000000000000000, -1.000000000000000000 ) ) ;
#176 = DIRECTION ( 'NONE',  ( -0.0000000000000000000, -0.0000000000000000000, -1.000000000000000000 ) ) ;
#177 = AXIS2_PLACEMENT_3D ( 'NONE', #107, #209, #294 ) ;
#178 = ORIENTED_EDGE ( 'NONE', *, *, #158, .T. ) ;
#179 = PRESENTATION_LAYER_ASSIGNMENT (  '', '', ( #232 ) ) ;
#180 = DIMENSIONAL_EXPONENTS ( 1.000000000000000000, 0.0000000000000000000, 0.0000000000000000000, 0.0000000000000000000, 0.0000000000000000000, 0.0000000000000000000, 0.0000000000000000000 ) ;
#181 = ORIENTED_EDGE ( 'NONE', *, *, #146, .F. ) ;
#182 = EDGE_CURVE ( 'NONE', #22, #279, #240, .T. ) ;
#183 = CONICAL_SURFACE ( 'NONE', #130, 0.03121874999999999997, 0.1745329251994339192 ) ;
#184 = LENGTH_MEASURE_WITH_UNIT ( LENGTH_MEASURE( 0.02539999999999999897 ), #17 );
#185 = ORIENTED_EDGE ( 'NONE', *, *, #69, .F. ) ;
#186 = ADVANCED_FACE ( 'NONE', ( #148 ), #224, .T. ) ;
#187 = CARTESIAN_POINT ( 'NONE',  ( -0.1250000000000000000, 0.0000000000000000000, 1.984999999999999432 ) ) ;
#188 = ORIENTED_EDGE ( 'NONE', *, *, #212, .F. ) ;
#189 = DIRECTION ( 'NONE',  ( 1.000000000000000000, 0.0000000000000000000, -0.0000000000000000000 ) ) ;
#190 = VECTOR ( 'NONE', #195, 39.37007874015748143 ) ;
#191 = CARTESIAN_POINT ( 'NONE',  ( 3.061616997868383634E-17, 0.0000000000000000000, 0.2500000000000000555 ) ) ;
#192 = ADVANCED_BREP_SHAPE_REPRESENTATION ( 'Micro_SFP-062-42', ( #248, #34 ), #153 ) ;
#193 = DIRECTION ( 'NONE',  ( -1.224646799147353207E-16, -0.0000000000000000000, -1.000000000000000000 ) ) ;
#194 = DIRECTION ( 'NONE',  ( -1.224646799147353207E-16, -0.0000000000000000000, -1.000000000000000000 ) ) ;
#195 = DIRECTION ( 'NONE',  ( -0.0000000000000000000, -0.0000000000000000000, -1.000000000000000000 ) ) ;
#196 = ADVANCED_FACE ( 'NONE', ( #151 ), #155, .T. ) ;
#197 = EDGE_CURVE ( 'NONE', #119, #103, #36, .T. ) ;
#198 = DIRECTION ( 'NONE',  ( 1.000000000000000000, 0.0000000000000000000, 0.0000000000000000000 ) ) ;
#199 = DIRECTION ( 'NONE',  ( -1.224646799147353207E-16, -0.0000000000000000000, -1.000000000000000000 ) ) ;
#200 = CYLINDRICAL_SURFACE ( 'NONE', #20, 0.03121874999999999650 ) ;
#201 = AXIS2_PLACEMENT_3D ( 'NONE', #35, #126, #198 ) ;
#202 = CARTESIAN_POINT ( 'NONE',  ( -0.03121874999999999650, 0.0000000000000000000, 3.823194226088142917E-18 ) ) ;
#203 = DIRECTION ( 'NONE',  ( -1.224646799147353207E-16, -0.0000000000000000000, -1.000000000000000000 ) ) ;
#204 = APPLICATION_PROTOCOL_DEFINITION ( 'draft international standard', 'automotive_design', 1998, #42 ) ;
#205 = DIRECTION ( 'NONE',  ( 1.000000000000000000, 0.0000000000000000000, 0.0000000000000000000 ) ) ;
#206 =( CONVERSION_BASED_UNIT ( 'INCH', #132 ) LENGTH_UNIT ( ) NAMED_UNIT ( #58 ) );
#207 = ADVANCED_FACE ( 'NONE', ( #33 ), #266, .T. ) ;
#208 =( NAMED_UNIT ( * ) SI_UNIT ( $, .STERADIAN. ) SOLID_ANGLE_UNIT ( ) );
#209 = DIRECTION ( 'NONE',  ( -0.0000000000000000000, -0.0000000000000000000, -1.000000000000000000 ) ) ;
#210 = SHAPE_DEFINITION_REPRESENTATION ( #215, #192 ) ;
#211 = CARTESIAN_POINT ( 'NONE',  ( 0.0000000000000000000, 0.0000000000000000000, 1.984999999999999432 ) ) ;
#212 = EDGE_CURVE ( 'NONE', #119, #21, #77, .T. ) ;
#213 = CONICAL_SURFACE ( 'NONE', #201, 0.03121874999999999997, 0.1745329251994339192 ) ;
#214 = CARTESIAN_POINT ( 'NONE',  ( 9.575022216461993972E-17, 0.0000000000000000000, 0.7818598981460203046 ) ) ;
#215 = PRODUCT_DEFINITION_SHAPE ( 'NONE', 'NONE',  #56 ) ;
#216 = DIRECTION ( 'NONE',  ( 0.0000000000000000000, 0.0000000000000000000, -1.000000000000000000 ) ) ;
#217 = CARTESIAN_POINT ( 'NONE',  ( 0.1099999999999996397, 1.347111479062084158E-17, 2.000000000000000000 ) ) ;
#218 = EDGE_CURVE ( 'NONE', #245, #22, #298, .T. ) ;
#219 = VECTOR ( 'NONE', #281, 39.37007874015748143 ) ;
#220 = CARTESIAN_POINT ( 'NONE',  ( 3.061616997868383634E-17, 0.0000000000000000000, 0.2500000000000000555 ) ) ;
#221 = DIRECTION ( 'NONE',  ( -0.7071067811865434649, 0.0000000000000000000, -0.7071067811865515695 ) ) ;
#222 = CARTESIAN_POINT ( 'NONE',  ( 0.03121875000000003120, 0.0000000000000000000, 0.2500000000000000555 ) ) ;
#223 = AXIS2_PLACEMENT_3D ( 'NONE', #211, #216, #254 ) ;
#224 = PLANE ( 'NONE',  #229 ) ;
#225 = CARTESIAN_POINT ( 'NONE',  ( 4.682062571497486172E-34, 0.0000000000000000000, 3.823194226088142917E-18 ) ) ;
#226 = ORIENTED_EDGE ( 'NONE', *, *, #57, .F. ) ;
#227 = VERTEX_POINT ( 'NONE', #122 ) ;
#228 = FACE_OUTER_BOUND ( 'NONE', #169, .T. ) ;
#229 = AXIS2_PLACEMENT_3D ( 'NONE', #171, #147, #239 ) ;
#230 = ORIENTED_EDGE ( 'NONE', *, *, #137, .T. ) ;
#231 = ORIENTED_EDGE ( 'NONE', *, *, #252, .F. ) ;
#232 = STYLED_ITEM ( 'NONE', ( #104 ), #248 ) ;
#233 =( LENGTH_UNIT ( ) NAMED_UNIT ( * ) SI_UNIT ( $, .METRE. ) );
#234 = ORIENTED_EDGE ( 'NONE', *, *, #197, .T. ) ;
#235 = EDGE_CURVE ( 'NONE', #16, #149, #140, .T. ) ;
#236 = DIRECTION ( 'NONE',  ( -1.000000000000000000, 0.0000000000000000000, 0.0000000000000000000 ) ) ;
#237 = VERTEX_POINT ( 'NONE', #95 ) ;
#238 = CARTESIAN_POINT ( 'NONE',  ( -0.1250000000000000000, 0.0000000000000000000, 2.000000000000000000 ) ) ;
#239 = DIRECTION ( 'NONE',  ( 1.000000000000000000, 0.0000000000000000000, -0.0000000000000000000 ) ) ;
#240 = LINE ( 'NONE', #52, #164 ) ;
#241 = DIRECTION ( 'NONE',  ( -1.224646799147353207E-16, -0.0000000000000000000, -1.000000000000000000 ) ) ;
#242 = DIRECTION ( 'NONE',  ( 0.0000000000000000000, 0.0000000000000000000, 1.000000000000000000 ) ) ;
#243 = ADVANCED_FACE ( 'NONE', ( #286 ), #213, .T. ) ;
#244 = LINE ( 'NONE', #222, #124 ) ;
#245 = VERTEX_POINT ( 'NONE', #100 ) ;
#246 = ORIENTED_EDGE ( 'NONE', *, *, #19, .F. ) ;
#247 = AXIS2_PLACEMENT_3D ( 'NONE', #91, #194, #170 ) ;
#248 = MANIFOLD_SOLID_BREP ( 'Cut-Revolve1', #37 ) ;
#249 = EDGE_LOOP ( 'NONE', ( #45, #89 ) ) ;
#250 = DIRECTION ( 'NONE',  ( 0.0000000000000000000, 0.0000000000000000000, 1.000000000000000000 ) ) ;
#251 = AXIS2_PLACEMENT_3D ( 'NONE', #76, #50, #53 ) ;
#252 = EDGE_CURVE ( 'NONE', #227, #103, #106, .T. ) ;
#253 = DIRECTION ( 'NONE',  ( 0.0000000000000000000, 0.0000000000000000000, -1.000000000000000000 ) ) ;
#254 = DIRECTION ( 'NONE',  ( 1.000000000000000000, 0.0000000000000000000, 0.0000000000000000000 ) ) ;
#255 = ORIENTED_EDGE ( 'NONE', *, *, #29, .F. ) ;
#256 = ORIENTED_EDGE ( 'NONE', *, *, #235, .F. ) ;
#257 = CARTESIAN_POINT ( 'NONE',  ( 0.0000000000000000000, 0.0000000000000000000, 2.000000000000000000 ) ) ;
#258 = DIRECTION ( 'NONE',  ( -1.000000000000000000, 0.0000000000000000000, 1.224646799147353207E-16 ) ) ;
#259 = PRODUCT_DEFINITION_FORMATION_WITH_SPECIFIED_SOURCE ( 'ANY', '', #274, .NOT_KNOWN. ) ;
#260 = CONICAL_SURFACE ( 'NONE', #265, 0.1099999999999996397, 0.7853981633974426169 ) ;
#261 = DIRECTION ( 'NONE',  ( 0.0000000000000000000, 0.0000000000000000000, 1.000000000000000000 ) ) ;
#262 = ADVANCED_FACE ( 'NONE', ( #228 ), #18, .T. ) ;
#263 = DIRECTION ( 'NONE',  ( -1.224646799147353207E-16, -0.0000000000000000000, -1.000000000000000000 ) ) ;
#264 = DIRECTION ( 'NONE',  ( 1.000000000000000000, 0.0000000000000000000, 0.0000000000000000000 ) ) ;
#265 = AXIS2_PLACEMENT_3D ( 'NONE', #257, #49, #143 ) ;
#266 = CYLINDRICAL_SURFACE ( 'NONE', #8, 0.03121874999999999650 ) ;
#267 =( NAMED_UNIT ( * ) SI_UNIT ( $, .STERADIAN. ) SOLID_ANGLE_UNIT ( ) );
#268 = ORIENTED_EDGE ( 'NONE', *, *, #197, .F. ) ;
#269 =( NAMED_UNIT ( * ) PLANE_ANGLE_UNIT ( ) SI_UNIT ( $, .RADIAN. ) );
#270 =( NAMED_UNIT ( * ) PLANE_ANGLE_UNIT ( ) SI_UNIT ( $, .RADIAN. ) );
#271 = SURFACE_SIDE_STYLE ('',( #289 ) ) ;
#272 = VECTOR ( 'NONE', #44, 39.37007874015748143 ) ;
#273 = CARTESIAN_POINT ( 'NONE',  ( 0.0000000000000000000, 0.0000000000000000000, 2.000000000000000000 ) ) ;
#274 = PRODUCT ( 'Micro_SFP-062-42', 'Micro_SFP-062-42', '', ( #59 ) ) ;
#275 = ORIENTED_EDGE ( 'NONE', *, *, #295, .F. ) ;
#276 = CARTESIAN_POINT ( 'NONE',  ( 0.0000000000000000000, 0.0000000000000000000, 0.0000000000000000000 ) ) ;
#277 = LINE ( 'NONE', #217, #272 ) ;
#278 = FACE_OUTER_BOUND ( 'NONE', #27, .T. ) ;
#279 = VERTEX_POINT ( 'NONE', #187 ) ;
#280 = FILL_AREA_STYLE_COLOUR ( '', #282 ) ;
#281 = DIRECTION ( 'NONE',  ( -1.224646799147353207E-16, -0.0000000000000000000, -1.000000000000000000 ) ) ;
#282 = COLOUR_RGB ( '',0.7921568627450980005, 0.8196078431372548767, 0.9333333333333333481 ) ;
#283 = DIRECTION ( 'NONE',  ( -0.1736481776669312194, 2.126576849575783625E-17, 0.9848077530122080203 ) ) ;
#284 = UNCERTAINTY_MEASURE_WITH_UNIT (LENGTH_MEASURE( 1.000000000000000082E-05 ), #14, 'distance_accuracy_value', 'NONE');
#285 = CARTESIAN_POINT ( 'NONE',  ( 0.03121874999999999650, 3.823194226088142917E-18, 0.0000000000000000000 ) ) ;
#286 = FACE_OUTER_BOUND ( 'NONE', #110, .T. ) ;
#287 = AXIS2_PLACEMENT_3D ( 'NONE', #26, #193, #116 ) ;
#288 =( NAMED_UNIT ( * ) PLANE_ANGLE_UNIT ( ) SI_UNIT ( $, .RADIAN. ) );
#289 = SURFACE_STYLE_FILL_AREA ( #72 ) ;
#290 = SURFACE_STYLE_FILL_AREA ( #156 ) ;
#291 =( GEOMETRIC_REPRESENTATION_CONTEXT ( 3 ) GLOBAL_UNCERTAINTY_ASSIGNED_CONTEXT ( ( #117 ) ) GLOBAL_UNIT_ASSIGNED_CONTEXT ( ( #206, #270, #83 ) ) REPRESENTATION_CONTEXT ( 'NONE', 'WORKASPACE' ) );
#292 = AXIS2_PLACEMENT_3D ( 'NONE', #273, #250, #127 ) ;
#293 = APPLICATION_CONTEXT ( 'automotive_design' ) ;
#294 = DIRECTION ( 'NONE',  ( -1.000000000000000000, 0.0000000000000000000, 0.0000000000000000000 ) ) ;
#295 = EDGE_CURVE ( 'NONE', #22, #245, #68, .T. ) ;
#296 = ORIENTED_EDGE ( 'NONE', *, *, #29, .T. ) ;
#297 = ORIENTED_EDGE ( 'NONE', *, *, #46, .F. ) ;
#298 = CIRCLE ( 'NONE', #3, 0.1099999999999996397 ) ;
#299 = DIRECTION ( 'NONE',  ( 1.000000000000000000, 0.0000000000000000000, 0.0000000000000000000 ) ) ;
ENDSEC;
END-ISO-10303-21;
