ISO-10303-21;
HEADER;
FILE_DESCRIPTION (( 'STEP AP214' ),
    '1' );
FILE_NAME ('81412.STEP',
    '2023-06-23T01:27:12',
    ( '' ),
    ( '' ),
    'SwSTEP 2.0',
    'SolidWorks 2023',
    '' );
FILE_SCHEMA (( 'AUTOMOTIVE_DESIGN' ));
ENDSEC;

DATA;
#1 = LENGTH_MEASURE_WITH_UNIT ( LENGTH_MEASURE( 0.02539999999999999897 ), #19 );
#2 =( LENGTH_UNIT ( ) NAMED_UNIT ( * ) SI_UNIT ( $, .METRE. ) );
#3 =( NAMED_UNIT ( * ) PLANE_ANGLE_UNIT ( ) SI_UNIT ( $, .RADIAN. ) );
#4 = EDGE_CURVE ( 'NONE', #64, #37, #243, .T. ) ;
#5 = LINE ( 'NONE', #154, #244 ) ;
#6 = FACE_OUTER_BOUND ( 'NONE', #111, .T. ) ;
#7 = FILL_AREA_STYLE ('',( #47 ) ) ;
#8 = LENGTH_MEASURE_WITH_UNIT ( LENGTH_MEASURE( 0.02539999999999999897 ), #2 );
#9 = AXIS2_PLACEMENT_3D ( 'NONE', #193, #72, #41 ) ;
#10 = EDGE_CURVE ( 'NONE', #134, #252, #230, .T. ) ;
#11 = LENGTH_MEASURE_WITH_UNIT ( LENGTH_MEASURE( 0.02539999999999999897 ), #29 );
#12 =( GEOMETRIC_REPRESENTATION_CONTEXT ( 3 ) GLOBAL_UNCERTAINTY_ASSIGNED_CONTEXT ( ( #273 ) ) GLOBAL_UNIT_ASSIGNED_CONTEXT ( ( #197, #13, #84 ) ) REPRESENTATION_CONTEXT ( 'NONE', 'WORKASPACE' ) );
#13 =( NAMED_UNIT ( * ) PLANE_ANGLE_UNIT ( ) SI_UNIT ( $, .RADIAN. ) );
#14 = LENGTH_MEASURE_WITH_UNIT ( LENGTH_MEASURE( 0.02539999999999999897 ), #138 );
#15 = DIRECTION ( 'NONE',  ( -1.000000000000000000, 0.000000000000000000, 0.000000000000000000 ) ) ;
#16 = STYLED_ITEM ( 'NONE', ( #131 ), #285 ) ;
#17 = EDGE_LOOP ( 'NONE', ( #125, #149, #202, #276 ) ) ;
#18 = EDGE_LOOP ( 'NONE', ( #235, #88 ) ) ;
#19 =( LENGTH_UNIT ( ) NAMED_UNIT ( * ) SI_UNIT ( $, .METRE. ) );
#20 = DIRECTION ( 'NONE',  ( 1.000000000000000000, 0.000000000000000000, 0.000000000000000000 ) ) ;
#21 = ORIENTED_EDGE ( 'NONE', *, *, #44, .T. ) ;
#22 = PRESENTATION_LAYER_ASSIGNMENT (  '', '', ( #293 ) ) ;
#23 = ORIENTED_EDGE ( 'NONE', *, *, #291, .F. ) ;
#24 =( NAMED_UNIT ( * ) SI_UNIT ( $, .STERADIAN. ) SOLID_ANGLE_UNIT ( ) );
#25 = DIRECTION ( 'NONE',  ( -1.000000000000000000, 0.000000000000000000, 0.000000000000000000 ) ) ;
#26 = LINE ( 'NONE', #236, #103 ) ;
#27 = CIRCLE ( 'NONE', #287, 0.1875000000000000278 ) ;
#28 =( CONVERSION_BASED_UNIT ( 'INCH', #240 ) LENGTH_UNIT ( ) NAMED_UNIT ( #228 ) );
#29 =( LENGTH_UNIT ( ) NAMED_UNIT ( * ) SI_UNIT ( $, .METRE. ) );
#30 = PRODUCT_DEFINITION_FORMATION_WITH_SPECIFIED_SOURCE ( 'ANY', '', #102, .NOT_KNOWN. ) ;
#31 = DIRECTION ( 'NONE',  ( -0.000000000000000000, -1.000000000000000000, -0.000000000000000000 ) ) ;
#32 = ORIENTED_EDGE ( 'NONE', *, *, #46, .T. ) ;
#33 = PRESENTATION_LAYER_ASSIGNMENT (  '', '', ( #260 ) ) ;
#34 = SHAPE_DEFINITION_REPRESENTATION ( #299, #248 ) ;
#35 =( CONVERSION_BASED_UNIT ( 'INCH', #14 ) LENGTH_UNIT ( ) NAMED_UNIT ( #137 ) );
#36 = COLOUR_RGB ( '',0.7921568627450980005, 0.8196078431372548767, 0.9333333333333333481 ) ;
#37 = VERTEX_POINT ( 'NONE', #39 ) ;
#38 = DIRECTION ( 'NONE',  ( 3.498990854706726443E-17, 1.000000000000000000, -0.000000000000000000 ) ) ;
#39 = CARTESIAN_POINT ( 'NONE',  ( 0.000000000000000000, 0.7500000000000001110, -0.1875000000000000278 ) ) ;
#40 = PRODUCT_CONTEXT ( 'NONE', #91, 'mechanical' ) ;
#41 = DIRECTION ( 'NONE',  ( -1.000000000000000000, 0.000000000000000000, 0.000000000000000000 ) ) ;
#42 = DIRECTION ( 'NONE',  ( 3.498990854706726443E-17, 1.000000000000000000, -0.000000000000000000 ) ) ;
#43 = PLANE ( 'NONE',  #75 ) ;
#44 = EDGE_CURVE ( 'NONE', #97, #109, #187, .T. ) ;
#45 = SURFACE_SIDE_STYLE ('',( #210 ) ) ;
#46 = EDGE_CURVE ( 'NONE', #109, #97, #116, .T. ) ;
#47 = FILL_AREA_STYLE_COLOUR ( '', #242 ) ;
#48 = DIMENSIONAL_EXPONENTS ( 1.000000000000000000, 0.000000000000000000, 0.000000000000000000, 0.000000000000000000, 0.000000000000000000, 0.000000000000000000, 0.000000000000000000 ) ;
#49 = AXIS2_PLACEMENT_3D ( 'NONE', #261, #218, #101 ) ;
#50 = ADVANCED_FACE ( 'NONE', ( #172 ), #304, .T. ) ;
#51 = SURFACE_STYLE_FILL_AREA ( #7 ) ;
#52 = LENGTH_MEASURE_WITH_UNIT ( LENGTH_MEASURE( 0.02539999999999999897 ), #216 );
#53 = DIRECTION ( 'NONE',  ( 0.000000000000000000, -0.000000000000000000, 1.000000000000000000 ) ) ;
#54 = MANIFOLD_SOLID_BREP ( 'Revolve - Cutting Edge', #151 ) ;
#55 = CYLINDRICAL_SURFACE ( 'NONE', #118, 0.1874999999999999722 ) ;
#56 = PRESENTATION_STYLE_ASSIGNMENT (( #269 ) ) ;
#57 = PRODUCT_DEFINITION ( 'UNKNOWN', '', #30, #169 ) ;
#58 = ORIENTED_EDGE ( 'NONE', *, *, #46, .F. ) ;
#59 = ORIENTED_EDGE ( 'NONE', *, *, #281, .T. ) ;
#60 = AXIS2_PLACEMENT_3D ( 'NONE', #220, #290, #183 ) ;
#61 = CARTESIAN_POINT ( 'NONE',  ( 0.000000000000000000, 0.000000000000000000, -0.1875000000000000278 ) ) ;
#62 = ORIENTED_EDGE ( 'NONE', *, *, #281, .F. ) ;
#63 =( NAMED_UNIT ( * ) PLANE_ANGLE_UNIT ( ) SI_UNIT ( $, .RADIAN. ) );
#64 = VERTEX_POINT ( 'NONE', #181 ) ;
#65 = DIRECTION ( 'NONE',  ( 1.000000000000000000, -3.498990854706726443E-17, 0.000000000000000000 ) ) ;
#66 = CIRCLE ( 'NONE', #239, 0.1875000000000000278 ) ;
#67 = VERTEX_POINT ( 'NONE', #87 ) ;
#68 = PLANE ( 'NONE',  #250 ) ;
#69 = PRESENTATION_STYLE_ASSIGNMENT (( #170 ) ) ;
#70 = DIRECTION ( 'NONE',  ( 3.498990854706726443E-17, 1.000000000000000000, -0.000000000000000000 ) ) ;
#71 = CARTESIAN_POINT ( 'NONE',  ( 0.1875000000000000278, 2.500000000000000000, 2.296212748401287109E-17 ) ) ;
#72 = DIRECTION ( 'NONE',  ( 3.498990854706726443E-17, 1.000000000000000000, -0.000000000000000000 ) ) ;
#73 = VECTOR ( 'NONE', #38, 39.37007874015748143 ) ;
#74 = DIRECTION ( 'NONE',  ( 0.000000000000000000, 1.000000000000000000, 0.000000000000000000 ) ) ;
#75 = AXIS2_PLACEMENT_3D ( 'NONE', #147, #74, #53 ) ;
#76 = CARTESIAN_POINT ( 'NONE',  ( 0.000000000000000000, 0.7500000000000001110, 0.000000000000000000 ) ) ;
#77 = DIRECTION ( 'NONE',  ( 3.498990854706726443E-17, 1.000000000000000000, -0.000000000000000000 ) ) ;
#78 = SURFACE_SIDE_STYLE ('',( #241 ) ) ;
#79 = PRESENTATION_LAYER_ASSIGNMENT (  '', '', ( #16 ) ) ;
#80 = CARTESIAN_POINT ( 'NONE',  ( 0.000000000000000000, 0.000000000000000000, 0.000000000000000000 ) ) ;
#81 = EDGE_CURVE ( 'NONE', #67, #83, #178, .T. ) ;
#82 = CARTESIAN_POINT ( 'NONE',  ( 0.000000000000000000, 0.000000000000000000, 0.000000000000000000 ) ) ;
#83 = VERTEX_POINT ( 'NONE', #61 ) ;
#84 =( NAMED_UNIT ( * ) SI_UNIT ( $, .STERADIAN. ) SOLID_ANGLE_UNIT ( ) );
#85 = ORIENTED_EDGE ( 'NONE', *, *, #81, .F. ) ;
#86 =( GEOMETRIC_REPRESENTATION_CONTEXT ( 3 ) GLOBAL_UNCERTAINTY_ASSIGNED_CONTEXT ( ( #192 ) ) GLOBAL_UNIT_ASSIGNED_CONTEXT ( ( #182, #3, #150 ) ) REPRESENTATION_CONTEXT ( 'NONE', 'WORKASPACE' ) );
#87 = CARTESIAN_POINT ( 'NONE',  ( 2.296212748401287726E-17, 0.000000000000000000, 0.1875000000000000278 ) ) ;
#88 = ORIENTED_EDGE ( 'NONE', *, *, #81, .T. ) ;
#89 = DIMENSIONAL_EXPONENTS ( 1.000000000000000000, 0.000000000000000000, 0.000000000000000000, 0.000000000000000000, 0.000000000000000000, 0.000000000000000000, 0.000000000000000000 ) ;
#90 = CARTESIAN_POINT ( 'NONE',  ( 0.1875000000000000278, 0.7499999999999998890, 2.296212748401287109E-17 ) ) ;
#91 = APPLICATION_CONTEXT ( 'automotive_design' ) ;
#92 = AXIS2_PLACEMENT_3D ( 'NONE', #80, #184, #213 ) ;
#93 = ORIENTED_EDGE ( 'NONE', *, *, #4, .T. ) ;
#94 = CARTESIAN_POINT ( 'NONE',  ( 0.000000000000000000, 0.000000000000000000, 0.000000000000000000 ) ) ;
#95 = EDGE_CURVE ( 'NONE', #37, #83, #185, .T. ) ;
#96 = PRESENTATION_STYLE_ASSIGNMENT (( #144 ) ) ;
#97 = VERTEX_POINT ( 'NONE', #163 ) ;
#98 = ADVANCED_FACE ( 'NONE', ( #247 ), #272, .T. ) ;
#99 = MECHANICAL_DESIGN_GEOMETRIC_PRESENTATION_REPRESENTATION (  '', ( #229 ), #12 ) ;
#100 = DIRECTION ( 'NONE',  ( -0.000000000000000000, -1.000000000000000000, -0.000000000000000000 ) ) ;
#101 = DIRECTION ( 'NONE',  ( 0.000000000000000000, 0.000000000000000000, -1.000000000000000000 ) ) ;
#102 = PRODUCT ( '81412', '81412', '', ( #40 ) ) ;
#103 = VECTOR ( 'NONE', #288, 39.37007874015748143 ) ;
#104 = ADVANCED_FACE ( 'NONE', ( #249 ), #292, .T. ) ;
#105 =( NAMED_UNIT ( * ) PLANE_ANGLE_UNIT ( ) SI_UNIT ( $, .RADIAN. ) );
#106 = DIRECTION ( 'NONE',  ( -0.000000000000000000, -1.000000000000000000, -0.000000000000000000 ) ) ;
#107 = COLOUR_RGB ( '',1.000000000000000000, 0.000000000000000000, 0.000000000000000000 ) ;
#108 = SURFACE_SIDE_STYLE ('',( #300 ) ) ;
#109 = VERTEX_POINT ( 'NONE', #71 ) ;
#110 = DIRECTION ( 'NONE',  ( 0.000000000000000000, 0.000000000000000000, -1.000000000000000000 ) ) ;
#111 = EDGE_LOOP ( 'NONE', ( #158, #93, #296, #85 ) ) ;
#112 = UNCERTAINTY_MEASURE_WITH_UNIT (LENGTH_MEASURE( 1.000000000000000082E-05 ), #168, 'distance_accuracy_value', 'NONE');
#113 = SURFACE_STYLE_USAGE ( .BOTH. , #108 ) ;
#114 = COLOUR_RGB ( '',0.7921568627450980005, 0.8196078431372548767, 0.9333333333333333481 ) ;
#115 = DIRECTION ( 'NONE',  ( 3.498990854706726443E-17, 1.000000000000000000, -0.000000000000000000 ) ) ;
#116 = CIRCLE ( 'NONE', #195, 0.1874999999999999445 ) ;
#117 = ORIENTED_EDGE ( 'NONE', *, *, #153, .F. ) ;
#118 = AXIS2_PLACEMENT_3D ( 'NONE', #268, #180, #199 ) ;
#119 = ADVANCED_FACE ( 'NONE', ( #251 ), #127, .F. ) ;
#120 =( NAMED_UNIT ( * ) PLANE_ANGLE_UNIT ( ) SI_UNIT ( $, .RADIAN. ) );
#121 = CARTESIAN_POINT ( 'NONE',  ( 1.147775343873872857E-34, 0.7500000000000001110, 0.000000000000000000 ) ) ;
#122 = APPLICATION_PROTOCOL_DEFINITION ( 'draft international standard', 'automotive_design', 1998, #217 ) ;
#123 = FACE_OUTER_BOUND ( 'NONE', #201, .T. ) ;
#124 = STYLED_ITEM ( 'NONE', ( #96 ), #271 ) ;
#125 = ORIENTED_EDGE ( 'NONE', *, *, #10, .T. ) ;
#126 = SURFACE_SIDE_STYLE ('',( #174 ) ) ;
#127 = PLANE ( 'NONE',  #219 ) ;
#128 = ORIENTED_EDGE ( 'NONE', *, *, #302, .T. ) ;
#129 = MECHANICAL_DESIGN_GEOMETRIC_PRESENTATION_REPRESENTATION (  '', ( #260 ), #255 ) ;
#130 = FACE_OUTER_BOUND ( 'NONE', #227, .T. ) ;
#131 = PRESENTATION_STYLE_ASSIGNMENT (( #196 ) ) ;
#132 = ADVANCED_FACE ( 'NONE', ( #257 ), #68, .F. ) ;
#133 = CARTESIAN_POINT ( 'NONE',  ( 0.000000000000000000, 0.000000000000000000, -0.1875000000000000278 ) ) ;
#134 = VERTEX_POINT ( 'NONE', #283 ) ;
#135 = CARTESIAN_POINT ( 'NONE',  ( 6.123233995736772199E-17, 2.500000000000000000, 0.000000000000000000 ) ) ;
#136 = MECHANICAL_DESIGN_GEOMETRIC_PRESENTATION_REPRESENTATION (  '', ( #293 ), #173 ) ;
#137 = DIMENSIONAL_EXPONENTS ( 1.000000000000000000, 0.000000000000000000, 0.000000000000000000, 0.000000000000000000, 0.000000000000000000, 0.000000000000000000, 0.000000000000000000 ) ;
#138 =( LENGTH_UNIT ( ) NAMED_UNIT ( * ) SI_UNIT ( $, .METRE. ) );
#139 =( NAMED_UNIT ( * ) SI_UNIT ( $, .STERADIAN. ) SOLID_ANGLE_UNIT ( ) );
#140 = FILL_AREA_STYLE_COLOUR ( '', #284 ) ;
#141 = DIMENSIONAL_EXPONENTS ( 1.000000000000000000, 0.000000000000000000, 0.000000000000000000, 0.000000000000000000, 0.000000000000000000, 0.000000000000000000, 0.000000000000000000 ) ;
#142 = UNCERTAINTY_MEASURE_WITH_UNIT (LENGTH_MEASURE( 1.000000000000000082E-05 ), #259, 'distance_accuracy_value', 'NONE');
#143 = MECHANICAL_DESIGN_GEOMETRIC_PRESENTATION_REPRESENTATION (  '', ( #157 ), #200 ) ;
#144 = SURFACE_STYLE_USAGE ( .BOTH. , #188 ) ;
#145 = MECHANICAL_DESIGN_GEOMETRIC_PRESENTATION_REPRESENTATION (  '', ( #124 ), #161 ) ;
#146 = ORIENTED_EDGE ( 'NONE', *, *, #291, .T. ) ;
#147 = CARTESIAN_POINT ( 'NONE',  ( 0.000000000000000000, 0.7500000000000001110, 0.000000000000000000 ) ) ;
#148 = DIRECTION ( 'NONE',  ( -0.000000000000000000, -1.000000000000000000, -0.000000000000000000 ) ) ;
#149 = ORIENTED_EDGE ( 'NONE', *, *, #153, .T. ) ;
#150 =( NAMED_UNIT ( * ) SI_UNIT ( $, .STERADIAN. ) SOLID_ANGLE_UNIT ( ) );
#151 = CLOSED_SHELL ( 'NONE', ( #104, #271, #285, #50 ) ) ;
#152 = DIRECTION ( 'NONE',  ( 0.000000000000000000, 0.000000000000000000, -1.000000000000000000 ) ) ;
#153 = EDGE_CURVE ( 'NONE', #252, #109, #190, .T. ) ;
#154 = CARTESIAN_POINT ( 'NONE',  ( -0.1874999999999999167, 2.500000000000000000, 0.000000000000000000 ) ) ;
#155 = FILL_AREA_STYLE ('',( #267 ) ) ;
#156 = PRESENTATION_LAYER_ASSIGNMENT (  '', '', ( #229 ) ) ;
#157 = STYLED_ITEM ( 'NONE', ( #176 ), #50 ) ;
#158 = ORIENTED_EDGE ( 'NONE', *, *, #302, .F. ) ;
#159 = FILL_AREA_STYLE ('',( #221 ) ) ;
#160 = ORIENTED_EDGE ( 'NONE', *, *, #95, .F. ) ;
#161 =( GEOMETRIC_REPRESENTATION_CONTEXT ( 3 ) GLOBAL_UNCERTAINTY_ASSIGNED_CONTEXT ( ( #162 ) ) GLOBAL_UNIT_ASSIGNED_CONTEXT ( ( #282, #171, #309 ) ) REPRESENTATION_CONTEXT ( 'NONE', 'WORKASPACE' ) );
#162 = UNCERTAINTY_MEASURE_WITH_UNIT (LENGTH_MEASURE( 1.000000000000000082E-05 ), #282, 'distance_accuracy_value', 'NONE');
#163 = CARTESIAN_POINT ( 'NONE',  ( -0.1874999999999998890, 2.500000000000000000, 0.000000000000000000 ) ) ;
#164 = MANIFOLD_SOLID_BREP ( 'Revolve - Tool Body (Straight Shanked)', #205 ) ;
#165 =( NAMED_UNIT ( * ) SI_UNIT ( $, .STERADIAN. ) SOLID_ANGLE_UNIT ( ) );
#166 = ORIENTED_EDGE ( 'NONE', *, *, #278, .F. ) ;
#167 = MECHANICAL_DESIGN_GEOMETRIC_PRESENTATION_REPRESENTATION (  '', ( #16 ), #86 ) ;
#168 =( CONVERSION_BASED_UNIT ( 'INCH', #253 ) LENGTH_UNIT ( ) NAMED_UNIT ( #298 ) );
#169 = PRODUCT_DEFINITION_CONTEXT ( 'detailed design', #217, 'design' ) ;
#170 = SURFACE_STYLE_USAGE ( .BOTH. , #45 ) ;
#171 =( NAMED_UNIT ( * ) PLANE_ANGLE_UNIT ( ) SI_UNIT ( $, .RADIAN. ) );
#172 = FACE_OUTER_BOUND ( 'NONE', #18, .T. ) ;
#173 =( GEOMETRIC_REPRESENTATION_CONTEXT ( 3 ) GLOBAL_UNCERTAINTY_ASSIGNED_CONTEXT ( ( #112 ) ) GLOBAL_UNIT_ASSIGNED_CONTEXT ( ( #168, #120, #139 ) ) REPRESENTATION_CONTEXT ( 'NONE', 'WORKASPACE' ) );
#174 = SURFACE_STYLE_FILL_AREA ( #233 ) ;
#175 = DIRECTION ( 'NONE',  ( -1.000000000000000000, 3.498990854706726443E-17, 0.000000000000000000 ) ) ;
#176 = PRESENTATION_STYLE_ASSIGNMENT (( #256 ) ) ;
#177 = CYLINDRICAL_SURFACE ( 'NONE', #49, 0.1875000000000000278 ) ;
#178 = CIRCLE ( 'NONE', #194, 0.1875000000000000278 ) ;
#179 = CARTESIAN_POINT ( 'NONE',  ( 0.000000000000000000, 0.000000000000000000, 0.000000000000000000 ) ) ;
#180 = DIRECTION ( 'NONE',  ( 3.498990854706726443E-17, 1.000000000000000000, -0.000000000000000000 ) ) ;
#181 = CARTESIAN_POINT ( 'NONE',  ( 2.296212748401287726E-17, 0.7500000000000001110, 0.1875000000000000278 ) ) ;
#182 =( CONVERSION_BASED_UNIT ( 'INCH', #52 ) LENGTH_UNIT ( ) NAMED_UNIT ( #141 ) );
#183 = DIRECTION ( 'NONE',  ( 0.000000000000000000, 0.000000000000000000, -1.000000000000000000 ) ) ;
#184 = DIRECTION ( 'NONE',  ( -0.000000000000000000, -1.000000000000000000, -0.000000000000000000 ) ) ;
#185 = LINE ( 'NONE', #133, #232 ) ;
#186 = ORIENTED_EDGE ( 'NONE', *, *, #4, .F. ) ;
#187 = CIRCLE ( 'NONE', #203, 0.1874999999999999445 ) ;
#188 = SURFACE_SIDE_STYLE ('',( #307 ) ) ;
#189 = COLOUR_RGB ( '',1.000000000000000000, 0.000000000000000000, 0.000000000000000000 ) ;
#190 = LINE ( 'NONE', #207, #73 ) ;
#191 = DIRECTION ( 'NONE',  ( -1.000000000000000000, 0.000000000000000000, 0.000000000000000000 ) ) ;
#192 = UNCERTAINTY_MEASURE_WITH_UNIT (LENGTH_MEASURE( 1.000000000000000082E-05 ), #182, 'distance_accuracy_value', 'NONE');
#193 = CARTESIAN_POINT ( 'NONE',  ( 0.000000000000000000, 0.7499999999999998890, 0.000000000000000000 ) ) ;
#194 = AXIS2_PLACEMENT_3D ( 'NONE', #82, #31, #110 ) ;
#195 = AXIS2_PLACEMENT_3D ( 'NONE', #214, #70, #25 ) ;
#196 = SURFACE_STYLE_USAGE ( .BOTH. , #286 ) ;
#197 =( CONVERSION_BASED_UNIT ( 'INCH', #11 ) LENGTH_UNIT ( ) NAMED_UNIT ( #89 ) );
#198 = DIRECTION ( 'NONE',  ( 0.000000000000000000, 0.000000000000000000, -1.000000000000000000 ) ) ;
#199 = DIRECTION ( 'NONE',  ( -1.000000000000000000, 0.000000000000000000, 0.000000000000000000 ) ) ;
#200 =( GEOMETRIC_REPRESENTATION_CONTEXT ( 3 ) GLOBAL_UNCERTAINTY_ASSIGNED_CONTEXT ( ( #142 ) ) GLOBAL_UNIT_ASSIGNED_CONTEXT ( ( #259, #262, #264 ) ) REPRESENTATION_CONTEXT ( 'NONE', 'WORKASPACE' ) );
#201 = EDGE_LOOP ( 'NONE', ( #23, #186 ) ) ;
#202 = ORIENTED_EDGE ( 'NONE', *, *, #44, .F. ) ;
#203 = AXIS2_PLACEMENT_3D ( 'NONE', #209, #237, #191 ) ;
#204 = AXIS2_PLACEMENT_3D ( 'NONE', #263, #77, #289 ) ;
#205 = CLOSED_SHELL ( 'NONE', ( #98, #119, #294, #132 ) ) ;
#206 = UNCERTAINTY_MEASURE_WITH_UNIT (LENGTH_MEASURE( 1.000000000000000082E-05 ), #28, 'distance_accuracy_value', 'NONE');
#207 = CARTESIAN_POINT ( 'NONE',  ( 0.1875000000000000555, 2.500000000000000000, 2.296212748401286801E-17 ) ) ;
#208 = FILL_AREA_STYLE_COLOUR ( '', #36 ) ;
#209 = CARTESIAN_POINT ( 'NONE',  ( 6.123233995736772199E-17, 2.500000000000000000, 0.000000000000000000 ) ) ;
#210 = SURFACE_STYLE_FILL_AREA ( #301 ) ;
#211 = CARTESIAN_POINT ( 'NONE',  ( 0.000000000000000000, 0.7500000000000001110, 0.000000000000000000 ) ) ;
#212 = ORIENTED_EDGE ( 'NONE', *, *, #10, .F. ) ;
#213 = DIRECTION ( 'NONE',  ( 0.000000000000000000, 0.000000000000000000, -1.000000000000000000 ) ) ;
#214 = CARTESIAN_POINT ( 'NONE',  ( 6.123233995736772199E-17, 2.500000000000000000, 0.000000000000000000 ) ) ;
#215 = CIRCLE ( 'NONE', #204, 0.1875000000000000278 ) ;
#216 =( LENGTH_UNIT ( ) NAMED_UNIT ( * ) SI_UNIT ( $, .METRE. ) );
#217 = APPLICATION_CONTEXT ( 'automotive_design' ) ;
#218 = DIRECTION ( 'NONE',  ( -0.000000000000000000, -1.000000000000000000, -0.000000000000000000 ) ) ;
#219 = AXIS2_PLACEMENT_3D ( 'NONE', #121, #42, #175 ) ;
#220 = CARTESIAN_POINT ( 'NONE',  ( 0.000000000000000000, 0.000000000000000000, 0.000000000000000000 ) ) ;
#221 = FILL_AREA_STYLE_COLOUR ( '', #107 ) ;
#222 = ORIENTED_EDGE ( 'NONE', *, *, #305, .T. ) ;
#223 = DIRECTION ( 'NONE',  ( 0.000000000000000000, 0.000000000000000000, 1.000000000000000000 ) ) ;
#224 =( GEOMETRIC_REPRESENTATION_CONTEXT ( 3 ) GLOBAL_UNCERTAINTY_ASSIGNED_CONTEXT ( ( #206 ) ) GLOBAL_UNIT_ASSIGNED_CONTEXT ( ( #28, #105, #24 ) ) REPRESENTATION_CONTEXT ( 'NONE', 'WORKASPACE' ) );
#225 = APPLICATION_PROTOCOL_DEFINITION ( 'draft international standard', 'automotive_design', 1998, #91 ) ;
#226 = UNCERTAINTY_MEASURE_WITH_UNIT (LENGTH_MEASURE( 1.000000000000000082E-05 ), #35, 'distance_accuracy_value', 'NONE');
#227 = EDGE_LOOP ( 'NONE', ( #117, #59, #222, #58 ) ) ;
#228 = DIMENSIONAL_EXPONENTS ( 1.000000000000000000, 0.000000000000000000, 0.000000000000000000, 0.000000000000000000, 0.000000000000000000, 0.000000000000000000, 0.000000000000000000 ) ;
#229 = STYLED_ITEM ( 'NONE', ( #56 ), #54 ) ;
#230 = CIRCLE ( 'NONE', #9, 0.1875000000000000278 ) ;
#231 = FILL_AREA_STYLE_COLOUR ( '', #189 ) ;
#232 = VECTOR ( 'NONE', #106, 39.37007874015748143 ) ;
#233 = FILL_AREA_STYLE ('',( #140 ) ) ;
#234 = PRODUCT_RELATED_PRODUCT_CATEGORY ( 'part', '', ( #102 ) ) ;
#235 = ORIENTED_EDGE ( 'NONE', *, *, #278, .T. ) ;
#236 = CARTESIAN_POINT ( 'NONE',  ( 2.296212748401287726E-17, 0.000000000000000000, 0.1875000000000000278 ) ) ;
#237 = DIRECTION ( 'NONE',  ( 3.498990854706726443E-17, 1.000000000000000000, -0.000000000000000000 ) ) ;
#238 = DIRECTION ( 'NONE',  ( -0.000000000000000000, -1.000000000000000000, -0.000000000000000000 ) ) ;
#239 = AXIS2_PLACEMENT_3D ( 'NONE', #76, #238, #152 ) ;
#240 = LENGTH_MEASURE_WITH_UNIT ( LENGTH_MEASURE( 0.02539999999999999897 ), #266 );
#241 = SURFACE_STYLE_FILL_AREA ( #155 ) ;
#242 = COLOUR_RGB ( '',1.000000000000000000, 0.000000000000000000, 0.000000000000000000 ) ;
#243 = CIRCLE ( 'NONE', #274, 0.1875000000000000278 ) ;
#244 = VECTOR ( 'NONE', #258, 39.37007874015748143 ) ;
#245 = PRESENTATION_STYLE_ASSIGNMENT (( #113 ) ) ;
#246 = EDGE_LOOP ( 'NONE', ( #146, #128, #166, #160 ) ) ;
#247 = FACE_OUTER_BOUND ( 'NONE', #17, .T. ) ;
#248 = ADVANCED_BREP_SHAPE_REPRESENTATION ( '81412', ( #54, #164, #265 ), #224 ) ;
#249 = FACE_OUTER_BOUND ( 'NONE', #246, .T. ) ;
#250 = AXIS2_PLACEMENT_3D ( 'NONE', #275, #279, #65 ) ;
#251 = FACE_OUTER_BOUND ( 'NONE', #297, .T. ) ;
#252 = VERTEX_POINT ( 'NONE', #90 ) ;
#253 = LENGTH_MEASURE_WITH_UNIT ( LENGTH_MEASURE( 0.02539999999999999897 ), #303 );
#254 = FILL_AREA_STYLE ('',( #231 ) ) ;
#255 =( GEOMETRIC_REPRESENTATION_CONTEXT ( 3 ) GLOBAL_UNCERTAINTY_ASSIGNED_CONTEXT ( ( #226 ) ) GLOBAL_UNIT_ASSIGNED_CONTEXT ( ( #35, #63, #165 ) ) REPRESENTATION_CONTEXT ( 'NONE', 'WORKASPACE' ) );
#256 = SURFACE_STYLE_USAGE ( .BOTH. , #126 ) ;
#257 = FACE_OUTER_BOUND ( 'NONE', #280, .T. ) ;
#258 = DIRECTION ( 'NONE',  ( 3.498990854706726443E-17, 1.000000000000000000, -0.000000000000000000 ) ) ;
#259 =( CONVERSION_BASED_UNIT ( 'INCH', #8 ) LENGTH_UNIT ( ) NAMED_UNIT ( #295 ) );
#260 = STYLED_ITEM ( 'NONE', ( #245 ), #104 ) ;
#261 = CARTESIAN_POINT ( 'NONE',  ( 0.000000000000000000, 0.000000000000000000, 0.000000000000000000 ) ) ;
#262 =( NAMED_UNIT ( * ) PLANE_ANGLE_UNIT ( ) SI_UNIT ( $, .RADIAN. ) );
#263 = CARTESIAN_POINT ( 'NONE',  ( 0.000000000000000000, 0.7499999999999998890, 0.000000000000000000 ) ) ;
#264 =( NAMED_UNIT ( * ) SI_UNIT ( $, .STERADIAN. ) SOLID_ANGLE_UNIT ( ) );
#265 = AXIS2_PLACEMENT_3D ( 'NONE', #94, #223, #20 ) ;
#266 =( LENGTH_UNIT ( ) NAMED_UNIT ( * ) SI_UNIT ( $, .METRE. ) );
#267 = FILL_AREA_STYLE_COLOUR ( '', #114 ) ;
#268 = CARTESIAN_POINT ( 'NONE',  ( 6.123233995736772199E-17, 2.500000000000000000, 0.000000000000000000 ) ) ;
#269 = SURFACE_STYLE_USAGE ( .BOTH. , #78 ) ;
#270 = PRESENTATION_LAYER_ASSIGNMENT (  '', '', ( #157 ) ) ;
#271 = ADVANCED_FACE ( 'NONE', ( #123 ), #43, .T. ) ;
#272 = CYLINDRICAL_SURFACE ( 'NONE', #306, 0.1874999999999999722 ) ;
#273 = UNCERTAINTY_MEASURE_WITH_UNIT (LENGTH_MEASURE( 1.000000000000000082E-05 ), #197, 'distance_accuracy_value', 'NONE');
#274 = AXIS2_PLACEMENT_3D ( 'NONE', #211, #148, #308 ) ;
#275 = CARTESIAN_POINT ( 'NONE',  ( 0.1875000000000000278, 2.500000000000000000, 0.000000000000000000 ) ) ;
#276 = ORIENTED_EDGE ( 'NONE', *, *, #305, .F. ) ;
#277 = PRESENTATION_LAYER_ASSIGNMENT (  '', '', ( #124 ) ) ;
#278 = EDGE_CURVE ( 'NONE', #83, #67, #27, .T. ) ;
#279 = DIRECTION ( 'NONE',  ( -3.498990854706726443E-17, -1.000000000000000000, 0.000000000000000000 ) ) ;
#280 = EDGE_LOOP ( 'NONE', ( #21, #32 ) ) ;
#281 = EDGE_CURVE ( 'NONE', #252, #134, #215, .T. ) ;
#282 =( CONVERSION_BASED_UNIT ( 'INCH', #1 ) LENGTH_UNIT ( ) NAMED_UNIT ( #48 ) );
#283 = CARTESIAN_POINT ( 'NONE',  ( -0.1875000000000000278, 0.7499999999999998890, 0.000000000000000000 ) ) ;
#284 = COLOUR_RGB ( '',1.000000000000000000, 0.000000000000000000, 0.000000000000000000 ) ;
#285 = ADVANCED_FACE ( 'NONE', ( #6 ), #177, .T. ) ;
#286 = SURFACE_SIDE_STYLE ('',( #51 ) ) ;
#287 = AXIS2_PLACEMENT_3D ( 'NONE', #179, #100, #198 ) ;
#288 = DIRECTION ( 'NONE',  ( -0.000000000000000000, -1.000000000000000000, -0.000000000000000000 ) ) ;
#289 = DIRECTION ( 'NONE',  ( -1.000000000000000000, 0.000000000000000000, 0.000000000000000000 ) ) ;
#290 = DIRECTION ( 'NONE',  ( 0.000000000000000000, -1.000000000000000000, -0.000000000000000000 ) ) ;
#291 = EDGE_CURVE ( 'NONE', #37, #64, #66, .T. ) ;
#292 = CYLINDRICAL_SURFACE ( 'NONE', #92, 0.1875000000000000278 ) ;
#293 = STYLED_ITEM ( 'NONE', ( #69 ), #164 ) ;
#294 = ADVANCED_FACE ( 'NONE', ( #130 ), #55, .T. ) ;
#295 = DIMENSIONAL_EXPONENTS ( 1.000000000000000000, 0.000000000000000000, 0.000000000000000000, 0.000000000000000000, 0.000000000000000000, 0.000000000000000000, 0.000000000000000000 ) ;
#296 = ORIENTED_EDGE ( 'NONE', *, *, #95, .T. ) ;
#297 = EDGE_LOOP ( 'NONE', ( #212, #62 ) ) ;
#298 = DIMENSIONAL_EXPONENTS ( 1.000000000000000000, 0.000000000000000000, 0.000000000000000000, 0.000000000000000000, 0.000000000000000000, 0.000000000000000000, 0.000000000000000000 ) ;
#299 = PRODUCT_DEFINITION_SHAPE ( 'NONE', 'NONE',  #57 ) ;
#300 = SURFACE_STYLE_FILL_AREA ( #159 ) ;
#301 = FILL_AREA_STYLE ('',( #208 ) ) ;
#302 = EDGE_CURVE ( 'NONE', #64, #67, #26, .T. ) ;
#303 =( LENGTH_UNIT ( ) NAMED_UNIT ( * ) SI_UNIT ( $, .METRE. ) );
#304 = PLANE ( 'NONE',  #60 ) ;
#305 = EDGE_CURVE ( 'NONE', #134, #97, #5, .T. ) ;
#306 = AXIS2_PLACEMENT_3D ( 'NONE', #135, #115, #15 ) ;
#307 = SURFACE_STYLE_FILL_AREA ( #254 ) ;
#308 = DIRECTION ( 'NONE',  ( 0.000000000000000000, 0.000000000000000000, -1.000000000000000000 ) ) ;
#309 =( NAMED_UNIT ( * ) SI_UNIT ( $, .STERADIAN. ) SOLID_ANGLE_UNIT ( ) );
ENDSEC;
END-ISO-10303-21;
