ISO-10303-21;
HEADER;
FILE_DESCRIPTION (( 'STEP AP214' ),
    '1' );
FILE_NAME ('82397.STEP',
    '2023-06-23T05:44:45',
    ( '' ),
    ( '' ),
    'SwSTEP 2.0',
    'SolidWorks 2023',
    '' );
FILE_SCHEMA (( 'AUTOMOTIVE_DESIGN' ));
ENDSEC;

DATA;
#1 = DIRECTION ( 'NONE',  ( -0.000000000000000000, -1.000000000000000000, -0.000000000000000000 ) ) ;
#2 = DIRECTION ( 'NONE',  ( -1.000000000000000000, 0.000000000000000000, 0.000000000000000000 ) ) ;
#3 = CIRCLE ( 'NONE', #256, 0.2500000000000000000 ) ;
#4 =( GEOMETRIC_REPRESENTATION_CONTEXT ( 3 ) GLOBAL_UNCERTAINTY_ASSIGNED_CONTEXT ( ( #219 ) ) GLOBAL_UNIT_ASSIGNED_CONTEXT ( ( #150, #257, #249 ) ) REPRESENTATION_CONTEXT ( 'NONE', 'WORKASPACE' ) );
#5 = UNCERTAINTY_MEASURE_WITH_UNIT (LENGTH_MEASURE( 1.000000000000000082E-05 ), #135, 'distance_accuracy_value', 'NONE');
#6 = CARTESIAN_POINT ( 'NONE',  ( 0.000000000000000000, 0.000000000000000000, 0.000000000000000000 ) ) ;
#7 = MECHANICAL_DESIGN_GEOMETRIC_PRESENTATION_REPRESENTATION (  '', ( #247 ), #125 ) ;
#8 = AXIS2_PLACEMENT_3D ( 'NONE', #291, #133, #290 ) ;
#9 = ORIENTED_EDGE ( 'NONE', *, *, #39, .T. ) ;
#10 = DIRECTION ( 'NONE',  ( -8.519282081025069112E-17, 1.000000000000000000, -0.000000000000000000 ) ) ;
#11 = ORIENTED_EDGE ( 'NONE', *, *, #231, .T. ) ;
#12 = PRESENTATION_STYLE_ASSIGNMENT (( #145 ) ) ;
#13 = ORIENTED_EDGE ( 'NONE', *, *, #74, .F. ) ;
#14 = PLANE ( 'NONE',  #305 ) ;
#15 =( LENGTH_UNIT ( ) NAMED_UNIT ( * ) SI_UNIT ( $, .METRE. ) );
#16 = SURFACE_SIDE_STYLE ('',( #278 ) ) ;
#17 = FILL_AREA_STYLE_COLOUR ( '', #189 ) ;
#18 = ORIENTED_EDGE ( 'NONE', *, *, #73, .T. ) ;
#19 = FILL_AREA_STYLE ('',( #17 ) ) ;
#20 = PRESENTATION_STYLE_ASSIGNMENT (( #288 ) ) ;
#21 = CARTESIAN_POINT ( 'NONE',  ( 9.072270897009353870E-34, 3.125000000000000000, 0.000000000000000000 ) ) ;
#22 =( GEOMETRIC_REPRESENTATION_CONTEXT ( 3 ) GLOBAL_UNCERTAINTY_ASSIGNED_CONTEXT ( ( #67 ) ) GLOBAL_UNIT_ASSIGNED_CONTEXT ( ( #98, #121, #214 ) ) REPRESENTATION_CONTEXT ( 'NONE', 'WORKASPACE' ) );
#23 = LENGTH_MEASURE_WITH_UNIT ( LENGTH_MEASURE( 0.02539999999999999897 ), #46 );
#24 = CARTESIAN_POINT ( 'NONE',  ( 0.000000000000000000, 0.000000000000000000, 0.000000000000000000 ) ) ;
#25 = DIRECTION ( 'NONE',  ( -8.519282081025069112E-17, 1.000000000000000000, -0.000000000000000000 ) ) ;
#26 = CARTESIAN_POINT ( 'NONE',  ( 0.000000000000000000, 3.125000000000000000, 0.000000000000000000 ) ) ;
#27 = APPLICATION_PROTOCOL_DEFINITION ( 'draft international standard', 'automotive_design', 1998, #237 ) ;
#28 = DIRECTION ( 'NONE',  ( -1.000000000000000000, -8.519282081025069112E-17, 0.000000000000000000 ) ) ;
#29 = ADVANCED_FACE ( 'NONE', ( #218 ), #106, .F. ) ;
#30 = ADVANCED_BREP_SHAPE_REPRESENTATION ( '82397', ( #198, #100, #151 ), #69 ) ;
#31 = ADVANCED_FACE ( 'NONE', ( #238 ), #275, .T. ) ;
#32 = ORIENTED_EDGE ( 'NONE', *, *, #88, .T. ) ;
#33 = ORIENTED_EDGE ( 'NONE', *, *, #235, .T. ) ;
#34 = EDGE_LOOP ( 'NONE', ( #33, #32, #37, #193 ) ) ;
#35 = ORIENTED_EDGE ( 'NONE', *, *, #231, .F. ) ;
#36 = PRODUCT ( '82397', '82397', '', ( #181 ) ) ;
#37 = ORIENTED_EDGE ( 'NONE', *, *, #47, .F. ) ;
#38 = PRESENTATION_LAYER_ASSIGNMENT (  '', '', ( #247 ) ) ;
#39 = EDGE_CURVE ( 'NONE', #272, #126, #49, .T. ) ;
#40 = SHAPE_DEFINITION_REPRESENTATION ( #53, #30 ) ;
#41 = FILL_AREA_STYLE ('',( #83 ) ) ;
#42 = CYLINDRICAL_SURFACE ( 'NONE', #307, 0.2500000000000001110 ) ;
#43 = CIRCLE ( 'NONE', #268, 0.2500000000000000000 ) ;
#44 = CARTESIAN_POINT ( 'NONE',  ( 0.000000000000000000, 0.000000000000000000, 0.000000000000000000 ) ) ;
#45 = CARTESIAN_POINT ( 'NONE',  ( -0.2500000000000004996, 6.000000000000000888, 0.000000000000000000 ) ) ;
#46 =( LENGTH_UNIT ( ) NAMED_UNIT ( * ) SI_UNIT ( $, .METRE. ) );
#47 = EDGE_CURVE ( 'NONE', #246, #60, #113, .T. ) ;
#48 = SURFACE_STYLE_FILL_AREA ( #184 ) ;
#49 = CIRCLE ( 'NONE', #80, 0.2500000000000000000 ) ;
#50 = PRODUCT_DEFINITION_FORMATION_WITH_SPECIFIED_SOURCE ( 'ANY', '', #36, .NOT_KNOWN. ) ;
#51 = LENGTH_MEASURE_WITH_UNIT ( LENGTH_MEASURE( 0.02539999999999999897 ), #124 );
#52 = ORIENTED_EDGE ( 'NONE', *, *, #190, .T. ) ;
#53 = PRODUCT_DEFINITION_SHAPE ( 'NONE', 'NONE',  #276 ) ;
#54 = SURFACE_SIDE_STYLE ('',( #78 ) ) ;
#55 = STYLED_ITEM ( 'NONE', ( #107 ), #198 ) ;
#56 = ORIENTED_EDGE ( 'NONE', *, *, #262, .F. ) ;
#57 =( CONVERSION_BASED_UNIT ( 'INCH', #274 ) LENGTH_UNIT ( ) NAMED_UNIT ( #287 ) );
#58 = DIRECTION ( 'NONE',  ( 8.519282081025069112E-17, -1.000000000000000000, 0.000000000000000000 ) ) ;
#59 = FILL_AREA_STYLE ('',( #142 ) ) ;
#60 = VERTEX_POINT ( 'NONE', #251 ) ;
#61 = PRESENTATION_STYLE_ASSIGNMENT (( #171 ) ) ;
#62 =( NAMED_UNIT ( * ) SI_UNIT ( $, .STERADIAN. ) SOLID_ANGLE_UNIT ( ) );
#63 = STYLED_ITEM ( 'NONE', ( #139 ), #101 ) ;
#64 = AXIS2_PLACEMENT_3D ( 'NONE', #6, #270, #104 ) ;
#65 = SURFACE_SIDE_STYLE ('',( #254 ) ) ;
#66 = DIRECTION ( 'NONE',  ( -1.000000000000000000, 0.000000000000000000, 0.000000000000000000 ) ) ;
#67 = UNCERTAINTY_MEASURE_WITH_UNIT (LENGTH_MEASURE( 1.000000000000000082E-05 ), #98, 'distance_accuracy_value', 'NONE');
#68 = PLANE ( 'NONE',  #114 ) ;
#69 =( GEOMETRIC_REPRESENTATION_CONTEXT ( 3 ) GLOBAL_UNCERTAINTY_ASSIGNED_CONTEXT ( ( #277 ) ) GLOBAL_UNIT_ASSIGNED_CONTEXT ( ( #70, #293, #163 ) ) REPRESENTATION_CONTEXT ( 'NONE', 'WORKASPACE' ) );
#70 =( CONVERSION_BASED_UNIT ( 'INCH', #183 ) LENGTH_UNIT ( ) NAMED_UNIT ( #292 ) );
#71 = DIRECTION ( 'NONE',  ( -0.000000000000000000, -1.000000000000000000, -0.000000000000000000 ) ) ;
#72 = SURFACE_STYLE_USAGE ( .BOTH. , #136 ) ;
#73 = EDGE_CURVE ( 'NONE', #164, #192, #3, .T. ) ;
#74 = EDGE_CURVE ( 'NONE', #60, #246, #206, .T. ) ;
#75 = AXIS2_PLACEMENT_3D ( 'NONE', #259, #25, #2 ) ;
#76 = STYLED_ITEM ( 'NONE', ( #12 ), #111 ) ;
#77 = SURFACE_STYLE_USAGE ( .BOTH. , #143 ) ;
#78 = SURFACE_STYLE_FILL_AREA ( #59 ) ;
#79 = ORIENTED_EDGE ( 'NONE', *, *, #235, .F. ) ;
#80 = AXIS2_PLACEMENT_3D ( 'NONE', #128, #203, #134 ) ;
#81 = AXIS2_PLACEMENT_3D ( 'NONE', #24, #1, #92 ) ;
#82 = ORIENTED_EDGE ( 'NONE', *, *, #301, .T. ) ;
#83 = FILL_AREA_STYLE_COLOUR ( '', #156 ) ;
#84 = FACE_OUTER_BOUND ( 'NONE', #99, .T. ) ;
#85 = SURFACE_STYLE_USAGE ( .BOTH. , #16 ) ;
#86 = CARTESIAN_POINT ( 'NONE',  ( -0.2500000000000000000, 3.125000000000000000, 0.000000000000000000 ) ) ;
#87 =( NAMED_UNIT ( * ) PLANE_ANGLE_UNIT ( ) SI_UNIT ( $, .RADIAN. ) );
#88 = EDGE_CURVE ( 'NONE', #272, #60, #180, .T. ) ;
#89 = AXIS2_PLACEMENT_3D ( 'NONE', #186, #10, #294 ) ;
#90 = CARTESIAN_POINT ( 'NONE',  ( 0.000000000000000000, 3.125000000000000000, 0.000000000000000000 ) ) ;
#91 = FACE_OUTER_BOUND ( 'NONE', #210, .T. ) ;
#92 = DIRECTION ( 'NONE',  ( 0.000000000000000000, 0.000000000000000000, -1.000000000000000000 ) ) ;
#93 =( NAMED_UNIT ( * ) SI_UNIT ( $, .STERADIAN. ) SOLID_ANGLE_UNIT ( ) );
#94 = DIRECTION ( 'NONE',  ( 0.000000000000000000, 0.000000000000000000, -1.000000000000000000 ) ) ;
#95 = PRESENTATION_LAYER_ASSIGNMENT (  '', '', ( #63 ) ) ;
#96 = LENGTH_MEASURE_WITH_UNIT ( LENGTH_MEASURE( 0.02539999999999999897 ), #148 );
#97 = ORIENTED_EDGE ( 'NONE', *, *, #73, .F. ) ;
#98 =( CONVERSION_BASED_UNIT ( 'INCH', #96 ) LENGTH_UNIT ( ) NAMED_UNIT ( #185 ) );
#99 = EDGE_LOOP ( 'NONE', ( #35, #18, #211, #302 ) ) ;
#100 = MANIFOLD_SOLID_BREP ( 'Revolve - Tool Body (Straight Shanked)', #267 ) ;
#101 = ADVANCED_FACE ( 'NONE', ( #108 ), #199, .T. ) ;
#102 = EDGE_LOOP ( 'NONE', ( #299, #52 ) ) ;
#103 = AXIS2_PLACEMENT_3D ( 'NONE', #226, #130, #66 ) ;
#104 = DIRECTION ( 'NONE',  ( 0.000000000000000000, 0.000000000000000000, -1.000000000000000000 ) ) ;
#105 =( CONVERSION_BASED_UNIT ( 'INCH', #51 ) LENGTH_UNIT ( ) NAMED_UNIT ( #207 ) );
#106 = PLANE ( 'NONE',  #194 ) ;
#107 = PRESENTATION_STYLE_ASSIGNMENT (( #85 ) ) ;
#108 = FACE_OUTER_BOUND ( 'NONE', #213, .T. ) ;
#109 = PRODUCT_DEFINITION_CONTEXT ( 'detailed design', #237, 'design' ) ;
#110 =( NAMED_UNIT ( * ) SI_UNIT ( $, .STERADIAN. ) SOLID_ANGLE_UNIT ( ) );
#111 = ADVANCED_FACE ( 'NONE', ( #84 ), #212, .T. ) ;
#112 =( CONVERSION_BASED_UNIT ( 'INCH', #23 ) LENGTH_UNIT ( ) NAMED_UNIT ( #234 ) );
#113 = CIRCLE ( 'NONE', #103, 0.2500000000000002220 ) ;
#114 = AXIS2_PLACEMENT_3D ( 'NONE', #44, #300, #94 ) ;
#115 = COLOUR_RGB ( '',0.7921568627450980005, 0.8196078431372548767, 0.9333333333333333481 ) ;
#116 = DIMENSIONAL_EXPONENTS ( 1.000000000000000000, 0.000000000000000000, 0.000000000000000000, 0.000000000000000000, 0.000000000000000000, 0.000000000000000000, 0.000000000000000000 ) ;
#117 = CARTESIAN_POINT ( 'NONE',  ( 3.061616997868383018E-17, 3.125000000000000000, 0.2500000000000000000 ) ) ;
#118 = EDGE_LOOP ( 'NONE', ( #243, #97 ) ) ;
#119 = PRESENTATION_LAYER_ASSIGNMENT (  '', '', ( #264 ) ) ;
#120 = ORIENTED_EDGE ( 'NONE', *, *, #74, .T. ) ;
#121 =( NAMED_UNIT ( * ) PLANE_ANGLE_UNIT ( ) SI_UNIT ( $, .RADIAN. ) );
#122 = ORIENTED_EDGE ( 'NONE', *, *, #88, .F. ) ;
#123 = DIRECTION ( 'NONE',  ( -0.000000000000000000, -1.000000000000000000, -0.000000000000000000 ) ) ;
#124 =( LENGTH_UNIT ( ) NAMED_UNIT ( * ) SI_UNIT ( $, .METRE. ) );
#125 =( GEOMETRIC_REPRESENTATION_CONTEXT ( 3 ) GLOBAL_UNCERTAINTY_ASSIGNED_CONTEXT ( ( #289 ) ) GLOBAL_UNIT_ASSIGNED_CONTEXT ( ( #105, #281, #93 ) ) REPRESENTATION_CONTEXT ( 'NONE', 'WORKASPACE' ) );
#126 = VERTEX_POINT ( 'NONE', #86 ) ;
#127 = DIRECTION ( 'NONE',  ( 0.000000000000000000, 0.000000000000000000, -1.000000000000000000 ) ) ;
#128 = CARTESIAN_POINT ( 'NONE',  ( 0.000000000000000000, 3.125000000000000000, 0.000000000000000000 ) ) ;
#129 = CARTESIAN_POINT ( 'NONE',  ( 0.000000000000000000, 0.000000000000000000, 0.000000000000000000 ) ) ;
#130 = DIRECTION ( 'NONE',  ( -8.519282081025069112E-17, 1.000000000000000000, -0.000000000000000000 ) ) ;
#131 = PRESENTATION_LAYER_ASSIGNMENT (  '', '', ( #273 ) ) ;
#132 = CARTESIAN_POINT ( 'NONE',  ( -0.2500000000000003886, 6.000000000000000888, 0.000000000000000000 ) ) ;
#133 = DIRECTION ( 'NONE',  ( -0.000000000000000000, -1.000000000000000000, -0.000000000000000000 ) ) ;
#134 = DIRECTION ( 'NONE',  ( -1.000000000000000000, 0.000000000000000000, 0.000000000000000000 ) ) ;
#135 =( CONVERSION_BASED_UNIT ( 'INCH', #159 ) LENGTH_UNIT ( ) NAMED_UNIT ( #116 ) );
#136 = SURFACE_SIDE_STYLE ('',( #48 ) ) ;
#137 = AXIS2_PLACEMENT_3D ( 'NONE', #129, #71, #306 ) ;
#138 = CARTESIAN_POINT ( 'NONE',  ( 0.000000000000000000, 0.000000000000000000, 0.000000000000000000 ) ) ;
#139 = PRESENTATION_STYLE_ASSIGNMENT (( #72 ) ) ;
#140 = CIRCLE ( 'NONE', #81, 0.2500000000000000000 ) ;
#141 = ORIENTED_EDGE ( 'NONE', *, *, #160, .F. ) ;
#142 = FILL_AREA_STYLE_COLOUR ( '', #144 ) ;
#143 = SURFACE_SIDE_STYLE ('',( #297 ) ) ;
#144 = COLOUR_RGB ( '',1.000000000000000000, 0.000000000000000000, 0.000000000000000000 ) ;
#145 = SURFACE_STYLE_USAGE ( .BOTH. , #54 ) ;
#146 = EDGE_LOOP ( 'NONE', ( #271, #120 ) ) ;
#147 = PRESENTATION_STYLE_ASSIGNMENT (( #77 ) ) ;
#148 =( LENGTH_UNIT ( ) NAMED_UNIT ( * ) SI_UNIT ( $, .METRE. ) );
#149 = VERTEX_POINT ( 'NONE', #217 ) ;
#150 =( CONVERSION_BASED_UNIT ( 'INCH', #225 ) LENGTH_UNIT ( ) NAMED_UNIT ( #230 ) );
#151 = AXIS2_PLACEMENT_3D ( 'NONE', #239, #244, #260 ) ;
#152 = DIRECTION ( 'NONE',  ( 0.000000000000000000, 0.000000000000000000, -1.000000000000000000 ) ) ;
#153 = FILL_AREA_STYLE_COLOUR ( '', #255 ) ;
#154 = ADVANCED_FACE ( 'NONE', ( #252 ), #68, .T. ) ;
#155 = VECTOR ( 'NONE', #233, 39.37007874015748143 ) ;
#156 = COLOUR_RGB ( '',0.7921568627450980005, 0.8196078431372548767, 0.9333333333333333481 ) ;
#157 =( NAMED_UNIT ( * ) PLANE_ANGLE_UNIT ( ) SI_UNIT ( $, .RADIAN. ) );
#158 = CARTESIAN_POINT ( 'NONE',  ( 0.2499999999999998890, 6.000000000000000888, 3.061616997868384251E-17 ) ) ;
#159 = LENGTH_MEASURE_WITH_UNIT ( LENGTH_MEASURE( 0.02539999999999999897 ), #220 );
#160 = EDGE_CURVE ( 'NONE', #192, #149, #265, .T. ) ;
#161 =( GEOMETRIC_REPRESENTATION_CONTEXT ( 3 ) GLOBAL_UNCERTAINTY_ASSIGNED_CONTEXT ( ( #224 ) ) GLOBAL_UNIT_ASSIGNED_CONTEXT ( ( #112, #87, #62 ) ) REPRESENTATION_CONTEXT ( 'NONE', 'WORKASPACE' ) );
#162 = DIRECTION ( 'NONE',  ( -0.000000000000000000, -1.000000000000000000, -0.000000000000000000 ) ) ;
#163 =( NAMED_UNIT ( * ) SI_UNIT ( $, .STERADIAN. ) SOLID_ANGLE_UNIT ( ) );
#164 = VERTEX_POINT ( 'NONE', #117 ) ;
#165 = FACE_OUTER_BOUND ( 'NONE', #34, .T. ) ;
#166 = FILL_AREA_STYLE_COLOUR ( '', #179 ) ;
#167 = ORIENTED_EDGE ( 'NONE', *, *, #39, .F. ) ;
#168 = DIRECTION ( 'NONE',  ( 1.000000000000000000, 8.519282081025069112E-17, 0.000000000000000000 ) ) ;
#169 = CARTESIAN_POINT ( 'NONE',  ( 0.000000000000000000, 3.125000000000000000, -0.2500000000000000000 ) ) ;
#170 =( NAMED_UNIT ( * ) PLANE_ANGLE_UNIT ( ) SI_UNIT ( $, .RADIAN. ) );
#171 = SURFACE_STYLE_USAGE ( .BOTH. , #65 ) ;
#172 = DIRECTION ( 'NONE',  ( 0.000000000000000000, 1.000000000000000000, 0.000000000000000000 ) ) ;
#173 = CLOSED_SHELL ( 'NONE', ( #101, #31, #111, #154 ) ) ;
#174 =( LENGTH_UNIT ( ) NAMED_UNIT ( * ) SI_UNIT ( $, .METRE. ) );
#175 = MECHANICAL_DESIGN_GEOMETRIC_PRESENTATION_REPRESENTATION (  '', ( #55 ), #232 ) ;
#176 = ADVANCED_FACE ( 'NONE', ( #165 ), #240, .T. ) ;
#177 = DIRECTION ( 'NONE',  ( -1.000000000000000000, 0.000000000000000000, 0.000000000000000000 ) ) ;
#178 = CARTESIAN_POINT ( 'NONE',  ( 3.061616997868383018E-17, 0.000000000000000000, 0.2500000000000000000 ) ) ;
#179 = COLOUR_RGB ( '',1.000000000000000000, 0.000000000000000000, 0.000000000000000000 ) ;
#180 = LINE ( 'NONE', #158, #295 ) ;
#181 = PRODUCT_CONTEXT ( 'NONE', #266, 'mechanical' ) ;
#182 = DIRECTION ( 'NONE',  ( -8.519282081025069112E-17, 1.000000000000000000, 0.000000000000000000 ) ) ;
#183 = LENGTH_MEASURE_WITH_UNIT ( LENGTH_MEASURE( 0.02539999999999999897 ), #205 );
#184 = FILL_AREA_STYLE ('',( #153 ) ) ;
#185 = DIMENSIONAL_EXPONENTS ( 1.000000000000000000, 0.000000000000000000, 0.000000000000000000, 0.000000000000000000, 0.000000000000000000, 0.000000000000000000, 0.000000000000000000 ) ;
#186 = CARTESIAN_POINT ( 'NONE',  ( -2.449293598294707400E-16, 6.000000000000000888, 0.000000000000000000 ) ) ;
#187 = MECHANICAL_DESIGN_GEOMETRIC_PRESENTATION_REPRESENTATION (  '', ( #264 ), #161 ) ;
#188 = CARTESIAN_POINT ( 'NONE',  ( 0.000000000000000000, 0.000000000000000000, -0.2500000000000000000 ) ) ;
#189 = COLOUR_RGB ( '',1.000000000000000000, 0.000000000000000000, 0.000000000000000000 ) ;
#190 = EDGE_CURVE ( 'NONE', #303, #149, #43, .T. ) ;
#191 = EDGE_LOOP ( 'NONE', ( #79, #167 ) ) ;
#192 = VERTEX_POINT ( 'NONE', #169 ) ;
#193 = ORIENTED_EDGE ( 'NONE', *, *, #250, .F. ) ;
#194 = AXIS2_PLACEMENT_3D ( 'NONE', #196, #58, #168 ) ;
#195 = VECTOR ( 'NONE', #204, 39.37007874015748143 ) ;
#196 = CARTESIAN_POINT ( 'NONE',  ( 0.2500000000000000000, 6.000000000000000888, 0.000000000000000000 ) ) ;
#197 = DIRECTION ( 'NONE',  ( -0.000000000000000000, -1.000000000000000000, -0.000000000000000000 ) ) ;
#198 = MANIFOLD_SOLID_BREP ( 'Revolve - Cutting Edge', #173 ) ;
#199 = CYLINDRICAL_SURFACE ( 'NONE', #64, 0.2500000000000000000 ) ;
#200 = ADVANCED_FACE ( 'NONE', ( #222 ), #14, .F. ) ;
#201 = DIRECTION ( 'NONE',  ( 0.000000000000000000, -0.000000000000000000, 1.000000000000000000 ) ) ;
#202 = LINE ( 'NONE', #178, #195 ) ;
#203 = DIRECTION ( 'NONE',  ( -8.519282081025069112E-17, 1.000000000000000000, -0.000000000000000000 ) ) ;
#204 = DIRECTION ( 'NONE',  ( -0.000000000000000000, -1.000000000000000000, -0.000000000000000000 ) ) ;
#205 =( LENGTH_UNIT ( ) NAMED_UNIT ( * ) SI_UNIT ( $, .METRE. ) );
#206 = CIRCLE ( 'NONE', #75, 0.2500000000000002220 ) ;
#207 = DIMENSIONAL_EXPONENTS ( 1.000000000000000000, 0.000000000000000000, 0.000000000000000000, 0.000000000000000000, 0.000000000000000000, 0.000000000000000000, 0.000000000000000000 ) ;
#208 = UNCERTAINTY_MEASURE_WITH_UNIT (LENGTH_MEASURE( 1.000000000000000082E-05 ), #57, 'distance_accuracy_value', 'NONE');
#209 = CIRCLE ( 'NONE', #216, 0.2500000000000000000 ) ;
#210 = EDGE_LOOP ( 'NONE', ( #122, #9, #215, #13 ) ) ;
#211 = ORIENTED_EDGE ( 'NONE', *, *, #160, .T. ) ;
#212 = CYLINDRICAL_SURFACE ( 'NONE', #137, 0.2500000000000000000 ) ;
#213 = EDGE_LOOP ( 'NONE', ( #82, #11, #56, #141 ) ) ;
#214 =( NAMED_UNIT ( * ) SI_UNIT ( $, .STERADIAN. ) SOLID_ANGLE_UNIT ( ) );
#215 = ORIENTED_EDGE ( 'NONE', *, *, #250, .T. ) ;
#216 = AXIS2_PLACEMENT_3D ( 'NONE', #253, #263, #308 ) ;
#217 = CARTESIAN_POINT ( 'NONE',  ( 0.000000000000000000, 0.000000000000000000, -0.2500000000000000000 ) ) ;
#218 = FACE_OUTER_BOUND ( 'NONE', #146, .T. ) ;
#219 = UNCERTAINTY_MEASURE_WITH_UNIT (LENGTH_MEASURE( 1.000000000000000082E-05 ), #150, 'distance_accuracy_value', 'NONE');
#220 =( LENGTH_UNIT ( ) NAMED_UNIT ( * ) SI_UNIT ( $, .METRE. ) );
#221 = SURFACE_STYLE_FILL_AREA ( #309 ) ;
#222 = FACE_OUTER_BOUND ( 'NONE', #191, .T. ) ;
#223 = MECHANICAL_DESIGN_GEOMETRIC_PRESENTATION_REPRESENTATION (  '', ( #273 ), #4 ) ;
#224 = UNCERTAINTY_MEASURE_WITH_UNIT (LENGTH_MEASURE( 1.000000000000000082E-05 ), #112, 'distance_accuracy_value', 'NONE');
#225 = LENGTH_MEASURE_WITH_UNIT ( LENGTH_MEASURE( 0.02539999999999999897 ), #174 );
#226 = CARTESIAN_POINT ( 'NONE',  ( -2.449293598294707400E-16, 6.000000000000000888, 0.000000000000000000 ) ) ;
#227 = CARTESIAN_POINT ( 'NONE',  ( 3.061616997868383018E-17, 0.000000000000000000, 0.2500000000000000000 ) ) ;
#228 = DIRECTION ( 'NONE',  ( -8.519282081025069112E-17, 1.000000000000000000, -0.000000000000000000 ) ) ;
#229 =( NAMED_UNIT ( * ) SI_UNIT ( $, .STERADIAN. ) SOLID_ANGLE_UNIT ( ) );
#230 = DIMENSIONAL_EXPONENTS ( 1.000000000000000000, 0.000000000000000000, 0.000000000000000000, 0.000000000000000000, 0.000000000000000000, 0.000000000000000000, 0.000000000000000000 ) ;
#231 = EDGE_CURVE ( 'NONE', #164, #303, #202, .T. ) ;
#232 =( GEOMETRIC_REPRESENTATION_CONTEXT ( 3 ) GLOBAL_UNCERTAINTY_ASSIGNED_CONTEXT ( ( #5 ) ) GLOBAL_UNIT_ASSIGNED_CONTEXT ( ( #135, #157, #229 ) ) REPRESENTATION_CONTEXT ( 'NONE', 'WORKASPACE' ) );
#233 = DIRECTION ( 'NONE',  ( -8.519282081025069112E-17, 1.000000000000000000, -0.000000000000000000 ) ) ;
#234 = DIMENSIONAL_EXPONENTS ( 1.000000000000000000, 0.000000000000000000, 0.000000000000000000, 0.000000000000000000, 0.000000000000000000, 0.000000000000000000, 0.000000000000000000 ) ;
#235 = EDGE_CURVE ( 'NONE', #126, #272, #209, .T. ) ;
#236 = PRESENTATION_LAYER_ASSIGNMENT (  '', '', ( #76 ) ) ;
#237 = APPLICATION_CONTEXT ( 'automotive_design' ) ;
#238 = FACE_OUTER_BOUND ( 'NONE', #118, .T. ) ;
#239 = CARTESIAN_POINT ( 'NONE',  ( 0.000000000000000000, 0.000000000000000000, 0.000000000000000000 ) ) ;
#240 = CYLINDRICAL_SURFACE ( 'NONE', #89, 0.2500000000000001110 ) ;
#241 = FILL_AREA_STYLE ('',( #166 ) ) ;
#242 = PRESENTATION_LAYER_ASSIGNMENT (  '', '', ( #55 ) ) ;
#243 = ORIENTED_EDGE ( 'NONE', *, *, #301, .F. ) ;
#244 = DIRECTION ( 'NONE',  ( 0.000000000000000000, 0.000000000000000000, 1.000000000000000000 ) ) ;
#245 = ADVANCED_FACE ( 'NONE', ( #91 ), #42, .T. ) ;
#246 = VERTEX_POINT ( 'NONE', #45 ) ;
#247 = STYLED_ITEM ( 'NONE', ( #147 ), #31 ) ;
#248 = MECHANICAL_DESIGN_GEOMETRIC_PRESENTATION_REPRESENTATION (  '', ( #76 ), #280 ) ;
#249 =( NAMED_UNIT ( * ) SI_UNIT ( $, .STERADIAN. ) SOLID_ANGLE_UNIT ( ) );
#250 = EDGE_CURVE ( 'NONE', #126, #246, #282, .T. ) ;
#251 = CARTESIAN_POINT ( 'NONE',  ( 0.2500000000000000000, 6.000000000000000888, 3.061616997868385483E-17 ) ) ;
#252 = FACE_OUTER_BOUND ( 'NONE', #102, .T. ) ;
#253 = CARTESIAN_POINT ( 'NONE',  ( 0.000000000000000000, 3.125000000000000000, 0.000000000000000000 ) ) ;
#254 = SURFACE_STYLE_FILL_AREA ( #19 ) ;
#255 = COLOUR_RGB ( '',1.000000000000000000, 0.000000000000000000, 0.000000000000000000 ) ;
#256 = AXIS2_PLACEMENT_3D ( 'NONE', #26, #197, #152 ) ;
#257 =( NAMED_UNIT ( * ) PLANE_ANGLE_UNIT ( ) SI_UNIT ( $, .RADIAN. ) );
#258 = CIRCLE ( 'NONE', #8, 0.2500000000000000000 ) ;
#259 = CARTESIAN_POINT ( 'NONE',  ( -2.449293598294707400E-16, 6.000000000000000888, 0.000000000000000000 ) ) ;
#260 = DIRECTION ( 'NONE',  ( 1.000000000000000000, 0.000000000000000000, 0.000000000000000000 ) ) ;
#261 = DIRECTION ( 'NONE',  ( -8.519282081025069112E-17, 1.000000000000000000, -0.000000000000000000 ) ) ;
#262 = EDGE_CURVE ( 'NONE', #149, #303, #140, .T. ) ;
#263 = DIRECTION ( 'NONE',  ( -8.519282081025069112E-17, 1.000000000000000000, -0.000000000000000000 ) ) ;
#264 = STYLED_ITEM ( 'NONE', ( #20 ), #100 ) ;
#265 = LINE ( 'NONE', #188, #296 ) ;
#266 = APPLICATION_CONTEXT ( 'automotive_design' ) ;
#267 = CLOSED_SHELL ( 'NONE', ( #176, #200, #245, #29 ) ) ;
#268 = AXIS2_PLACEMENT_3D ( 'NONE', #138, #123, #127 ) ;
#269 = PRODUCT_RELATED_PRODUCT_CATEGORY ( 'part', '', ( #36 ) ) ;
#270 = DIRECTION ( 'NONE',  ( -0.000000000000000000, -1.000000000000000000, -0.000000000000000000 ) ) ;
#271 = ORIENTED_EDGE ( 'NONE', *, *, #47, .T. ) ;
#272 = VERTEX_POINT ( 'NONE', #285 ) ;
#273 = STYLED_ITEM ( 'NONE', ( #61 ), #154 ) ;
#274 = LENGTH_MEASURE_WITH_UNIT ( LENGTH_MEASURE( 0.02539999999999999897 ), #15 );
#275 = PLANE ( 'NONE',  #286 ) ;
#276 = PRODUCT_DEFINITION ( 'UNKNOWN', '', #50, #109 ) ;
#277 = UNCERTAINTY_MEASURE_WITH_UNIT (LENGTH_MEASURE( 1.000000000000000082E-05 ), #70, 'distance_accuracy_value', 'NONE');
#278 = SURFACE_STYLE_FILL_AREA ( #41 ) ;
#279 = FILL_AREA_STYLE_COLOUR ( '', #115 ) ;
#280 =( GEOMETRIC_REPRESENTATION_CONTEXT ( 3 ) GLOBAL_UNCERTAINTY_ASSIGNED_CONTEXT ( ( #208 ) ) GLOBAL_UNIT_ASSIGNED_CONTEXT ( ( #57, #170, #110 ) ) REPRESENTATION_CONTEXT ( 'NONE', 'WORKASPACE' ) );
#281 =( NAMED_UNIT ( * ) PLANE_ANGLE_UNIT ( ) SI_UNIT ( $, .RADIAN. ) );
#282 = LINE ( 'NONE', #132, #155 ) ;
#283 = SURFACE_SIDE_STYLE ('',( #221 ) ) ;
#284 = CARTESIAN_POINT ( 'NONE',  ( -2.449293598294707400E-16, 6.000000000000000888, 0.000000000000000000 ) ) ;
#285 = CARTESIAN_POINT ( 'NONE',  ( 0.2500000000000000000, 3.125000000000000000, 3.061616997868385483E-17 ) ) ;
#286 = AXIS2_PLACEMENT_3D ( 'NONE', #90, #172, #201 ) ;
#287 = DIMENSIONAL_EXPONENTS ( 1.000000000000000000, 0.000000000000000000, 0.000000000000000000, 0.000000000000000000, 0.000000000000000000, 0.000000000000000000, 0.000000000000000000 ) ;
#288 = SURFACE_STYLE_USAGE ( .BOTH. , #283 ) ;
#289 = UNCERTAINTY_MEASURE_WITH_UNIT (LENGTH_MEASURE( 1.000000000000000082E-05 ), #105, 'distance_accuracy_value', 'NONE');
#290 = DIRECTION ( 'NONE',  ( 0.000000000000000000, 0.000000000000000000, -1.000000000000000000 ) ) ;
#291 = CARTESIAN_POINT ( 'NONE',  ( 0.000000000000000000, 3.125000000000000000, 0.000000000000000000 ) ) ;
#292 = DIMENSIONAL_EXPONENTS ( 1.000000000000000000, 0.000000000000000000, 0.000000000000000000, 0.000000000000000000, 0.000000000000000000, 0.000000000000000000, 0.000000000000000000 ) ;
#293 =( NAMED_UNIT ( * ) PLANE_ANGLE_UNIT ( ) SI_UNIT ( $, .RADIAN. ) );
#294 = DIRECTION ( 'NONE',  ( -1.000000000000000000, 0.000000000000000000, 0.000000000000000000 ) ) ;
#295 = VECTOR ( 'NONE', #228, 39.37007874015748143 ) ;
#296 = VECTOR ( 'NONE', #162, 39.37007874015748143 ) ;
#297 = SURFACE_STYLE_FILL_AREA ( #241 ) ;
#298 = APPLICATION_PROTOCOL_DEFINITION ( 'draft international standard', 'automotive_design', 1998, #266 ) ;
#299 = ORIENTED_EDGE ( 'NONE', *, *, #262, .T. ) ;
#300 = DIRECTION ( 'NONE',  ( 0.000000000000000000, -1.000000000000000000, -0.000000000000000000 ) ) ;
#301 = EDGE_CURVE ( 'NONE', #192, #164, #258, .T. ) ;
#302 = ORIENTED_EDGE ( 'NONE', *, *, #190, .F. ) ;
#303 = VERTEX_POINT ( 'NONE', #227 ) ;
#304 = MECHANICAL_DESIGN_GEOMETRIC_PRESENTATION_REPRESENTATION (  '', ( #63 ), #22 ) ;
#305 = AXIS2_PLACEMENT_3D ( 'NONE', #21, #182, #28 ) ;
#306 = DIRECTION ( 'NONE',  ( 0.000000000000000000, 0.000000000000000000, -1.000000000000000000 ) ) ;
#307 = AXIS2_PLACEMENT_3D ( 'NONE', #284, #261, #177 ) ;
#308 = DIRECTION ( 'NONE',  ( -1.000000000000000000, 0.000000000000000000, 0.000000000000000000 ) ) ;
#309 = FILL_AREA_STYLE ('',( #279 ) ) ;
ENDSEC;
END-ISO-10303-21;
