ISO-10303-21;
HEADER;
FILE_DESCRIPTION (( 'STEP AP214' ),
    '1' );
FILE_NAME ('83435.STEP',
    '2023-06-23T10:11:49',
    ( '' ),
    ( '' ),
    'SwSTEP 2.0',
    'SolidWorks 2023',
    '' );
FILE_SCHEMA (( 'AUTOMOTIVE_DESIGN' ));
ENDSEC;

DATA;
#1 = CARTESIAN_POINT ( 'NONE',  ( -1.224646799147352714E-16, 4.000000000000000000, 0.000000000000000000 ) ) ;
#2 = MANIFOLD_SOLID_BREP ( 'Revolve - Tool Body (Straight Shanked)', #295 ) ;
#3 = ORIENTED_EDGE ( 'NONE', *, *, #96, .T. ) ;
#4 = PLANE ( 'NONE',  #119 ) ;
#5 = PRESENTATION_LAYER_ASSIGNMENT (  '', '', ( #55 ) ) ;
#6 = PRESENTATION_STYLE_ASSIGNMENT (( #8 ) ) ;
#7 = EDGE_CURVE ( 'NONE', #147, #266, #258, .T. ) ;
#8 = SURFACE_STYLE_USAGE ( .BOTH. , #133 ) ;
#9 = ORIENTED_EDGE ( 'NONE', *, *, #118, .F. ) ;
#10 = ADVANCED_FACE ( 'NONE', ( #251 ), #89, .T. ) ;
#11 = LINE ( 'NONE', #71, #219 ) ;
#12 =( LENGTH_UNIT ( ) NAMED_UNIT ( * ) SI_UNIT ( $, .METRE. ) );
#13 = PRESENTATION_LAYER_ASSIGNMENT (  '', '', ( #278 ) ) ;
#14 = VERTEX_POINT ( 'NONE', #230 ) ;
#15 = DIRECTION ( 'NONE',  ( -5.024191996501958731E-17, 1.000000000000000000, -0.000000000000000000 ) ) ;
#16 = SURFACE_STYLE_FILL_AREA ( #300 ) ;
#17 = FILL_AREA_STYLE_COLOUR ( '', #301 ) ;
#18 = COLOUR_RGB ( '',1.000000000000000000, 0.000000000000000000, 0.000000000000000000 ) ;
#19 = FILL_AREA_STYLE ('',( #281 ) ) ;
#20 = SURFACE_STYLE_USAGE ( .BOTH. , #75 ) ;
#21 = DIRECTION ( 'NONE',  ( 0.000000000000000000, 0.000000000000000000, 1.000000000000000000 ) ) ;
#22 =( GEOMETRIC_REPRESENTATION_CONTEXT ( 3 ) GLOBAL_UNCERTAINTY_ASSIGNED_CONTEXT ( ( #131 ) ) GLOBAL_UNIT_ASSIGNED_CONTEXT ( ( #40, #134, #189 ) ) REPRESENTATION_CONTEXT ( 'NONE', 'WORKASPACE' ) );
#23 = COLOUR_RGB ( '',0.7921568627450980005, 0.8196078431372548767, 0.9333333333333333481 ) ;
#24 = CARTESIAN_POINT ( 'NONE',  ( 0.000000000000000000, 0.000000000000000000, 0.000000000000000000 ) ) ;
#25 = DIMENSIONAL_EXPONENTS ( 1.000000000000000000, 0.000000000000000000, 0.000000000000000000, 0.000000000000000000, 0.000000000000000000, 0.000000000000000000, 0.000000000000000000 ) ;
#26 = FILL_AREA_STYLE_COLOUR ( '', #23 ) ;
#27 = ORIENTED_EDGE ( 'NONE', *, *, #148, .T. ) ;
#28 = SHAPE_DEFINITION_REPRESENTATION ( #99, #42 ) ;
#29 = PRODUCT_DEFINITION_CONTEXT ( 'detailed design', #63, 'design' ) ;
#30 = LINE ( 'NONE', #126, #35 ) ;
#31 = AXIS2_PLACEMENT_3D ( 'NONE', #191, #21, #284 ) ;
#32 = SURFACE_STYLE_USAGE ( .BOTH. , #212 ) ;
#33 = DIRECTION ( 'NONE',  ( 0.000000000000000000, 0.000000000000000000, -1.000000000000000000 ) ) ;
#34 = ORIENTED_EDGE ( 'NONE', *, *, #116, .F. ) ;
#35 = VECTOR ( 'NONE', #215, 39.37007874015748143 ) ;
#36 = FILL_AREA_STYLE ('',( #110 ) ) ;
#37 = PRODUCT_DEFINITION ( 'UNKNOWN', '', #73, #29 ) ;
#38 =( NAMED_UNIT ( * ) PLANE_ANGLE_UNIT ( ) SI_UNIT ( $, .RADIAN. ) );
#39 = CARTESIAN_POINT ( 'NONE',  ( 0.000000000000000000, 1.562500000000000000, 0.000000000000000000 ) ) ;
#40 =( CONVERSION_BASED_UNIT ( 'INCH', #247 ) LENGTH_UNIT ( ) NAMED_UNIT ( #287 ) );
#41 = CIRCLE ( 'NONE', #84, 0.1562500000000000000 ) ;
#42 = ADVANCED_BREP_SHAPE_REPRESENTATION ( '83435', ( #209, #2, #31 ), #198 ) ;
#43 = DIRECTION ( 'NONE',  ( 0.000000000000000000, 0.000000000000000000, -1.000000000000000000 ) ) ;
#44 = STYLED_ITEM ( 'NONE', ( #145 ), #68 ) ;
#45 = CIRCLE ( 'NONE', #176, 0.1562500000000001388 ) ;
#46 =( LENGTH_UNIT ( ) NAMED_UNIT ( * ) SI_UNIT ( $, .METRE. ) );
#47 = PRODUCT_RELATED_PRODUCT_CATEGORY ( 'part', '', ( #211 ) ) ;
#48 = CLOSED_SHELL ( 'NONE', ( #122, #292, #10, #68 ) ) ;
#49 = AXIS2_PLACEMENT_3D ( 'NONE', #154, #245, #243 ) ;
#50 = CARTESIAN_POINT ( 'NONE',  ( -0.1562500000000002220, 4.000000000000000000, 0.000000000000000000 ) ) ;
#51 = DIMENSIONAL_EXPONENTS ( 1.000000000000000000, 0.000000000000000000, 0.000000000000000000, 0.000000000000000000, 0.000000000000000000, 0.000000000000000000, 0.000000000000000000 ) ;
#52 = ORIENTED_EDGE ( 'NONE', *, *, #137, .T. ) ;
#53 = SURFACE_STYLE_USAGE ( .BOTH. , #162 ) ;
#54 = DIRECTION ( 'NONE',  ( 0.000000000000000000, 0.000000000000000000, -1.000000000000000000 ) ) ;
#55 = STYLED_ITEM ( 'NONE', ( #6 ), #292 ) ;
#56 = VERTEX_POINT ( 'NONE', #254 ) ;
#57 = PRESENTATION_STYLE_ASSIGNMENT (( #53 ) ) ;
#58 = CARTESIAN_POINT ( 'NONE',  ( 0.000000000000000000, 0.000000000000000000, 0.000000000000000000 ) ) ;
#59 = EDGE_LOOP ( 'NONE', ( #52, #206, #9, #286 ) ) ;
#60 = PRESENTATION_LAYER_ASSIGNMENT (  '', '', ( #290 ) ) ;
#61 = DIRECTION ( 'NONE',  ( -0.000000000000000000, -1.000000000000000000, -0.000000000000000000 ) ) ;
#62 = FILL_AREA_STYLE ('',( #17 ) ) ;
#63 = APPLICATION_CONTEXT ( 'automotive_design' ) ;
#64 = SURFACE_STYLE_FILL_AREA ( #36 ) ;
#65 = ORIENTED_EDGE ( 'NONE', *, *, #7, .F. ) ;
#66 = CIRCLE ( 'NONE', #242, 0.1562500000000001388 ) ;
#67 = CYLINDRICAL_SURFACE ( 'NONE', #201, 0.1562500000000000833 ) ;
#68 = ADVANCED_FACE ( 'NONE', ( #277 ), #101, .T. ) ;
#69 = SURFACE_STYLE_FILL_AREA ( #188 ) ;
#70 = AXIS2_PLACEMENT_3D ( 'NONE', #138, #183, #272 ) ;
#71 = CARTESIAN_POINT ( 'NONE',  ( 1.913510623667739463E-17, 0.000000000000000000, 0.1562500000000000000 ) ) ;
#72 = AXIS2_PLACEMENT_3D ( 'NONE', #115, #252, #43 ) ;
#73 = PRODUCT_DEFINITION_FORMATION_WITH_SPECIFIED_SOURCE ( 'ANY', '', #211, .NOT_KNOWN. ) ;
#74 = FACE_OUTER_BOUND ( 'NONE', #59, .T. ) ;
#75 = SURFACE_SIDE_STYLE ('',( #121 ) ) ;
#76 =( CONVERSION_BASED_UNIT ( 'INCH', #117 ) LENGTH_UNIT ( ) NAMED_UNIT ( #260 ) );
#77 = DIRECTION ( 'NONE',  ( -0.000000000000000000, -1.000000000000000000, -0.000000000000000000 ) ) ;
#78 = APPLICATION_PROTOCOL_DEFINITION ( 'draft international standard', 'automotive_design', 1998, #90 ) ;
#79 = LENGTH_MEASURE_WITH_UNIT ( LENGTH_MEASURE( 0.02539999999999999897 ), #173 );
#80 = ORIENTED_EDGE ( 'NONE', *, *, #174, .T. ) ;
#81 = VERTEX_POINT ( 'NONE', #276 ) ;
#82 = UNCERTAINTY_MEASURE_WITH_UNIT (LENGTH_MEASURE( 1.000000000000000082E-05 ), #204, 'distance_accuracy_value', 'NONE');
#83 = DIRECTION ( 'NONE',  ( -5.024191996501958731E-17, 1.000000000000000000, -0.000000000000000000 ) ) ;
#84 = AXIS2_PLACEMENT_3D ( 'NONE', #271, #61, #203 ) ;
#85 = PLANE ( 'NONE',  #140 ) ;
#86 = ADVANCED_FACE ( 'NONE', ( #74 ), #67, .T. ) ;
#87 =( NAMED_UNIT ( * ) SI_UNIT ( $, .STERADIAN. ) SOLID_ANGLE_UNIT ( ) );
#88 = LENGTH_MEASURE_WITH_UNIT ( LENGTH_MEASURE( 0.02539999999999999897 ), #113 );
#89 = CYLINDRICAL_SURFACE ( 'NONE', #149, 0.1562500000000000000 ) ;
#90 = APPLICATION_CONTEXT ( 'automotive_design' ) ;
#91 = VERTEX_POINT ( 'NONE', #143 ) ;
#92 = CYLINDRICAL_SURFACE ( 'NONE', #49, 0.1562500000000000833 ) ;
#93 = ORIENTED_EDGE ( 'NONE', *, *, #7, .T. ) ;
#94 = SURFACE_STYLE_USAGE ( .BOTH. , #159 ) ;
#95 = SURFACE_STYLE_FILL_AREA ( #62 ) ;
#96 = EDGE_CURVE ( 'NONE', #91, #185, #253, .T. ) ;
#97 = CYLINDRICAL_SURFACE ( 'NONE', #296, 0.1562500000000000000 ) ;
#98 =( CONVERSION_BASED_UNIT ( 'INCH', #107 ) LENGTH_UNIT ( ) NAMED_UNIT ( #25 ) );
#99 = PRODUCT_DEFINITION_SHAPE ( 'NONE', 'NONE',  #37 ) ;
#100 = FILL_AREA_STYLE_COLOUR ( '', #309 ) ;
#101 = PLANE ( 'NONE',  #249 ) ;
#102 =( GEOMETRIC_REPRESENTATION_CONTEXT ( 3 ) GLOBAL_UNCERTAINTY_ASSIGNED_CONTEXT ( ( #169 ) ) GLOBAL_UNIT_ASSIGNED_CONTEXT ( ( #158, #250, #294 ) ) REPRESENTATION_CONTEXT ( 'NONE', 'WORKASPACE' ) );
#103 =( GEOMETRIC_REPRESENTATION_CONTEXT ( 3 ) GLOBAL_UNCERTAINTY_ASSIGNED_CONTEXT ( ( #231 ) ) GLOBAL_UNIT_ASSIGNED_CONTEXT ( ( #104, #178, #241 ) ) REPRESENTATION_CONTEXT ( 'NONE', 'WORKASPACE' ) );
#104 =( CONVERSION_BASED_UNIT ( 'INCH', #79 ) LENGTH_UNIT ( ) NAMED_UNIT ( #196 ) );
#105 = LINE ( 'NONE', #50, #279 ) ;
#106 = DIRECTION ( 'NONE',  ( 5.024191996501958731E-17, -1.000000000000000000, 0.000000000000000000 ) ) ;
#107 = LENGTH_MEASURE_WITH_UNIT ( LENGTH_MEASURE( 0.02539999999999999897 ), #269 );
#108 = CARTESIAN_POINT ( 'NONE',  ( 0.1562500000000000000, 4.000000000000000000, 1.913510623667740388E-17 ) ) ;
#109 = EDGE_LOOP ( 'NONE', ( #299, #93, #114, #124 ) ) ;
#110 = FILL_AREA_STYLE_COLOUR ( '', #18 ) ;
#111 = STYLED_ITEM ( 'NONE', ( #274 ), #2 ) ;
#112 = CIRCLE ( 'NONE', #168, 0.1562500000000000000 ) ;
#113 =( LENGTH_UNIT ( ) NAMED_UNIT ( * ) SI_UNIT ( $, .METRE. ) );
#114 = ORIENTED_EDGE ( 'NONE', *, *, #187, .T. ) ;
#115 = CARTESIAN_POINT ( 'NONE',  ( 0.000000000000000000, 1.562500000000000000, 0.000000000000000000 ) ) ;
#116 = EDGE_CURVE ( 'NONE', #185, #91, #192, .T. ) ;
#117 = LENGTH_MEASURE_WITH_UNIT ( LENGTH_MEASURE( 0.02539999999999999897 ), #46 );
#118 = EDGE_CURVE ( 'NONE', #81, #270, #45, .T. ) ;
#119 = AXIS2_PLACEMENT_3D ( 'NONE', #268, #106, #193 ) ;
#120 = DIMENSIONAL_EXPONENTS ( 1.000000000000000000, 0.000000000000000000, 0.000000000000000000, 0.000000000000000000, 0.000000000000000000, 0.000000000000000000, 0.000000000000000000 ) ;
#121 = SURFACE_STYLE_FILL_AREA ( #19 ) ;
#122 = ADVANCED_FACE ( 'NONE', ( #306 ), #97, .T. ) ;
#123 = SURFACE_STYLE_FILL_AREA ( #150 ) ;
#124 = ORIENTED_EDGE ( 'NONE', *, *, #174, .F. ) ;
#125 =( GEOMETRIC_REPRESENTATION_CONTEXT ( 3 ) GLOBAL_UNCERTAINTY_ASSIGNED_CONTEXT ( ( #257 ) ) GLOBAL_UNIT_ASSIGNED_CONTEXT ( ( #76, #141, #256 ) ) REPRESENTATION_CONTEXT ( 'NONE', 'WORKASPACE' ) );
#126 = CARTESIAN_POINT ( 'NONE',  ( 0.000000000000000000, 0.000000000000000000, -0.1562500000000000000 ) ) ;
#127 = DIMENSIONAL_EXPONENTS ( 1.000000000000000000, 0.000000000000000000, 0.000000000000000000, 0.000000000000000000, 0.000000000000000000, 0.000000000000000000, 0.000000000000000000 ) ;
#128 = PRESENTATION_STYLE_ASSIGNMENT (( #32 ) ) ;
#129 = ORIENTED_EDGE ( 'NONE', *, *, #171, .F. ) ;
#130 = DIRECTION ( 'NONE',  ( -5.024191996501959347E-17, 1.000000000000000000, -0.000000000000000000 ) ) ;
#131 = UNCERTAINTY_MEASURE_WITH_UNIT (LENGTH_MEASURE( 1.000000000000000082E-05 ), #40, 'distance_accuracy_value', 'NONE');
#132 = MECHANICAL_DESIGN_GEOMETRIC_PRESENTATION_REPRESENTATION (  '', ( #197 ), #283 ) ;
#133 = SURFACE_SIDE_STYLE ('',( #64 ) ) ;
#134 =( NAMED_UNIT ( * ) PLANE_ANGLE_UNIT ( ) SI_UNIT ( $, .RADIAN. ) );
#135 = AXIS2_PLACEMENT_3D ( 'NONE', #39, #136, #142 ) ;
#136 = DIRECTION ( 'NONE',  ( 0.000000000000000000, 1.000000000000000000, 0.000000000000000000 ) ) ;
#137 = EDGE_CURVE ( 'NONE', #266, #147, #112, .T. ) ;
#138 = CARTESIAN_POINT ( 'NONE',  ( 0.000000000000000000, 1.562500000000000000, 0.000000000000000000 ) ) ;
#139 = CARTESIAN_POINT ( 'NONE',  ( 0.000000000000000000, 1.562500000000000000, 0.000000000000000000 ) ) ;
#140 = AXIS2_PLACEMENT_3D ( 'NONE', #146, #285, #265 ) ;
#141 =( NAMED_UNIT ( * ) PLANE_ANGLE_UNIT ( ) SI_UNIT ( $, .RADIAN. ) );
#142 = DIRECTION ( 'NONE',  ( 0.000000000000000000, -0.000000000000000000, 1.000000000000000000 ) ) ;
#143 = CARTESIAN_POINT ( 'NONE',  ( 1.913510623667739463E-17, 1.562500000000000000, 0.1562500000000000000 ) ) ;
#144 =( NAMED_UNIT ( * ) SI_UNIT ( $, .STERADIAN. ) SOLID_ANGLE_UNIT ( ) );
#145 = PRESENTATION_STYLE_ASSIGNMENT (( #20 ) ) ;
#146 = CARTESIAN_POINT ( 'NONE',  ( 1.972070720133933243E-34, 1.562500000000000000, 0.000000000000000000 ) ) ;
#147 = VERTEX_POINT ( 'NONE', #170 ) ;
#148 = EDGE_CURVE ( 'NONE', #185, #56, #30, .T. ) ;
#149 = AXIS2_PLACEMENT_3D ( 'NONE', #24, #280, #228 ) ;
#150 = FILL_AREA_STYLE ('',( #26 ) ) ;
#151 = EDGE_LOOP ( 'NONE', ( #223, #194, #129, #302 ) ) ;
#152 =( NAMED_UNIT ( * ) PLANE_ANGLE_UNIT ( ) SI_UNIT ( $, .RADIAN. ) );
#153 = VECTOR ( 'NONE', #15, 39.37007874015748143 ) ;
#154 = CARTESIAN_POINT ( 'NONE',  ( -1.224646799147352714E-16, 4.000000000000000000, 0.000000000000000000 ) ) ;
#155 = SURFACE_STYLE_USAGE ( .BOTH. , #156 ) ;
#156 = SURFACE_SIDE_STYLE ('',( #95 ) ) ;
#157 =( LENGTH_UNIT ( ) NAMED_UNIT ( * ) SI_UNIT ( $, .METRE. ) );
#158 =( CONVERSION_BASED_UNIT ( 'INCH', #275 ) LENGTH_UNIT ( ) NAMED_UNIT ( #127 ) );
#159 = SURFACE_SIDE_STYLE ('',( #16 ) ) ;
#160 = ADVANCED_FACE ( 'NONE', ( #239 ), #4, .F. ) ;
#161 = DIRECTION ( 'NONE',  ( -5.024191996501959347E-17, 1.000000000000000000, -0.000000000000000000 ) ) ;
#162 = SURFACE_SIDE_STYLE ('',( #69 ) ) ;
#163 = MECHANICAL_DESIGN_GEOMETRIC_PRESENTATION_REPRESENTATION (  '', ( #111 ), #102 ) ;
#164 = PRESENTATION_LAYER_ASSIGNMENT (  '', '', ( #44 ) ) ;
#165 = CARTESIAN_POINT ( 'NONE',  ( -0.1562500000000000000, 1.562500000000000000, 0.000000000000000000 ) ) ;
#166 = CARTESIAN_POINT ( 'NONE',  ( -1.224646799147352714E-16, 4.000000000000000000, 0.000000000000000000 ) ) ;
#167 = DIRECTION ( 'NONE',  ( -1.000000000000000000, 0.000000000000000000, 0.000000000000000000 ) ) ;
#168 = AXIS2_PLACEMENT_3D ( 'NONE', #235, #130, #263 ) ;
#169 = UNCERTAINTY_MEASURE_WITH_UNIT (LENGTH_MEASURE( 1.000000000000000082E-05 ), #158, 'distance_accuracy_value', 'NONE');
#170 = CARTESIAN_POINT ( 'NONE',  ( 0.1562500000000000000, 1.562500000000000000, 1.913510623667740388E-17 ) ) ;
#171 = EDGE_CURVE ( 'NONE', #56, #14, #259, .T. ) ;
#172 = ORIENTED_EDGE ( 'NONE', *, *, #137, .F. ) ;
#173 =( LENGTH_UNIT ( ) NAMED_UNIT ( * ) SI_UNIT ( $, .METRE. ) );
#174 = EDGE_CURVE ( 'NONE', #270, #81, #66, .T. ) ;
#175 = EDGE_LOOP ( 'NONE', ( #172, #65 ) ) ;
#176 = AXIS2_PLACEMENT_3D ( 'NONE', #304, #282, #167 ) ;
#177 = CARTESIAN_POINT ( 'NONE',  ( 0.000000000000000000, 0.000000000000000000, 0.000000000000000000 ) ) ;
#178 =( NAMED_UNIT ( * ) PLANE_ANGLE_UNIT ( ) SI_UNIT ( $, .RADIAN. ) );
#179 = EDGE_LOOP ( 'NONE', ( #34, #264 ) ) ;
#180 = UNCERTAINTY_MEASURE_WITH_UNIT (LENGTH_MEASURE( 1.000000000000000082E-05 ), #273, 'distance_accuracy_value', 'NONE');
#181 = MECHANICAL_DESIGN_GEOMETRIC_PRESENTATION_REPRESENTATION (  '', ( #55 ), #267 ) ;
#182 = PLANE ( 'NONE',  #135 ) ;
#183 = DIRECTION ( 'NONE',  ( -5.024191996501959347E-17, 1.000000000000000000, -0.000000000000000000 ) ) ;
#184 = FACE_OUTER_BOUND ( 'NONE', #109, .T. ) ;
#185 = VERTEX_POINT ( 'NONE', #199 ) ;
#186 = DIRECTION ( 'NONE',  ( 0.000000000000000000, 0.000000000000000000, -1.000000000000000000 ) ) ;
#187 = EDGE_CURVE ( 'NONE', #266, #81, #105, .T. ) ;
#188 = FILL_AREA_STYLE ('',( #100 ) ) ;
#189 =( NAMED_UNIT ( * ) SI_UNIT ( $, .STERADIAN. ) SOLID_ANGLE_UNIT ( ) );
#190 = DIRECTION ( 'NONE',  ( 0.000000000000000000, -1.000000000000000000, -0.000000000000000000 ) ) ;
#191 = CARTESIAN_POINT ( 'NONE',  ( 0.000000000000000000, 0.000000000000000000, 0.000000000000000000 ) ) ;
#192 = CIRCLE ( 'NONE', #305, 0.1562500000000000000 ) ;
#193 = DIRECTION ( 'NONE',  ( 1.000000000000000000, 5.024191996501958731E-17, 0.000000000000000000 ) ) ;
#194 = ORIENTED_EDGE ( 'NONE', *, *, #227, .T. ) ;
#195 = PRESENTATION_LAYER_ASSIGNMENT (  '', '', ( #111 ) ) ;
#196 = DIMENSIONAL_EXPONENTS ( 1.000000000000000000, 0.000000000000000000, 0.000000000000000000, 0.000000000000000000, 0.000000000000000000, 0.000000000000000000, 0.000000000000000000 ) ;
#197 = STYLED_ITEM ( 'NONE', ( #128 ), #209 ) ;
#198 =( GEOMETRIC_REPRESENTATION_CONTEXT ( 3 ) GLOBAL_UNCERTAINTY_ASSIGNED_CONTEXT ( ( #82 ) ) GLOBAL_UNIT_ASSIGNED_CONTEXT ( ( #204, #307, #144 ) ) REPRESENTATION_CONTEXT ( 'NONE', 'WORKASPACE' ) );
#199 = CARTESIAN_POINT ( 'NONE',  ( 0.000000000000000000, 1.562500000000000000, -0.1562500000000000000 ) ) ;
#200 = FACE_OUTER_BOUND ( 'NONE', #179, .T. ) ;
#201 = AXIS2_PLACEMENT_3D ( 'NONE', #166, #161, #210 ) ;
#202 = EDGE_LOOP ( 'NONE', ( #216, #297 ) ) ;
#203 = DIRECTION ( 'NONE',  ( 0.000000000000000000, 0.000000000000000000, -1.000000000000000000 ) ) ;
#204 =( CONVERSION_BASED_UNIT ( 'INCH', #298 ) LENGTH_UNIT ( ) NAMED_UNIT ( #120 ) );
#205 = EDGE_LOOP ( 'NONE', ( #240, #3, #27, #233 ) ) ;
#206 = ORIENTED_EDGE ( 'NONE', *, *, #218, .T. ) ;
#207 = COLOUR_RGB ( '',1.000000000000000000, 0.000000000000000000, 0.000000000000000000 ) ;
#208 = ADVANCED_FACE ( 'NONE', ( #291 ), #85, .F. ) ;
#209 = MANIFOLD_SOLID_BREP ( 'Revolve - Cutting Edge', #48 ) ;
#210 = DIRECTION ( 'NONE',  ( -1.000000000000000000, 0.000000000000000000, 0.000000000000000000 ) ) ;
#211 = PRODUCT ( '83435', '83435', '', ( #262 ) ) ;
#212 = SURFACE_SIDE_STYLE ('',( #123 ) ) ;
#213 = AXIS2_PLACEMENT_3D ( 'NONE', #58, #288, #33 ) ;
#214 = UNCERTAINTY_MEASURE_WITH_UNIT (LENGTH_MEASURE( 1.000000000000000082E-05 ), #98, 'distance_accuracy_value', 'NONE');
#215 = DIRECTION ( 'NONE',  ( -0.000000000000000000, -1.000000000000000000, -0.000000000000000000 ) ) ;
#216 = ORIENTED_EDGE ( 'NONE', *, *, #171, .T. ) ;
#217 = DIRECTION ( 'NONE',  ( -5.024191996501959347E-17, 1.000000000000000000, -0.000000000000000000 ) ) ;
#218 = EDGE_CURVE ( 'NONE', #147, #270, #232, .T. ) ;
#219 = VECTOR ( 'NONE', #248, 39.37007874015748143 ) ;
#220 = FILL_AREA_STYLE_COLOUR ( '', #237 ) ;
#221 = MECHANICAL_DESIGN_GEOMETRIC_PRESENTATION_REPRESENTATION (  '', ( #44 ), #125 ) ;
#222 = CARTESIAN_POINT ( 'NONE',  ( 0.1562499999999999445, 4.000000000000000000, 1.913510623667740080E-17 ) ) ;
#223 = ORIENTED_EDGE ( 'NONE', *, *, #116, .T. ) ;
#224 = EDGE_LOOP ( 'NONE', ( #236, #80 ) ) ;
#225 = ADVANCED_FACE ( 'NONE', ( #184 ), #92, .T. ) ;
#226 = DIRECTION ( 'NONE',  ( 0.000000000000000000, 0.000000000000000000, -1.000000000000000000 ) ) ;
#227 = EDGE_CURVE ( 'NONE', #91, #14, #11, .T. ) ;
#228 = DIRECTION ( 'NONE',  ( 0.000000000000000000, 0.000000000000000000, -1.000000000000000000 ) ) ;
#229 = PRESENTATION_LAYER_ASSIGNMENT (  '', '', ( #197 ) ) ;
#230 = CARTESIAN_POINT ( 'NONE',  ( 1.913510623667739463E-17, 0.000000000000000000, 0.1562500000000000000 ) ) ;
#231 = UNCERTAINTY_MEASURE_WITH_UNIT (LENGTH_MEASURE( 1.000000000000000082E-05 ), #104, 'distance_accuracy_value', 'NONE');
#232 = LINE ( 'NONE', #222, #153 ) ;
#233 = ORIENTED_EDGE ( 'NONE', *, *, #303, .F. ) ;
#234 = APPLICATION_PROTOCOL_DEFINITION ( 'draft international standard', 'automotive_design', 1998, #63 ) ;
#235 = CARTESIAN_POINT ( 'NONE',  ( 0.000000000000000000, 1.562500000000000000, 0.000000000000000000 ) ) ;
#236 = ORIENTED_EDGE ( 'NONE', *, *, #118, .T. ) ;
#237 = COLOUR_RGB ( '',0.7921568627450980005, 0.8196078431372548767, 0.9333333333333333481 ) ;
#238 = MECHANICAL_DESIGN_GEOMETRIC_PRESENTATION_REPRESENTATION (  '', ( #290 ), #103 ) ;
#239 = FACE_OUTER_BOUND ( 'NONE', #224, .T. ) ;
#240 = ORIENTED_EDGE ( 'NONE', *, *, #227, .F. ) ;
#241 =( NAMED_UNIT ( * ) SI_UNIT ( $, .STERADIAN. ) SOLID_ANGLE_UNIT ( ) );
#242 = AXIS2_PLACEMENT_3D ( 'NONE', #1, #217, #261 ) ;
#243 = DIRECTION ( 'NONE',  ( -1.000000000000000000, 0.000000000000000000, 0.000000000000000000 ) ) ;
#244 =( LENGTH_UNIT ( ) NAMED_UNIT ( * ) SI_UNIT ( $, .METRE. ) );
#245 = DIRECTION ( 'NONE',  ( -5.024191996501959347E-17, 1.000000000000000000, -0.000000000000000000 ) ) ;
#246 = PRESENTATION_STYLE_ASSIGNMENT (( #155 ) ) ;
#247 = LENGTH_MEASURE_WITH_UNIT ( LENGTH_MEASURE( 0.02539999999999999897 ), #244 );
#248 = DIRECTION ( 'NONE',  ( -0.000000000000000000, -1.000000000000000000, -0.000000000000000000 ) ) ;
#249 = AXIS2_PLACEMENT_3D ( 'NONE', #308, #190, #186 ) ;
#250 =( NAMED_UNIT ( * ) PLANE_ANGLE_UNIT ( ) SI_UNIT ( $, .RADIAN. ) );
#251 = FACE_OUTER_BOUND ( 'NONE', #205, .T. ) ;
#252 = DIRECTION ( 'NONE',  ( -0.000000000000000000, -1.000000000000000000, -0.000000000000000000 ) ) ;
#253 = CIRCLE ( 'NONE', #72, 0.1562500000000000000 ) ;
#254 = CARTESIAN_POINT ( 'NONE',  ( 0.000000000000000000, 0.000000000000000000, -0.1562500000000000000 ) ) ;
#255 = DIRECTION ( 'NONE',  ( -0.000000000000000000, -1.000000000000000000, -0.000000000000000000 ) ) ;
#256 =( NAMED_UNIT ( * ) SI_UNIT ( $, .STERADIAN. ) SOLID_ANGLE_UNIT ( ) );
#257 = UNCERTAINTY_MEASURE_WITH_UNIT (LENGTH_MEASURE( 1.000000000000000082E-05 ), #76, 'distance_accuracy_value', 'NONE');
#258 = CIRCLE ( 'NONE', #70, 0.1562500000000000000 ) ;
#259 = CIRCLE ( 'NONE', #213, 0.1562500000000000000 ) ;
#260 = DIMENSIONAL_EXPONENTS ( 1.000000000000000000, 0.000000000000000000, 0.000000000000000000, 0.000000000000000000, 0.000000000000000000, 0.000000000000000000, 0.000000000000000000 ) ;
#261 = DIRECTION ( 'NONE',  ( -1.000000000000000000, 0.000000000000000000, 0.000000000000000000 ) ) ;
#262 = PRODUCT_CONTEXT ( 'NONE', #90, 'mechanical' ) ;
#263 = DIRECTION ( 'NONE',  ( -1.000000000000000000, 0.000000000000000000, 0.000000000000000000 ) ) ;
#264 = ORIENTED_EDGE ( 'NONE', *, *, #96, .F. ) ;
#265 = DIRECTION ( 'NONE',  ( -1.000000000000000000, -5.024191996501958731E-17, 0.000000000000000000 ) ) ;
#266 = VERTEX_POINT ( 'NONE', #165 ) ;
#267 =( GEOMETRIC_REPRESENTATION_CONTEXT ( 3 ) GLOBAL_UNCERTAINTY_ASSIGNED_CONTEXT ( ( #180 ) ) GLOBAL_UNIT_ASSIGNED_CONTEXT ( ( #273, #38, #87 ) ) REPRESENTATION_CONTEXT ( 'NONE', 'WORKASPACE' ) );
#268 = CARTESIAN_POINT ( 'NONE',  ( 0.1562500000000000000, 4.000000000000000000, 0.000000000000000000 ) ) ;
#269 =( LENGTH_UNIT ( ) NAMED_UNIT ( * ) SI_UNIT ( $, .METRE. ) );
#270 = VERTEX_POINT ( 'NONE', #108 ) ;
#271 = CARTESIAN_POINT ( 'NONE',  ( 0.000000000000000000, 0.000000000000000000, 0.000000000000000000 ) ) ;
#272 = DIRECTION ( 'NONE',  ( -1.000000000000000000, 0.000000000000000000, 0.000000000000000000 ) ) ;
#273 =( CONVERSION_BASED_UNIT ( 'INCH', #88 ) LENGTH_UNIT ( ) NAMED_UNIT ( #51 ) );
#274 = PRESENTATION_STYLE_ASSIGNMENT (( #94 ) ) ;
#275 = LENGTH_MEASURE_WITH_UNIT ( LENGTH_MEASURE( 0.02539999999999999897 ), #12 );
#276 = CARTESIAN_POINT ( 'NONE',  ( -0.1562500000000002776, 4.000000000000000000, 0.000000000000000000 ) ) ;
#277 = FACE_OUTER_BOUND ( 'NONE', #202, .T. ) ;
#278 = STYLED_ITEM ( 'NONE', ( #246 ), #10 ) ;
#279 = VECTOR ( 'NONE', #83, 39.37007874015748143 ) ;
#280 = DIRECTION ( 'NONE',  ( -0.000000000000000000, -1.000000000000000000, -0.000000000000000000 ) ) ;
#281 = FILL_AREA_STYLE_COLOUR ( '', #207 ) ;
#282 = DIRECTION ( 'NONE',  ( -5.024191996501959347E-17, 1.000000000000000000, -0.000000000000000000 ) ) ;
#283 =( GEOMETRIC_REPRESENTATION_CONTEXT ( 3 ) GLOBAL_UNCERTAINTY_ASSIGNED_CONTEXT ( ( #214 ) ) GLOBAL_UNIT_ASSIGNED_CONTEXT ( ( #98, #152, #293 ) ) REPRESENTATION_CONTEXT ( 'NONE', 'WORKASPACE' ) );
#284 = DIRECTION ( 'NONE',  ( 1.000000000000000000, 0.000000000000000000, 0.000000000000000000 ) ) ;
#285 = DIRECTION ( 'NONE',  ( -5.024191996501958731E-17, 1.000000000000000000, 0.000000000000000000 ) ) ;
#286 = ORIENTED_EDGE ( 'NONE', *, *, #187, .F. ) ;
#287 = DIMENSIONAL_EXPONENTS ( 1.000000000000000000, 0.000000000000000000, 0.000000000000000000, 0.000000000000000000, 0.000000000000000000, 0.000000000000000000, 0.000000000000000000 ) ;
#288 = DIRECTION ( 'NONE',  ( -0.000000000000000000, -1.000000000000000000, -0.000000000000000000 ) ) ;
#289 = MECHANICAL_DESIGN_GEOMETRIC_PRESENTATION_REPRESENTATION (  '', ( #278 ), #22 ) ;
#290 = STYLED_ITEM ( 'NONE', ( #57 ), #122 ) ;
#291 = FACE_OUTER_BOUND ( 'NONE', #175, .T. ) ;
#292 = ADVANCED_FACE ( 'NONE', ( #200 ), #182, .T. ) ;
#293 =( NAMED_UNIT ( * ) SI_UNIT ( $, .STERADIAN. ) SOLID_ANGLE_UNIT ( ) );
#294 =( NAMED_UNIT ( * ) SI_UNIT ( $, .STERADIAN. ) SOLID_ANGLE_UNIT ( ) );
#295 = CLOSED_SHELL ( 'NONE', ( #86, #208, #225, #160 ) ) ;
#296 = AXIS2_PLACEMENT_3D ( 'NONE', #177, #77, #54 ) ;
#297 = ORIENTED_EDGE ( 'NONE', *, *, #303, .T. ) ;
#298 = LENGTH_MEASURE_WITH_UNIT ( LENGTH_MEASURE( 0.02539999999999999897 ), #157 );
#299 = ORIENTED_EDGE ( 'NONE', *, *, #218, .F. ) ;
#300 = FILL_AREA_STYLE ('',( #220 ) ) ;
#301 = COLOUR_RGB ( '',1.000000000000000000, 0.000000000000000000, 0.000000000000000000 ) ;
#302 = ORIENTED_EDGE ( 'NONE', *, *, #148, .F. ) ;
#303 = EDGE_CURVE ( 'NONE', #14, #56, #41, .T. ) ;
#304 = CARTESIAN_POINT ( 'NONE',  ( -1.224646799147352714E-16, 4.000000000000000000, 0.000000000000000000 ) ) ;
#305 = AXIS2_PLACEMENT_3D ( 'NONE', #139, #255, #226 ) ;
#306 = FACE_OUTER_BOUND ( 'NONE', #151, .T. ) ;
#307 =( NAMED_UNIT ( * ) PLANE_ANGLE_UNIT ( ) SI_UNIT ( $, .RADIAN. ) );
#308 = CARTESIAN_POINT ( 'NONE',  ( 0.000000000000000000, 0.000000000000000000, 0.000000000000000000 ) ) ;
#309 = COLOUR_RGB ( '',1.000000000000000000, 0.000000000000000000, 0.000000000000000000 ) ;
ENDSEC;
END-ISO-10303-21;
