ISO-10303-21;
HEADER;
FILE_DESCRIPTION (( 'STEP AP214' ),
    '1' );
FILE_NAME ('Micro_RME-015-2.STEP',
    '2021-09-01T22:32:54',
    ( '' ),
    ( '' ),
    'SwSTEP 2.0',
    'SolidWorks 2020',
    '' );
FILE_SCHEMA (( 'AUTOMOTIVE_DESIGN' ));
ENDSEC;

DATA;
#1 = ORIENTED_EDGE ( 'NONE', *, *, #30, .T. ) ;
#2 = SHAPE_DEFINITION_REPRESENTATION ( #3, #58 ) ;
#3 = PRODUCT_DEFINITION_SHAPE ( 'NONE', 'NONE',  #53 ) ;
#4 = ORIENTED_EDGE ( 'NONE', *, *, #89, .T. ) ;
#5 = LENGTH_MEASURE_WITH_UNIT ( LENGTH_MEASURE( 0.02539999999999999897 ), #116 );
#6 = ORIENTED_EDGE ( 'NONE', *, *, #139, .T. ) ;
#7 = CARTESIAN_POINT ( 'NONE',  ( 1.123695017159397331E-34, 0.0000000000000000000, 9.175666142611546005E-19 ) ) ;
#8 = EDGE_CURVE ( 'NONE', #24, #20, #243, .T. ) ;
#9 = DIRECTION ( 'NONE',  ( 1.224646799147353454E-16, 0.0000000000000000000, 1.000000000000000000 ) ) ;
#10 = DIRECTION ( 'NONE',  ( -1.000000000000000000, 0.0000000000000000000, 0.0000000000000000000 ) ) ;
#11 = DIRECTION ( 'NONE',  ( 0.0000000000000000000, 0.0000000000000000000, 1.000000000000000000 ) ) ;
#12 = DIRECTION ( 'NONE',  ( -1.000000000000000000, 0.0000000000000000000, 1.224646799147353454E-16 ) ) ;
#13 = ADVANCED_FACE ( 'NONE', ( #94 ), #96, .T. ) ;
#14 = VECTOR ( 'NONE', #292, 39.37007874015748143 ) ;
#15 =( NAMED_UNIT ( * ) PLANE_ANGLE_UNIT ( ) SI_UNIT ( $, .RADIAN. ) );
#16 = VERTEX_POINT ( 'NONE', #258 ) ;
#17 = DIRECTION ( 'NONE',  ( -1.224646799147353454E-16, -0.0000000000000000000, -1.000000000000000000 ) ) ;
#18 = CARTESIAN_POINT ( 'NONE',  ( 0.007492500000000006100, 0.0000000000000000000, 0.04499999999999999833 ) ) ;
#19 = PRODUCT_DEFINITION_FORMATION_WITH_SPECIFIED_SOURCE ( 'ANY', '', #252, .NOT_KNOWN. ) ;
#20 = VERTEX_POINT ( 'NONE', #47 ) ;
#21 = AXIS2_PLACEMENT_3D ( 'NONE', #166, #48, #255 ) ;
#22 = CIRCLE ( 'NONE', #157, 0.06250000000000002776 ) ;
#23 = VERTEX_POINT ( 'NONE', #186 ) ;
#24 = VERTEX_POINT ( 'NONE', #162 ) ;
#25 = FILL_AREA_STYLE ('',( #64 ) ) ;
#26 = LINE ( 'NONE', #234, #125 ) ;
#27 = ORIENTED_EDGE ( 'NONE', *, *, #112, .T. ) ;
#28 =( GEOMETRIC_REPRESENTATION_CONTEXT ( 3 ) GLOBAL_UNCERTAINTY_ASSIGNED_CONTEXT ( ( #71 ) ) GLOBAL_UNIT_ASSIGNED_CONTEXT ( ( #138, #296, #118 ) ) REPRESENTATION_CONTEXT ( 'NONE', 'WORKASPACE' ) );
#29 = DIRECTION ( 'NONE',  ( -1.224646799147353454E-16, -0.0000000000000000000, -1.000000000000000000 ) ) ;
#30 = EDGE_CURVE ( 'NONE', #20, #24, #163, .T. ) ;
#31 = DIRECTION ( 'NONE',  ( -1.224646799147353454E-16, -0.0000000000000000000, -1.000000000000000000 ) ) ;
#32 = FACE_OUTER_BOUND ( 'NONE', #111, .T. ) ;
#33 = AXIS2_PLACEMENT_3D ( 'NONE', #211, #149, #261 ) ;
#34 = CARTESIAN_POINT ( 'NONE',  ( 0.0000000000000000000, 0.0000000000000000000, 1.500000000000000222 ) ) ;
#35 = EDGE_CURVE ( 'NONE', #203, #210, #26, .T. ) ;
#36 = LINE ( 'NONE', #126, #136 ) ;
#37 = PRESENTATION_LAYER_ASSIGNMENT (  '', '', ( #260 ) ) ;
#38 =( CONVERSION_BASED_UNIT ( 'INCH', #57 ) LENGTH_UNIT ( ) NAMED_UNIT ( #180 ) );
#39 = ORIENTED_EDGE ( 'NONE', *, *, #228, .F. ) ;
#40 = DIRECTION ( 'NONE',  ( -1.000000000000000000, 0.0000000000000000000, 1.224646799147353454E-16 ) ) ;
#41 = CONICAL_SURFACE ( 'NONE', #127, 0.04750000000000064587, 0.7853981633974466137 ) ;
#42 = DIMENSIONAL_EXPONENTS ( 1.000000000000000000, 0.0000000000000000000, 0.0000000000000000000, 0.0000000000000000000, 0.0000000000000000000, 0.0000000000000000000, 0.0000000000000000000 ) ;
#43 = ORIENTED_EDGE ( 'NONE', *, *, #35, .F. ) ;
#44 = MECHANICAL_DESIGN_GEOMETRIC_PRESENTATION_REPRESENTATION (  '', ( #54 ), #121 ) ;
#45 = CARTESIAN_POINT ( 'NONE',  ( 0.0000000000000000000, 0.0000000000000000000, 1.485000000000000764 ) ) ;
#46 = EDGE_CURVE ( 'NONE', #201, #93, #285, .T. ) ;
#47 = CARTESIAN_POINT ( 'NONE',  ( -0.06250000000000002776, 0.0000000000000000000, 1.485000000000000764 ) ) ;
#48 = DIRECTION ( 'NONE',  ( 0.0000000000000000000, 0.0000000000000000000, -1.000000000000000000 ) ) ;
#49 = EDGE_LOOP ( 'NONE', ( #63, #27, #119, #146 ) ) ;
#50 = DIRECTION ( 'NONE',  ( -1.000000000000000000, 0.0000000000000000000, 1.224646799147353454E-16 ) ) ;
#51 = DIRECTION ( 'NONE',  ( -1.000000000000000000, 0.0000000000000000000, 0.0000000000000000000 ) ) ;
#52 = DIRECTION ( 'NONE',  ( -1.224646799147353454E-16, -0.0000000000000000000, -1.000000000000000000 ) ) ;
#53 = PRODUCT_DEFINITION ( 'UNKNOWN', '', #19, #226 ) ;
#54 = STYLED_ITEM ( 'NONE', ( #269 ), #280 ) ;
#55 = PLANE ( 'NONE',  #81 ) ;
#56 = CYLINDRICAL_SURFACE ( 'NONE', #196, 0.007492500000000000028 ) ;
#57 = LENGTH_MEASURE_WITH_UNIT ( LENGTH_MEASURE( 0.02539999999999999897 ), #246 );
#58 = ADVANCED_BREP_SHAPE_REPRESENTATION ( 'Micro_RME-015-2', ( #280, #208 ), #264 ) ;
#59 = CIRCLE ( 'NONE', #77, 0.007492500000000000028 ) ;
#60 =( CONVERSION_BASED_UNIT ( 'INCH', #61 ) LENGTH_UNIT ( ) NAMED_UNIT ( #42 ) );
#61 = LENGTH_MEASURE_WITH_UNIT ( LENGTH_MEASURE( 0.02539999999999999897 ), #151 );
#62 = AXIS2_PLACEMENT_3D ( 'NONE', #236, #99, #105 ) ;
#63 = ORIENTED_EDGE ( 'NONE', *, *, #286, .F. ) ;
#64 = FILL_AREA_STYLE_COLOUR ( '', #240 ) ;
#65 = ORIENTED_EDGE ( 'NONE', *, *, #175, .F. ) ;
#66 = DIRECTION ( 'NONE',  ( 0.0000000000000000000, 0.0000000000000000000, 1.000000000000000000 ) ) ;
#67 = ORIENTED_EDGE ( 'NONE', *, *, #89, .F. ) ;
#68 = PRESENTATION_STYLE_ASSIGNMENT (( #209 ) ) ;
#69 = AXIS2_PLACEMENT_3D ( 'NONE', #221, #17, #176 ) ;
#70 = DIRECTION ( 'NONE',  ( 0.0000000000000000000, 0.0000000000000000000, -1.000000000000000000 ) ) ;
#71 = UNCERTAINTY_MEASURE_WITH_UNIT (LENGTH_MEASURE( 1.000000000000000082E-05 ), #138, 'distance_accuracy_value', 'NONE');
#72 = ORIENTED_EDGE ( 'NONE', *, *, #224, .T. ) ;
#73 = DIRECTION ( 'NONE',  ( 1.000000000000000000, 0.0000000000000000000, 0.0000000000000000000 ) ) ;
#74 = UNCERTAINTY_MEASURE_WITH_UNIT (LENGTH_MEASURE( 1.000000000000000082E-05 ), #60, 'distance_accuracy_value', 'NONE');
#75 = ADVANCED_FACE ( 'NONE', ( #142 ), #56, .T. ) ;
#76 = FACE_OUTER_BOUND ( 'NONE', #247, .T. ) ;
#77 = AXIS2_PLACEMENT_3D ( 'NONE', #7, #173, #50 ) ;
#78 = CARTESIAN_POINT ( 'NONE',  ( 0.04750000000000064587, 6.735557395310483192E-18, 1.500000000000000222 ) ) ;
#79 = DIRECTION ( 'NONE',  ( -1.000000000000000000, 0.0000000000000000000, 0.0000000000000000000 ) ) ;
#80 = CARTESIAN_POINT ( 'NONE',  ( -0.007492500000000000028, 0.0000000000000000000, 9.175666142611546005E-19 ) ) ;
#81 = AXIS2_PLACEMENT_3D ( 'NONE', #263, #242, #148 ) ;
#82 = CARTESIAN_POINT ( 'NONE',  ( 4.371536378502421744E-17, 0.0000000000000000000, 0.3569630346926195297 ) ) ;
#83 = EDGE_CURVE ( 'NONE', #16, #23, #59, .T. ) ;
#84 = DIRECTION ( 'NONE',  ( -1.224646799147353454E-16, -0.0000000000000000000, -1.000000000000000000 ) ) ;
#85 = ORIENTED_EDGE ( 'NONE', *, *, #228, .T. ) ;
#86 = AXIS2_PLACEMENT_3D ( 'NONE', #117, #257, #281 ) ;
#87 = VECTOR ( 'NONE', #132, 39.37007874015748854 ) ;
#88 = CARTESIAN_POINT ( 'NONE',  ( 5.510910596163090326E-18, 0.0000000000000000000, 0.04499999999999999833 ) ) ;
#89 = EDGE_CURVE ( 'NONE', #93, #201, #114, .T. ) ;
#90 = ORIENTED_EDGE ( 'NONE', *, *, #276, .T. ) ;
#91 = AXIS2_PLACEMENT_3D ( 'NONE', #34, #150, #51 ) ;
#92 = ORIENTED_EDGE ( 'NONE', *, *, #139, .F. ) ;
#93 = VERTEX_POINT ( 'NONE', #168 ) ;
#94 = FACE_OUTER_BOUND ( 'NONE', #143, .T. ) ;
#95 = VECTOR ( 'NONE', #287, 39.37007874015748854 ) ;
#96 = CYLINDRICAL_SURFACE ( 'NONE', #86, 0.06250000000000002776 ) ;
#97 = DIRECTION ( 'NONE',  ( 1.000000000000000000, 0.0000000000000000000, 0.0000000000000000000 ) ) ;
#98 = VERTEX_POINT ( 'NONE', #129 ) ;
#99 = DIRECTION ( 'NONE',  ( 0.0000000000000000000, 0.0000000000000000000, 1.000000000000000000 ) ) ;
#100 = DIRECTION ( 'NONE',  ( 1.000000000000000000, 0.0000000000000000000, 0.0000000000000000000 ) ) ;
#101 = CIRCLE ( 'NONE', #229, 0.007492500000000000028 ) ;
#102 = ADVANCED_FACE ( 'NONE', ( #288 ), #266, .T. ) ;
#103 = LINE ( 'NONE', #80, #153 ) ;
#104 = CARTESIAN_POINT ( 'NONE',  ( 0.0000000000000000000, 0.0000000000000000000, 1.500000000000000222 ) ) ;
#105 = DIRECTION ( 'NONE',  ( 1.000000000000000000, 0.0000000000000000000, 0.0000000000000000000 ) ) ;
#106 = ADVANCED_FACE ( 'NONE', ( #32 ), #123, .T. ) ;
#107 = CARTESIAN_POINT ( 'NONE',  ( 0.007492500000000000028, 9.175666142611544079E-19, -9.175666142611546005E-19 ) ) ;
#108 = MECHANICAL_DESIGN_GEOMETRIC_PRESENTATION_REPRESENTATION (  '', ( #260 ), #28 ) ;
#109 = SURFACE_STYLE_FILL_AREA ( #267 ) ;
#110 =( NAMED_UNIT ( * ) SI_UNIT ( $, .STERADIAN. ) SOLID_ANGLE_UNIT ( ) );
#111 = EDGE_LOOP ( 'NONE', ( #1, #90, #65, #182 ) ) ;
#112 = EDGE_CURVE ( 'NONE', #98, #203, #101, .T. ) ;
#113 = AXIS2_PLACEMENT_3D ( 'NONE', #45, #70, #73 ) ;
#114 = CIRCLE ( 'NONE', #62, 0.04750000000000064587 ) ;
#115 = ORIENTED_EDGE ( 'NONE', *, *, #200, .F. ) ;
#116 =( LENGTH_UNIT ( ) NAMED_UNIT ( * ) SI_UNIT ( $, .METRE. ) );
#117 = CARTESIAN_POINT ( 'NONE',  ( 0.0000000000000000000, 0.0000000000000000000, 1.500000000000000222 ) ) ;
#118 =( NAMED_UNIT ( * ) SI_UNIT ( $, .STERADIAN. ) SOLID_ANGLE_UNIT ( ) );
#119 = ORIENTED_EDGE ( 'NONE', *, *, #159, .T. ) ;
#120 = DIMENSIONAL_EXPONENTS ( 1.000000000000000000, 0.0000000000000000000, 0.0000000000000000000, 0.0000000000000000000, 0.0000000000000000000, 0.0000000000000000000, 0.0000000000000000000 ) ;
#121 =( GEOMETRIC_REPRESENTATION_CONTEXT ( 3 ) GLOBAL_UNCERTAINTY_ASSIGNED_CONTEXT ( ( #190 ) ) GLOBAL_UNIT_ASSIGNED_CONTEXT ( ( #38, #15, #244 ) ) REPRESENTATION_CONTEXT ( 'NONE', 'WORKASPACE' ) );
#122 = ORIENTED_EDGE ( 'NONE', *, *, #175, .T. ) ;
#123 = CYLINDRICAL_SURFACE ( 'NONE', #33, 0.06250000000000002776 ) ;
#124 = DIRECTION ( 'NONE',  ( 1.000000000000000000, 0.0000000000000000000, 0.0000000000000000000 ) ) ;
#125 = VECTOR ( 'NONE', #167, 39.37007874015747433 ) ;
#126 = CARTESIAN_POINT ( 'NONE',  ( -0.06250000000000002776, 0.0000000000000000000, 1.500000000000000222 ) ) ;
#127 = AXIS2_PLACEMENT_3D ( 'NONE', #104, #214, #79 ) ;
#128 = DIRECTION ( 'NONE',  ( 1.000000000000000000, 0.0000000000000000000, -0.0000000000000000000 ) ) ;
#129 = CARTESIAN_POINT ( 'NONE',  ( 0.007492500000000006100, 0.0000000000000000000, 0.04499999999999999833 ) ) ;
#130 = DIRECTION ( 'NONE',  ( -1.224646799147353454E-16, -0.0000000000000000000, -1.000000000000000000 ) ) ;
#131 = CONICAL_SURFACE ( 'NONE', #183, 0.007492500000000000028, 0.1745329251994339192 ) ;
#132 = DIRECTION ( 'NONE',  ( 0.7071067811865462405, 8.659560562354916834E-17, -0.7071067811865486830 ) ) ;
#133 = ORIENTED_EDGE ( 'NONE', *, *, #83, .T. ) ;
#134 = ADVANCED_FACE ( 'NONE', ( #191 ), #41, .T. ) ;
#135 = SURFACE_STYLE_USAGE ( .BOTH. , #273 ) ;
#136 = VECTOR ( 'NONE', #217, 39.37007874015748143 ) ;
#137 =( NAMED_UNIT ( * ) PLANE_ANGLE_UNIT ( ) SI_UNIT ( $, .RADIAN. ) );
#138 =( CONVERSION_BASED_UNIT ( 'INCH', #5 ) LENGTH_UNIT ( ) NAMED_UNIT ( #120 ) );
#139 = EDGE_CURVE ( 'NONE', #231, #210, #22, .T. ) ;
#140 = EDGE_LOOP ( 'NONE', ( #133, #165 ) ) ;
#141 = VECTOR ( 'NONE', #274, 39.37007874015748143 ) ;
#142 = FACE_OUTER_BOUND ( 'NONE', #49, .T. ) ;
#143 = EDGE_LOOP ( 'NONE', ( #278, #233, #72, #92 ) ) ;
#144 = ADVANCED_FACE ( 'NONE', ( #216 ), #131, .T. ) ;
#145 = ORIENTED_EDGE ( 'NONE', *, *, #159, .F. ) ;
#146 = ORIENTED_EDGE ( 'NONE', *, *, #282, .F. ) ;
#147 = CARTESIAN_POINT ( 'NONE',  ( 5.510910596163090326E-18, 0.0000000000000000000, 0.04499999999999999833 ) ) ;
#148 = DIRECTION ( 'NONE',  ( 1.000000000000000000, 0.0000000000000000000, -0.0000000000000000000 ) ) ;
#149 = DIRECTION ( 'NONE',  ( -0.0000000000000000000, -0.0000000000000000000, -1.000000000000000000 ) ) ;
#150 = DIRECTION ( 'NONE',  ( 0.0000000000000000000, 0.0000000000000000000, -1.000000000000000000 ) ) ;
#151 =( LENGTH_UNIT ( ) NAMED_UNIT ( * ) SI_UNIT ( $, .METRE. ) );
#152 = CARTESIAN_POINT ( 'NONE',  ( 0.06250000000000006939, 7.654042494670963708E-18, 0.3569630346926195297 ) ) ;
#153 = VECTOR ( 'NONE', #290, 39.37007874015748143 ) ;
#154 = FILL_AREA_STYLE_COLOUR ( '', #178 ) ;
#155 = ORIENTED_EDGE ( 'NONE', *, *, #253, .T. ) ;
#156 = PRODUCT_RELATED_PRODUCT_CATEGORY ( 'part', '', ( #252 ) ) ;
#157 = AXIS2_PLACEMENT_3D ( 'NONE', #197, #31, #241 ) ;
#158 = EDGE_LOOP ( 'NONE', ( #204, #85, #279, #115 ) ) ;
#159 = EDGE_CURVE ( 'NONE', #203, #16, #103, .T. ) ;
#160 = PRODUCT_CONTEXT ( 'NONE', #235, 'mechanical' ) ;
#161 = ORIENTED_EDGE ( 'NONE', *, *, #8, .F. ) ;
#162 = CARTESIAN_POINT ( 'NONE',  ( 0.06250000000000002776, 7.654042494670959086E-18, 1.485000000000000764 ) ) ;
#163 = CIRCLE ( 'NONE', #21, 0.06250000000000002776 ) ;
#164 = CIRCLE ( 'NONE', #69, 0.007492500000000000028 ) ;
#165 = ORIENTED_EDGE ( 'NONE', *, *, #282, .T. ) ;
#166 = CARTESIAN_POINT ( 'NONE',  ( 0.0000000000000000000, 0.0000000000000000000, 1.485000000000000764 ) ) ;
#167 = DIRECTION ( 'NONE',  ( -0.1736481776669312194, 2.126576849575783625E-17, 0.9848077530122080203 ) ) ;
#168 = CARTESIAN_POINT ( 'NONE',  ( -0.04750000000000064587, 0.0000000000000000000, 1.500000000000000222 ) ) ;
#169 = FACE_OUTER_BOUND ( 'NONE', #140, .T. ) ;
#170 = CARTESIAN_POINT ( 'NONE',  ( -0.04750000000000064587, 0.0000000000000000000, 1.500000000000000222 ) ) ;
#171 = CARTESIAN_POINT ( 'NONE',  ( 5.510910596163090326E-18, 0.0000000000000000000, 0.04499999999999999833 ) ) ;
#172 = AXIS2_PLACEMENT_3D ( 'NONE', #259, #298, #184 ) ;
#173 = DIRECTION ( 'NONE',  ( -1.224646799147353454E-16, -0.0000000000000000000, -1.000000000000000000 ) ) ;
#174 = CYLINDRICAL_SURFACE ( 'NONE', #256, 0.007492500000000000028 ) ;
#175 = EDGE_CURVE ( 'NONE', #210, #231, #202, .T. ) ;
#176 = DIRECTION ( 'NONE',  ( -1.000000000000000000, 0.0000000000000000000, 1.224646799147353454E-16 ) ) ;
#177 = EDGE_LOOP ( 'NONE', ( #4, #187 ) ) ;
#178 = COLOUR_RGB ( '',0.7921568627450980005, 0.8196078431372548767, 0.9333333333333333481 ) ;
#179 = CARTESIAN_POINT ( 'NONE',  ( 0.04750000000000064587, 5.817072295950006528E-18, 1.500000000000000222 ) ) ;
#180 = DIMENSIONAL_EXPONENTS ( 1.000000000000000000, 0.0000000000000000000, 0.0000000000000000000, 0.0000000000000000000, 0.0000000000000000000, 0.0000000000000000000, 0.0000000000000000000 ) ;
#181 = LINE ( 'NONE', #107, #14 ) ;
#182 = ORIENTED_EDGE ( 'NONE', *, *, #224, .F. ) ;
#183 = AXIS2_PLACEMENT_3D ( 'NONE', #171, #9, #124 ) ;
#184 = DIRECTION ( 'NONE',  ( 1.000000000000000000, 0.0000000000000000000, 0.0000000000000000000 ) ) ;
#185 = SURFACE_STYLE_FILL_AREA ( #25 ) ;
#186 = CARTESIAN_POINT ( 'NONE',  ( 0.007492500000000000028, 9.175666142611544079E-19, 0.0000000000000000000 ) ) ;
#187 = ORIENTED_EDGE ( 'NONE', *, *, #46, .T. ) ;
#188 = EDGE_LOOP ( 'NONE', ( #43, #270, #155, #6 ) ) ;
#189 = EDGE_LOOP ( 'NONE', ( #299, #254, #227, #145 ) ) ;
#190 = UNCERTAINTY_MEASURE_WITH_UNIT (LENGTH_MEASURE( 1.000000000000000082E-05 ), #38, 'distance_accuracy_value', 'NONE');
#191 = FACE_OUTER_BOUND ( 'NONE', #158, .T. ) ;
#192 = CONICAL_SURFACE ( 'NONE', #91, 0.04750000000000064587, 0.7853981633974466137 ) ;
#193 = LINE ( 'NONE', #170, #95 ) ;
#194 = DIRECTION ( 'NONE',  ( -1.224646799147353454E-16, -0.0000000000000000000, -1.000000000000000000 ) ) ;
#195 = CARTESIAN_POINT ( 'NONE',  ( -0.007492499999999994824, 4.285804554466057710E-18, 0.04499999999999999833 ) ) ;
#196 = AXIS2_PLACEMENT_3D ( 'NONE', #289, #29, #12 ) ;
#197 = CARTESIAN_POINT ( 'NONE',  ( 4.371536378502421744E-17, 0.0000000000000000000, 0.3569630346926195297 ) ) ;
#198 = ADVANCED_FACE ( 'NONE', ( #76 ), #268, .T. ) ;
#199 = DIRECTION ( 'NONE',  ( 0.1736481776669314137, 0.0000000000000000000, 0.9848077530122077983 ) ) ;
#200 = EDGE_CURVE ( 'NONE', #93, #20, #193, .T. ) ;
#201 = VERTEX_POINT ( 'NONE', #78 ) ;
#202 = CIRCLE ( 'NONE', #207, 0.06250000000000002776 ) ;
#203 = VERTEX_POINT ( 'NONE', #195 ) ;
#204 = ORIENTED_EDGE ( 'NONE', *, *, #46, .F. ) ;
#205 = APPLICATION_PROTOCOL_DEFINITION ( 'draft international standard', 'automotive_design', 1998, #235 ) ;
#206 = ORIENTED_EDGE ( 'NONE', *, *, #35, .T. ) ;
#207 = AXIS2_PLACEMENT_3D ( 'NONE', #82, #194, #284 ) ;
#208 = AXIS2_PLACEMENT_3D ( 'NONE', #232, #66, #97 ) ;
#209 = SURFACE_STYLE_USAGE ( .BOTH. , #230 ) ;
#210 = VERTEX_POINT ( 'NONE', #265 ) ;
#211 = CARTESIAN_POINT ( 'NONE',  ( 0.0000000000000000000, 0.0000000000000000000, 1.500000000000000222 ) ) ;
#212 = DIRECTION ( 'NONE',  ( 1.224646799147353454E-16, 0.0000000000000000000, 1.000000000000000000 ) ) ;
#213 = AXIS2_PLACEMENT_3D ( 'NONE', #88, #130, #271 ) ;
#214 = DIRECTION ( 'NONE',  ( 0.0000000000000000000, 0.0000000000000000000, -1.000000000000000000 ) ) ;
#215 = ADVANCED_FACE ( 'NONE', ( #169 ), #55, .F. ) ;
#216 = FACE_OUTER_BOUND ( 'NONE', #188, .T. ) ;
#217 = DIRECTION ( 'NONE',  ( -0.0000000000000000000, -0.0000000000000000000, -1.000000000000000000 ) ) ;
#218 = LINE ( 'NONE', #179, #87 ) ;
#219 = ADVANCED_FACE ( 'NONE', ( #262 ), #192, .T. ) ;
#220 = ORIENTED_EDGE ( 'NONE', *, *, #253, .F. ) ;
#221 = CARTESIAN_POINT ( 'NONE',  ( 1.123695017159397331E-34, 0.0000000000000000000, 9.175666142611546005E-19 ) ) ;
#222 = LINE ( 'NONE', #18, #293 ) ;
#223 = PRESENTATION_LAYER_ASSIGNMENT (  '', '', ( #54 ) ) ;
#224 = EDGE_CURVE ( 'NONE', #20, #210, #36, .T. ) ;
#225 = APPLICATION_PROTOCOL_DEFINITION ( 'draft international standard', 'automotive_design', 1998, #251 ) ;
#226 = PRODUCT_DEFINITION_CONTEXT ( 'detailed design', #251, 'design' ) ;
#227 = ORIENTED_EDGE ( 'NONE', *, *, #83, .F. ) ;
#228 = EDGE_CURVE ( 'NONE', #201, #24, #218, .T. ) ;
#229 = AXIS2_PLACEMENT_3D ( 'NONE', #237, #52, #10 ) ;
#230 = SURFACE_SIDE_STYLE ('',( #185 ) ) ;
#231 = VERTEX_POINT ( 'NONE', #152 ) ;
#232 = CARTESIAN_POINT ( 'NONE',  ( 0.0000000000000000000, 0.0000000000000000000, 0.0000000000000000000 ) ) ;
#233 = ORIENTED_EDGE ( 'NONE', *, *, #8, .T. ) ;
#234 = CARTESIAN_POINT ( 'NONE',  ( -0.007492499999999994824, 9.175666142611544079E-19, 0.04499999999999999833 ) ) ;
#235 = APPLICATION_CONTEXT ( 'automotive_design' ) ;
#236 = CARTESIAN_POINT ( 'NONE',  ( 0.0000000000000000000, 0.0000000000000000000, 1.500000000000000222 ) ) ;
#237 = CARTESIAN_POINT ( 'NONE',  ( 5.510910596163090326E-18, 0.0000000000000000000, 0.04499999999999999833 ) ) ;
#238 = CARTESIAN_POINT ( 'NONE',  ( 0.0000000000000000000, 0.0000000000000000000, 1.500000000000000222 ) ) ;
#239 = ADVANCED_FACE ( 'NONE', ( #295 ), #174, .T. ) ;
#240 = COLOUR_RGB ( '',0.7921568627450980005, 0.8196078431372548767, 0.9333333333333333481 ) ;
#241 = DIRECTION ( 'NONE',  ( 1.000000000000000000, 0.0000000000000000000, 0.0000000000000000000 ) ) ;
#242 = DIRECTION ( 'NONE',  ( 0.0000000000000000000, 0.0000000000000000000, 1.000000000000000000 ) ) ;
#243 = CIRCLE ( 'NONE', #113, 0.06250000000000002776 ) ;
#244 =( NAMED_UNIT ( * ) SI_UNIT ( $, .STERADIAN. ) SOLID_ANGLE_UNIT ( ) );
#245 = AXIS2_PLACEMENT_3D ( 'NONE', #147, #212, #100 ) ;
#246 =( LENGTH_UNIT ( ) NAMED_UNIT ( * ) SI_UNIT ( $, .METRE. ) );
#247 = EDGE_LOOP ( 'NONE', ( #283, #206, #122, #220 ) ) ;
#248 = CLOSED_SHELL ( 'NONE', ( #239, #198, #134, #106, #13, #102, #219, #144, #75, #215 ) ) ;
#249 = LINE ( 'NONE', #294, #141 ) ;
#250 = CIRCLE ( 'NONE', #213, 0.007492500000000000028 ) ;
#251 = APPLICATION_CONTEXT ( 'automotive_design' ) ;
#252 = PRODUCT ( 'Micro_RME-015-2', 'Micro_RME-015-2', '', ( #160 ) ) ;
#253 = EDGE_CURVE ( 'NONE', #98, #231, #222, .T. ) ;
#254 = ORIENTED_EDGE ( 'NONE', *, *, #286, .T. ) ;
#255 = DIRECTION ( 'NONE',  ( 1.000000000000000000, 0.0000000000000000000, 0.0000000000000000000 ) ) ;
#256 = AXIS2_PLACEMENT_3D ( 'NONE', #291, #84, #40 ) ;
#257 = DIRECTION ( 'NONE',  ( -0.0000000000000000000, -0.0000000000000000000, -1.000000000000000000 ) ) ;
#258 = CARTESIAN_POINT ( 'NONE',  ( -0.007492500000000000028, 0.0000000000000000000, 1.835133228522309201E-18 ) ) ;
#259 = CARTESIAN_POINT ( 'NONE',  ( 0.0000000000000000000, 0.0000000000000000000, 1.500000000000000222 ) ) ;
#260 = STYLED_ITEM ( 'NONE', ( #68 ), #58 ) ;
#261 = DIRECTION ( 'NONE',  ( -1.000000000000000000, 0.0000000000000000000, 0.0000000000000000000 ) ) ;
#262 = FACE_OUTER_BOUND ( 'NONE', #277, .T. ) ;
#263 = CARTESIAN_POINT ( 'NONE',  ( 0.0000000000000000000, 0.0000000000000000000, 0.0000000000000000000 ) ) ;
#264 =( GEOMETRIC_REPRESENTATION_CONTEXT ( 3 ) GLOBAL_UNCERTAINTY_ASSIGNED_CONTEXT ( ( #74 ) ) GLOBAL_UNIT_ASSIGNED_CONTEXT ( ( #60, #137, #110 ) ) REPRESENTATION_CONTEXT ( 'NONE', 'WORKASPACE' ) );
#265 = CARTESIAN_POINT ( 'NONE',  ( -0.06249999999999997918, 0.0000000000000000000, 0.3569630346926195297 ) ) ;
#266 = PLANE ( 'NONE',  #297 ) ;
#267 = FILL_AREA_STYLE ('',( #154 ) ) ;
#268 = CONICAL_SURFACE ( 'NONE', #245, 0.007492500000000000028, 0.1745329251994339192 ) ;
#269 = PRESENTATION_STYLE_ASSIGNMENT (( #135 ) ) ;
#270 = ORIENTED_EDGE ( 'NONE', *, *, #112, .F. ) ;
#271 = DIRECTION ( 'NONE',  ( -1.000000000000000000, 0.0000000000000000000, 0.0000000000000000000 ) ) ;
#272 = EDGE_CURVE ( 'NONE', #203, #98, #250, .T. ) ;
#273 = SURFACE_SIDE_STYLE ('',( #109 ) ) ;
#274 = DIRECTION ( 'NONE',  ( -0.0000000000000000000, -0.0000000000000000000, -1.000000000000000000 ) ) ;
#275 = ORIENTED_EDGE ( 'NONE', *, *, #200, .T. ) ;
#276 = EDGE_CURVE ( 'NONE', #24, #231, #249, .T. ) ;
#277 = EDGE_LOOP ( 'NONE', ( #39, #67, #275, #161 ) ) ;
#278 = ORIENTED_EDGE ( 'NONE', *, *, #276, .F. ) ;
#279 = ORIENTED_EDGE ( 'NONE', *, *, #30, .F. ) ;
#280 = MANIFOLD_SOLID_BREP ( 'Cut-Revolve1', #248 ) ;
#281 = DIRECTION ( 'NONE',  ( -1.000000000000000000, 0.0000000000000000000, 0.0000000000000000000 ) ) ;
#282 = EDGE_CURVE ( 'NONE', #23, #16, #164, .T. ) ;
#283 = ORIENTED_EDGE ( 'NONE', *, *, #272, .F. ) ;
#284 = DIRECTION ( 'NONE',  ( 1.000000000000000000, 0.0000000000000000000, 0.0000000000000000000 ) ) ;
#285 = CIRCLE ( 'NONE', #172, 0.04750000000000064587 ) ;
#286 = EDGE_CURVE ( 'NONE', #98, #23, #181, .T. ) ;
#287 = DIRECTION ( 'NONE',  ( -0.7071067811865462405, 0.0000000000000000000, -0.7071067811865486830 ) ) ;
#288 = FACE_OUTER_BOUND ( 'NONE', #177, .T. ) ;
#289 = CARTESIAN_POINT ( 'NONE',  ( 0.0000000000000000000, 0.0000000000000000000, 0.0000000000000000000 ) ) ;
#290 = DIRECTION ( 'NONE',  ( -1.224646799147353454E-16, -0.0000000000000000000, -1.000000000000000000 ) ) ;
#291 = CARTESIAN_POINT ( 'NONE',  ( 0.0000000000000000000, 0.0000000000000000000, 0.0000000000000000000 ) ) ;
#292 = DIRECTION ( 'NONE',  ( -1.224646799147353454E-16, -0.0000000000000000000, -1.000000000000000000 ) ) ;
#293 = VECTOR ( 'NONE', #199, 39.37007874015748143 ) ;
#294 = CARTESIAN_POINT ( 'NONE',  ( 0.06250000000000002776, 7.654042494670959086E-18, 1.500000000000000222 ) ) ;
#295 = FACE_OUTER_BOUND ( 'NONE', #189, .T. ) ;
#296 =( NAMED_UNIT ( * ) PLANE_ANGLE_UNIT ( ) SI_UNIT ( $, .RADIAN. ) );
#297 = AXIS2_PLACEMENT_3D ( 'NONE', #238, #11, #128 ) ;
#298 = DIRECTION ( 'NONE',  ( 0.0000000000000000000, 0.0000000000000000000, 1.000000000000000000 ) ) ;
#299 = ORIENTED_EDGE ( 'NONE', *, *, #272, .T. ) ;
ENDSEC;
END-ISO-10303-21;
