ISO-10303-21;
HEADER;
FILE_DESCRIPTION (( 'STEP AP214' ),
    '1' );
FILE_NAME ('84040.STEP',
    '2023-06-23T10:41:40',
    ( '' ),
    ( '' ),
    'SwSTEP 2.0',
    'SolidWorks 2023',
    '' );
FILE_SCHEMA (( 'AUTOMOTIVE_DESIGN' ));
ENDSEC;

DATA;
#1 = FACE_OUTER_BOUND ( 'NONE', #287, .T. ) ;
#2 = EDGE_CURVE ( 'NONE', #325, #223, #103, .T. ) ;
#3 = ORIENTED_EDGE ( 'NONE', *, *, #320, .F. ) ;
#4 = SURFACE_STYLE_FILL_AREA ( #192 ) ;
#5 = COLOUR_RGB ( '',0.7921568627450980005, 0.8196078431372548767, 0.9333333333333333481 ) ;
#6 = AXIS2_PLACEMENT_3D ( 'NONE', #328, #324, #185 ) ;
#7 = SURFACE_STYLE_USAGE ( .BOTH. , #250 ) ;
#8 = AXIS2_PLACEMENT_3D ( 'NONE', #201, #144, #207 ) ;
#9 = DIRECTION ( 'NONE',  ( -1.000000000000000000, 0.000000000000000000, 0.000000000000000000 ) ) ;
#10 =( NAMED_UNIT ( * ) SI_UNIT ( $, .STERADIAN. ) SOLID_ANGLE_UNIT ( ) );
#11 = AXIS2_PLACEMENT_3D ( 'NONE', #304, #74, #131 ) ;
#12 = ORIENTED_EDGE ( 'NONE', *, *, #143, .F. ) ;
#13 = DIRECTION ( 'NONE',  ( -1.000000000000000000, 0.000000000000000000, 0.000000000000000000 ) ) ;
#14 = MANIFOLD_SOLID_BREP ( 'Revolve - Cutting Edge', #54 ) ;
#15 = SHAPE_DEFINITION_REPRESENTATION ( #344, #227 ) ;
#16 = DIRECTION ( 'NONE',  ( 0.2588190451025213501, 0.9659258262890682012, 3.169619151431772953E-17 ) ) ;
#17 = COLOUR_RGB ( '',1.000000000000000000, 0.000000000000000000, 0.000000000000000000 ) ;
#18 = ORIENTED_EDGE ( 'NONE', *, *, #320, .T. ) ;
#19 = EDGE_LOOP ( 'NONE', ( #12, #295 ) ) ;
#20 = FILL_AREA_STYLE_COLOUR ( '', #356 ) ;
#21 = EDGE_LOOP ( 'NONE', ( #300, #134, #332, #96 ) ) ;
#22 = STYLED_ITEM ( 'NONE', ( #316 ), #124 ) ;
#23 =( LENGTH_UNIT ( ) NAMED_UNIT ( * ) SI_UNIT ( $, .METRE. ) );
#24 = APPLICATION_CONTEXT ( 'automotive_design' ) ;
#25 = ORIENTED_EDGE ( 'NONE', *, *, #245, .T. ) ;
#26 = DIRECTION ( 'NONE',  ( -2.543927709072191646E-17, 1.000000000000000000, -0.000000000000000000 ) ) ;
#27 = EDGE_LOOP ( 'NONE', ( #120, #239 ) ) ;
#28 = CARTESIAN_POINT ( 'NONE',  ( 0.000000000000000000, 0.09299999999999980504, 0.000000000000000000 ) ) ;
#29 = UNCERTAINTY_MEASURE_WITH_UNIT (LENGTH_MEASURE( 1.000000000000000082E-05 ), #273, 'distance_accuracy_value', 'NONE');
#30 = CARTESIAN_POINT ( 'NONE',  ( -0.1250000000000000278, 0.5012863583480339225, 0.000000000000000000 ) ) ;
#31 = FILL_AREA_STYLE ('',( #168 ) ) ;
#32 = MECHANICAL_DESIGN_GEOMETRIC_PRESENTATION_REPRESENTATION (  '', ( #176 ), #121 ) ;
#33 = PRESENTATION_STYLE_ASSIGNMENT (( #313 ) ) ;
#34 = CIRCLE ( 'NONE', #296, 0.1250000000000000555 ) ;
#35 = MECHANICAL_DESIGN_GEOMETRIC_PRESENTATION_REPRESENTATION (  '', ( #86 ), #177 ) ;
#36 = ADVANCED_FACE ( 'NONE', ( #251 ), #187, .T. ) ;
#37 = SURFACE_SIDE_STYLE ('',( #51 ) ) ;
#38 =( NAMED_UNIT ( * ) SI_UNIT ( $, .STERADIAN. ) SOLID_ANGLE_UNIT ( ) );
#39 = LENGTH_MEASURE_WITH_UNIT ( LENGTH_MEASURE( 0.02539999999999999897 ), #178 );
#40 = CARTESIAN_POINT ( 'NONE',  ( 5.047823187408536724E-36, 0.09299999999999980504, 0.000000000000000000 ) ) ;
#41 = LINE ( 'NONE', #233, #289 ) ;
#42 = EDGE_CURVE ( 'NONE', #221, #198, #170, .T. ) ;
#43 = FILL_AREA_STYLE_COLOUR ( '', #355 ) ;
#44 = CYLINDRICAL_SURFACE ( 'NONE', #200, 0.1250000000000000278 ) ;
#45 = ORIENTED_EDGE ( 'NONE', *, *, #202, .F. ) ;
#46 = CARTESIAN_POINT ( 'NONE',  ( 0.000000000000000000, 0.000000000000000000, 0.000000000000000000 ) ) ;
#47 = DIRECTION ( 'NONE',  ( 0.000000000000000000, 0.000000000000000000, -1.000000000000000000 ) ) ;
#48 = COLOUR_RGB ( '',0.7921568627450980005, 0.8196078431372548767, 0.9333333333333333481 ) ;
#49 = ORIENTED_EDGE ( 'NONE', *, *, #143, .T. ) ;
#50 =( LENGTH_UNIT ( ) NAMED_UNIT ( * ) SI_UNIT ( $, .METRE. ) );
#51 = SURFACE_STYLE_FILL_AREA ( #270 ) ;
#52 = ORIENTED_EDGE ( 'NONE', *, *, #2, .F. ) ;
#53 = CARTESIAN_POINT ( 'NONE',  ( -0.01560000000000003224, 0.09299999999999980504, 0.000000000000000000 ) ) ;
#54 = CLOSED_SHELL ( 'NONE', ( #232, #184, #265, #36 ) ) ;
#55 = SURFACE_SIDE_STYLE ('',( #106 ) ) ;
#56 = DIRECTION ( 'NONE',  ( -1.000000000000000000, 0.000000000000000000, 0.000000000000000000 ) ) ;
#57 =( LENGTH_UNIT ( ) NAMED_UNIT ( * ) SI_UNIT ( $, .METRE. ) );
#58 = LENGTH_MEASURE_WITH_UNIT ( LENGTH_MEASURE( 0.02539999999999999897 ), #141 );
#59 = EDGE_CURVE ( 'NONE', #158, #243, #41, .T. ) ;
#60 = CARTESIAN_POINT ( 'NONE',  ( 1.910449006669875016E-18, 0.000000000000000000, 0.01560000000000003224 ) ) ;
#61 = CIRCLE ( 'NONE', #254, 0.1250000000000000278 ) ;
#62 = LENGTH_MEASURE_WITH_UNIT ( LENGTH_MEASURE( 0.02539999999999999897 ), #303 );
#63 = FILL_AREA_STYLE ('',( #43 ) ) ;
#64 = LINE ( 'NONE', #145, #67 ) ;
#65 = CARTESIAN_POINT ( 'NONE',  ( 0.1249999999999999584, 2.500000000000000000, 1.530808498934191817E-17 ) ) ;
#66 = PLANE ( 'NONE',  #195 ) ;
#67 = VECTOR ( 'NONE', #181, 39.37007874015748143 ) ;
#68 = CIRCLE ( 'NONE', #276, 0.1250000000000000555 ) ;
#69 = ORIENTED_EDGE ( 'NONE', *, *, #119, .T. ) ;
#70 = AXIS2_PLACEMENT_3D ( 'NONE', #115, #345, #231 ) ;
#71 = STYLED_ITEM ( 'NONE', ( #105 ), #232 ) ;
#72 = ORIENTED_EDGE ( 'NONE', *, *, #196, .T. ) ;
#73 = CARTESIAN_POINT ( 'NONE',  ( -0.1250000000000001110, 2.500000000000000000, 0.000000000000000000 ) ) ;
#74 = DIRECTION ( 'NONE',  ( -0.000000000000000000, -1.000000000000000000, -0.000000000000000000 ) ) ;
#75 = ADVANCED_FACE ( 'NONE', ( #266 ), #44, .T. ) ;
#76 = PRODUCT_CONTEXT ( 'NONE', #24, 'mechanical' ) ;
#77 = DIRECTION ( 'NONE',  ( -0.000000000000000000, -1.000000000000000000, -0.000000000000000000 ) ) ;
#78 = CARTESIAN_POINT ( 'NONE',  ( 0.000000000000000000, 0.000000000000000000, -0.01560000000000003224 ) ) ;
#79 = VECTOR ( 'NONE', #310, 39.37007874015748143 ) ;
#80 = CIRCLE ( 'NONE', #290, 0.01560000000000003224 ) ;
#81 = ORIENTED_EDGE ( 'NONE', *, *, #42, .T. ) ;
#82 =( CONVERSION_BASED_UNIT ( 'INCH', #62 ) LENGTH_UNIT ( ) NAMED_UNIT ( #84 ) );
#83 =( NAMED_UNIT ( * ) PLANE_ANGLE_UNIT ( ) SI_UNIT ( $, .RADIAN. ) );
#84 = DIMENSIONAL_EXPONENTS ( 1.000000000000000000, 0.000000000000000000, 0.000000000000000000, 0.000000000000000000, 0.000000000000000000, 0.000000000000000000, 0.000000000000000000 ) ;
#85 = UNCERTAINTY_MEASURE_WITH_UNIT (LENGTH_MEASURE( 1.000000000000000082E-05 ), #82, 'distance_accuracy_value', 'NONE');
#86 = STYLED_ITEM ( 'NONE', ( #238 ), #265 ) ;
#87 = FACE_OUTER_BOUND ( 'NONE', #125, .T. ) ;
#88 =( LENGTH_UNIT ( ) NAMED_UNIT ( * ) SI_UNIT ( $, .METRE. ) );
#89 =( NAMED_UNIT ( * ) SI_UNIT ( $, .STERADIAN. ) SOLID_ANGLE_UNIT ( ) );
#90 = CARTESIAN_POINT ( 'NONE',  ( -6.123233995736766036E-17, 2.500000000000000000, 0.000000000000000000 ) ) ;
#91 = EDGE_CURVE ( 'NONE', #277, #359, #64, .T. ) ;
#92 = DIRECTION ( 'NONE',  ( -2.543927709072191646E-17, 1.000000000000000000, -0.000000000000000000 ) ) ;
#93 = DIMENSIONAL_EXPONENTS ( 1.000000000000000000, 0.000000000000000000, 0.000000000000000000, 0.000000000000000000, 0.000000000000000000, 0.000000000000000000, 0.000000000000000000 ) ;
#94 = PRESENTATION_LAYER_ASSIGNMENT (  '', '', ( #155 ) ) ;
#95 = ORIENTED_EDGE ( 'NONE', *, *, #202, .T. ) ;
#96 = ORIENTED_EDGE ( 'NONE', *, *, #196, .F. ) ;
#97 = AXIS2_PLACEMENT_3D ( 'NONE', #338, #285, #174 ) ;
#98 = CYLINDRICAL_SURFACE ( 'NONE', #259, 0.1250000000000000278 ) ;
#99 = SURFACE_SIDE_STYLE ('',( #160 ) ) ;
#100 = FACE_OUTER_BOUND ( 'NONE', #215, .T. ) ;
#101 = CARTESIAN_POINT ( 'NONE',  ( 1.910449006669875016E-18, 0.09299999999999980504, 0.01560000000000003224 ) ) ;
#102 = ORIENTED_EDGE ( 'NONE', *, *, #2, .T. ) ;
#103 = LINE ( 'NONE', #73, #183 ) ;
#104 = AXIS2_PLACEMENT_3D ( 'NONE', #228, #341, #13 ) ;
#105 = PRESENTATION_STYLE_ASSIGNMENT (( #7 ) ) ;
#106 = SURFACE_STYLE_FILL_AREA ( #109 ) ;
#107 = FACE_OUTER_BOUND ( 'NONE', #21, .T. ) ;
#108 = UNCERTAINTY_MEASURE_WITH_UNIT (LENGTH_MEASURE( 1.000000000000000082E-05 ), #283, 'distance_accuracy_value', 'NONE');
#109 = FILL_AREA_STYLE ('',( #111 ) ) ;
#110 = MECHANICAL_DESIGN_GEOMETRIC_PRESENTATION_REPRESENTATION (  '', ( #155 ), #318 ) ;
#111 = FILL_AREA_STYLE_COLOUR ( '', #17 ) ;
#112 = AXIS2_PLACEMENT_3D ( 'NONE', #306, #26, #133 ) ;
#113 = ADVANCED_FACE ( 'NONE', ( #256 ), #162, .T. ) ;
#114 = CIRCLE ( 'NONE', #8, 0.01560000000000003224 ) ;
#115 = CARTESIAN_POINT ( 'NONE',  ( 0.000000000000000000, 0.000000000000000000, 0.000000000000000000 ) ) ;
#116 = ADVANCED_FACE ( 'NONE', ( #87 ), #286, .F. ) ;
#117 = UNCERTAINTY_MEASURE_WITH_UNIT (LENGTH_MEASURE( 1.000000000000000082E-05 ), #264, 'distance_accuracy_value', 'NONE');
#118 = FACE_OUTER_BOUND ( 'NONE', #27, .T. ) ;
#119 = EDGE_CURVE ( 'NONE', #359, #198, #315, .T. ) ;
#120 = ORIENTED_EDGE ( 'NONE', *, *, #165, .T. ) ;
#121 =( GEOMETRIC_REPRESENTATION_CONTEXT ( 3 ) GLOBAL_UNCERTAINTY_ASSIGNED_CONTEXT ( ( #85 ) ) GLOBAL_UNIT_ASSIGNED_CONTEXT ( ( #82, #311, #38 ) ) REPRESENTATION_CONTEXT ( 'NONE', 'WORKASPACE' ) );
#122 = CIRCLE ( 'NONE', #281, 0.01560000000000003224 ) ;
#123 = CARTESIAN_POINT ( 'NONE',  ( -6.123233995736766036E-17, 2.500000000000000000, 0.000000000000000000 ) ) ;
#124 = MANIFOLD_SOLID_BREP ( 'Revolve - Tool Body (Reduced Cut Diameter)', #348 ) ;
#125 = EDGE_LOOP ( 'NONE', ( #189, #45 ) ) ;
#126 = CARTESIAN_POINT ( 'NONE',  ( -6.123233995736766036E-17, 2.500000000000000000, 0.000000000000000000 ) ) ;
#127 = ADVANCED_FACE ( 'NONE', ( #118 ), #343, .F. ) ;
#128 =( GEOMETRIC_REPRESENTATION_CONTEXT ( 3 ) GLOBAL_UNCERTAINTY_ASSIGNED_CONTEXT ( ( #117 ) ) GLOBAL_UNIT_ASSIGNED_CONTEXT ( ( #264, #83, #10 ) ) REPRESENTATION_CONTEXT ( 'NONE', 'WORKASPACE' ) );
#129 = AXIS2_PLACEMENT_3D ( 'NONE', #312, #171, #56 ) ;
#130 = ORIENTED_EDGE ( 'NONE', *, *, #302, .F. ) ;
#131 = DIRECTION ( 'NONE',  ( 0.000000000000000000, 0.000000000000000000, -1.000000000000000000 ) ) ;
#132 = ORIENTED_EDGE ( 'NONE', *, *, #165, .F. ) ;
#133 = DIRECTION ( 'NONE',  ( -1.000000000000000000, 0.000000000000000000, 0.000000000000000000 ) ) ;
#134 = ORIENTED_EDGE ( 'NONE', *, *, #59, .T. ) ;
#135 = CARTESIAN_POINT ( 'NONE',  ( 0.1250000000000000278, 2.500000000000000000, 1.530808498934192125E-17 ) ) ;
#136 = CIRCLE ( 'NONE', #334, 0.1250000000000000278 ) ;
#137 = DIRECTION ( 'NONE',  ( -2.543927709072191646E-17, 1.000000000000000000, -0.000000000000000000 ) ) ;
#138 = SURFACE_STYLE_USAGE ( .BOTH. , #37 ) ;
#139 =( NAMED_UNIT ( * ) SI_UNIT ( $, .STERADIAN. ) SOLID_ANGLE_UNIT ( ) );
#140 = AXIS2_PLACEMENT_3D ( 'NONE', #167, #224, #333 ) ;
#141 =( LENGTH_UNIT ( ) NAMED_UNIT ( * ) SI_UNIT ( $, .METRE. ) );
#142 = CARTESIAN_POINT ( 'NONE',  ( 0.01560000000000003224, 0.09299999999999980504, 8.609266998005896786E-18 ) ) ;
#143 = EDGE_CURVE ( 'NONE', #221, #277, #114, .T. ) ;
#144 = DIRECTION ( 'NONE',  ( -0.000000000000000000, -1.000000000000000000, -0.000000000000000000 ) ) ;
#145 = CARTESIAN_POINT ( 'NONE',  ( 1.910449006669875016E-18, 0.000000000000000000, 0.01560000000000003224 ) ) ;
#146 = DIRECTION ( 'NONE',  ( -2.543927709072191337E-17, 1.000000000000000000, 0.000000000000000000 ) ) ;
#147 =( CONVERSION_BASED_UNIT ( 'INCH', #175 ) LENGTH_UNIT ( ) NAMED_UNIT ( #203 ) );
#148 = AXIS2_PLACEMENT_3D ( 'NONE', #294, #346, #47 ) ;
#149 = DIRECTION ( 'NONE',  ( -2.543927709072191646E-17, 1.000000000000000000, -0.000000000000000000 ) ) ;
#150 = CARTESIAN_POINT ( 'NONE',  ( -6.123233995736766036E-17, 2.500000000000000000, 0.000000000000000000 ) ) ;
#151 = ORIENTED_EDGE ( 'NONE', *, *, #59, .F. ) ;
#152 = SURFACE_STYLE_USAGE ( .BOTH. , #255 ) ;
#153 = CARTESIAN_POINT ( 'NONE',  ( 0.000000000000000000, 0.09299999999999980504, 0.000000000000000000 ) ) ;
#154 = PRODUCT ( '84040', '84040', '', ( #76 ) ) ;
#155 = STYLED_ITEM ( 'NONE', ( #33 ), #36 ) ;
#156 = SURFACE_STYLE_USAGE ( .BOTH. , #293 ) ;
#157 = VECTOR ( 'NONE', #182, 39.37007874015748143 ) ;
#158 = VERTEX_POINT ( 'NONE', #142 ) ;
#159 = DIRECTION ( 'NONE',  ( 0.000000000000000000, 0.000000000000000000, -1.000000000000000000 ) ) ;
#160 = SURFACE_STYLE_FILL_AREA ( #272 ) ;
#161 = ORIENTED_EDGE ( 'NONE', *, *, #91, .F. ) ;
#162 = CONICAL_SURFACE ( 'NONE', #104, 0.01560000000000003224, 0.2617993877991500740 ) ;
#163 = VERTEX_POINT ( 'NONE', #204 ) ;
#164 =( NAMED_UNIT ( * ) PLANE_ANGLE_UNIT ( ) SI_UNIT ( $, .RADIAN. ) );
#165 = EDGE_CURVE ( 'NONE', #223, #351, #34, .T. ) ;
#166 = ORIENTED_EDGE ( 'NONE', *, *, #119, .F. ) ;
#167 = CARTESIAN_POINT ( 'NONE',  ( 0.000000000000000000, 0.000000000000000000, 0.000000000000000000 ) ) ;
#168 = FILL_AREA_STYLE_COLOUR ( '', #253 ) ;
#169 =( GEOMETRIC_REPRESENTATION_CONTEXT ( 3 ) GLOBAL_UNCERTAINTY_ASSIGNED_CONTEXT ( ( #308 ) ) GLOBAL_UNIT_ASSIGNED_CONTEXT ( ( #262, #164, #307 ) ) REPRESENTATION_CONTEXT ( 'NONE', 'WORKASPACE' ) );
#170 = LINE ( 'NONE', #78, #79 ) ;
#171 = DIRECTION ( 'NONE',  ( -2.543927709072191646E-17, 1.000000000000000000, -0.000000000000000000 ) ) ;
#172 = ORIENTED_EDGE ( 'NONE', *, *, #252, .F. ) ;
#173 =( CONVERSION_BASED_UNIT ( 'INCH', #58 ) LENGTH_UNIT ( ) NAMED_UNIT ( #93 ) );
#174 = DIRECTION ( 'NONE',  ( 1.000000000000000000, 2.543927709072191337E-17, 0.000000000000000000 ) ) ;
#175 = LENGTH_MEASURE_WITH_UNIT ( LENGTH_MEASURE( 0.02539999999999999897 ), #50 );
#176 = STYLED_ITEM ( 'NONE', ( #214 ), #14 ) ;
#177 =( GEOMETRIC_REPRESENTATION_CONTEXT ( 3 ) GLOBAL_UNCERTAINTY_ASSIGNED_CONTEXT ( ( #29 ) ) GLOBAL_UNIT_ASSIGNED_CONTEXT ( ( #273, #217, #327 ) ) REPRESENTATION_CONTEXT ( 'NONE', 'WORKASPACE' ) );
#178 =( LENGTH_UNIT ( ) NAMED_UNIT ( * ) SI_UNIT ( $, .METRE. ) );
#179 = DIRECTION ( 'NONE',  ( -1.000000000000000000, 0.000000000000000000, 0.000000000000000000 ) ) ;
#180 = EDGE_CURVE ( 'NONE', #325, #243, #136, .T. ) ;
#181 = DIRECTION ( 'NONE',  ( -0.000000000000000000, -1.000000000000000000, -0.000000000000000000 ) ) ;
#182 = DIRECTION ( 'NONE',  ( -2.543927709072191337E-17, 1.000000000000000000, -0.000000000000000000 ) ) ;
#183 = VECTOR ( 'NONE', #274, 39.37007874015748143 ) ;
#184 = ADVANCED_FACE ( 'NONE', ( #337 ), #66, .T. ) ;
#185 = DIRECTION ( 'NONE',  ( 1.000000000000000000, 0.000000000000000000, 0.000000000000000000 ) ) ;
#186 = APPLICATION_PROTOCOL_DEFINITION ( 'draft international standard', 'automotive_design', 1998, #24 ) ;
#187 = PLANE ( 'NONE',  #140 ) ;
#188 = DIRECTION ( 'NONE',  ( -0.000000000000000000, -1.000000000000000000, -0.000000000000000000 ) ) ;
#189 = ORIENTED_EDGE ( 'NONE', *, *, #291, .F. ) ;
#190 = DIRECTION ( 'NONE',  ( -2.543927709072191646E-17, 1.000000000000000000, -0.000000000000000000 ) ) ;
#191 = ADVANCED_FACE ( 'NONE', ( #244 ), #98, .T. ) ;
#192 = FILL_AREA_STYLE ('',( #20 ) ) ;
#193 = AXIS2_PLACEMENT_3D ( 'NONE', #40, #146, #258 ) ;
#194 = LINE ( 'NONE', #53, #211 ) ;
#195 = AXIS2_PLACEMENT_3D ( 'NONE', #301, #271, #329 ) ;
#196 = EDGE_CURVE ( 'NONE', #163, #325, #194, .T. ) ;
#197 = APPLICATION_CONTEXT ( 'automotive_design' ) ;
#198 = VERTEX_POINT ( 'NONE', #309 ) ;
#199 = SURFACE_STYLE_FILL_AREA ( #63 ) ;
#200 = AXIS2_PLACEMENT_3D ( 'NONE', #123, #235, #350 ) ;
#201 = CARTESIAN_POINT ( 'NONE',  ( 0.000000000000000000, 0.09299999999999980504, 0.000000000000000000 ) ) ;
#202 = EDGE_CURVE ( 'NONE', #158, #163, #241, .T. ) ;
#203 = DIMENSIONAL_EXPONENTS ( 1.000000000000000000, 0.000000000000000000, 0.000000000000000000, 0.000000000000000000, 0.000000000000000000, 0.000000000000000000, 0.000000000000000000 ) ;
#204 = CARTESIAN_POINT ( 'NONE',  ( -0.01560000000000003224, 0.09299999999999980504, 0.000000000000000000 ) ) ;
#205 = FILL_AREA_STYLE_COLOUR ( '', #5 ) ;
#206 = LINE ( 'NONE', #65, #157 ) ;
#207 = DIRECTION ( 'NONE',  ( 0.000000000000000000, 0.000000000000000000, -1.000000000000000000 ) ) ;
#208 = STYLED_ITEM ( 'NONE', ( #342 ), #184 ) ;
#209 = DIRECTION ( 'NONE',  ( -2.543927709072191646E-17, 1.000000000000000000, -0.000000000000000000 ) ) ;
#210 = EDGE_LOOP ( 'NONE', ( #151, #95, #72, #130 ) ) ;
#211 = VECTOR ( 'NONE', #279, 39.37007874015747433 ) ;
#212 = PRODUCT_DEFINITION_FORMATION_WITH_SPECIFIED_SOURCE ( 'ANY', '', #154, .NOT_KNOWN. ) ;
#213 = DIRECTION ( 'NONE',  ( -1.000000000000000000, 0.000000000000000000, 0.000000000000000000 ) ) ;
#214 = PRESENTATION_STYLE_ASSIGNMENT (( #240 ) ) ;
#215 = EDGE_LOOP ( 'NONE', ( #49, #353, #3, #237 ) ) ;
#216 = CARTESIAN_POINT ( 'NONE',  ( 0.000000000000000000, 0.09299999999999980504, -0.01560000000000003224 ) ) ;
#217 =( NAMED_UNIT ( * ) PLANE_ANGLE_UNIT ( ) SI_UNIT ( $, .RADIAN. ) );
#218 = PRODUCT_RELATED_PRODUCT_CATEGORY ( 'part', '', ( #154 ) ) ;
#219 = UNCERTAINTY_MEASURE_WITH_UNIT (LENGTH_MEASURE( 1.000000000000000082E-05 ), #173, 'distance_accuracy_value', 'NONE');
#220 = CONICAL_SURFACE ( 'NONE', #129, 0.01560000000000003224, 0.2617993877991500740 ) ;
#221 = VERTEX_POINT ( 'NONE', #216 ) ;
#222 = CYLINDRICAL_SURFACE ( 'NONE', #148, 0.01560000000000003224 ) ;
#223 = VERTEX_POINT ( 'NONE', #298 ) ;
#224 = DIRECTION ( 'NONE',  ( 0.000000000000000000, -1.000000000000000000, -0.000000000000000000 ) ) ;
#225 =( NAMED_UNIT ( * ) PLANE_ANGLE_UNIT ( ) SI_UNIT ( $, .RADIAN. ) );
#226 = AXIS2_PLACEMENT_3D ( 'NONE', #28, #137, #248 ) ;
#227 = ADVANCED_BREP_SHAPE_REPRESENTATION ( '84040', ( #14, #124, #6 ), #319 ) ;
#228 = CARTESIAN_POINT ( 'NONE',  ( 0.000000000000000000, 0.09299999999999980504, 0.000000000000000000 ) ) ;
#229 = PRESENTATION_LAYER_ASSIGNMENT (  '', '', ( #22 ) ) ;
#230 = DIRECTION ( 'NONE',  ( -2.543927709072191646E-17, 1.000000000000000000, -0.000000000000000000 ) ) ;
#231 = DIRECTION ( 'NONE',  ( 0.000000000000000000, 0.000000000000000000, -1.000000000000000000 ) ) ;
#232 = ADVANCED_FACE ( 'NONE', ( #100 ), #222, .T. ) ;
#233 = CARTESIAN_POINT ( 'NONE',  ( 0.01560000000000003224, 0.09299999999999980504, 1.910449006669875016E-18 ) ) ;
#234 = LENGTH_MEASURE_WITH_UNIT ( LENGTH_MEASURE( 0.02539999999999999897 ), #88 );
#235 = DIRECTION ( 'NONE',  ( -2.543927709072191646E-17, 1.000000000000000000, -0.000000000000000000 ) ) ;
#236 = PRESENTATION_LAYER_ASSIGNMENT (  '', '', ( #71 ) ) ;
#237 = ORIENTED_EDGE ( 'NONE', *, *, #42, .F. ) ;
#238 = PRESENTATION_STYLE_ASSIGNMENT (( #156 ) ) ;
#239 = ORIENTED_EDGE ( 'NONE', *, *, #252, .T. ) ;
#240 = SURFACE_STYLE_USAGE ( .BOTH. , #99 ) ;
#241 = CIRCLE ( 'NONE', #226, 0.01560000000000003224 ) ;
#242 = MECHANICAL_DESIGN_GEOMETRIC_PRESENTATION_REPRESENTATION (  '', ( #71 ), #268 ) ;
#243 = VERTEX_POINT ( 'NONE', #269 ) ;
#244 = FACE_OUTER_BOUND ( 'NONE', #278, .T. ) ;
#245 = EDGE_CURVE ( 'NONE', #243, #351, #206, .T. ) ;
#246 = ORIENTED_EDGE ( 'NONE', *, *, #245, .F. ) ;
#247 = CARTESIAN_POINT ( 'NONE',  ( -1.038650980237742015E-17, 0.5012863583480339225, 0.000000000000000000 ) ) ;
#248 = DIRECTION ( 'NONE',  ( -1.000000000000000000, 0.000000000000000000, 0.000000000000000000 ) ) ;
#249 = PRODUCT_DEFINITION_CONTEXT ( 'detailed design', #197, 'design' ) ;
#250 = SURFACE_SIDE_STYLE ('',( #326 ) ) ;
#251 = FACE_OUTER_BOUND ( 'NONE', #354, .T. ) ;
#252 = EDGE_CURVE ( 'NONE', #351, #223, #68, .T. ) ;
#253 = COLOUR_RGB ( '',1.000000000000000000, 0.000000000000000000, 0.000000000000000000 ) ;
#254 = AXIS2_PLACEMENT_3D ( 'NONE', #247, #209, #321 ) ;
#255 = SURFACE_SIDE_STYLE ('',( #199 ) ) ;
#256 = FACE_OUTER_BOUND ( 'NONE', #210, .T. ) ;
#257 = UNCERTAINTY_MEASURE_WITH_UNIT (LENGTH_MEASURE( 1.000000000000000082E-05 ), #147, 'distance_accuracy_value', 'NONE');
#258 = DIRECTION ( 'NONE',  ( -1.000000000000000000, -2.543927709072191337E-17, 0.000000000000000000 ) ) ;
#259 = AXIS2_PLACEMENT_3D ( 'NONE', #126, #190, #213 ) ;
#260 = EDGE_CURVE ( 'NONE', #277, #221, #122, .T. ) ;
#261 = EDGE_LOOP ( 'NONE', ( #322, #25, #132, #52 ) ) ;
#262 =( CONVERSION_BASED_UNIT ( 'INCH', #234 ) LENGTH_UNIT ( ) NAMED_UNIT ( #263 ) );
#263 = DIMENSIONAL_EXPONENTS ( 1.000000000000000000, 0.000000000000000000, 0.000000000000000000, 0.000000000000000000, 0.000000000000000000, 0.000000000000000000, 0.000000000000000000 ) ;
#264 =( CONVERSION_BASED_UNIT ( 'INCH', #39 ) LENGTH_UNIT ( ) NAMED_UNIT ( #335 ) );
#265 = ADVANCED_FACE ( 'NONE', ( #1 ), #358, .T. ) ;
#266 = FACE_OUTER_BOUND ( 'NONE', #261, .T. ) ;
#267 = ORIENTED_EDGE ( 'NONE', *, *, #302, .T. ) ;
#268 =( GEOMETRIC_REPRESENTATION_CONTEXT ( 3 ) GLOBAL_UNCERTAINTY_ASSIGNED_CONTEXT ( ( #257 ) ) GLOBAL_UNIT_ASSIGNED_CONTEXT ( ( #147, #347, #89 ) ) REPRESENTATION_CONTEXT ( 'NONE', 'WORKASPACE' ) );
#269 = CARTESIAN_POINT ( 'NONE',  ( 0.1250000000000000278, 0.5012863583480339225, 1.530808498934191817E-17 ) ) ;
#270 = FILL_AREA_STYLE ('',( #205 ) ) ;
#271 = DIRECTION ( 'NONE',  ( 0.000000000000000000, 1.000000000000000000, 0.000000000000000000 ) ) ;
#272 = FILL_AREA_STYLE ('',( #299 ) ) ;
#273 =( CONVERSION_BASED_UNIT ( 'INCH', #352 ) LENGTH_UNIT ( ) NAMED_UNIT ( #314 ) );
#274 = DIRECTION ( 'NONE',  ( -2.543927709072191337E-17, 1.000000000000000000, -0.000000000000000000 ) ) ;
#275 = PRESENTATION_LAYER_ASSIGNMENT (  '', '', ( #208 ) ) ;
#276 = AXIS2_PLACEMENT_3D ( 'NONE', #150, #92, #317 ) ;
#277 = VERTEX_POINT ( 'NONE', #101 ) ;
#278 = EDGE_LOOP ( 'NONE', ( #246, #267, #102, #172 ) ) ;
#279 = DIRECTION ( 'NONE',  ( -0.2588190451025213501, 0.9659258262890682012, 0.000000000000000000 ) ) ;
#280 = DIRECTION ( 'NONE',  ( 0.000000000000000000, 0.000000000000000000, -1.000000000000000000 ) ) ;
#281 = AXIS2_PLACEMENT_3D ( 'NONE', #153, #188, #159 ) ;
#282 = DIMENSIONAL_EXPONENTS ( 1.000000000000000000, 0.000000000000000000, 0.000000000000000000, 0.000000000000000000, 0.000000000000000000, 0.000000000000000000, 0.000000000000000000 ) ;
#283 =( CONVERSION_BASED_UNIT ( 'INCH', #331 ) LENGTH_UNIT ( ) NAMED_UNIT ( #282 ) );
#284 = PRESENTATION_LAYER_ASSIGNMENT (  '', '', ( #86 ) ) ;
#285 = DIRECTION ( 'NONE',  ( 2.543927709072191337E-17, -1.000000000000000000, 0.000000000000000000 ) ) ;
#286 = PLANE ( 'NONE',  #193 ) ;
#287 = EDGE_LOOP ( 'NONE', ( #161, #292, #81, #166 ) ) ;
#288 = CARTESIAN_POINT ( 'NONE',  ( -1.038650980237742015E-17, 0.5012863583480339225, 0.000000000000000000 ) ) ;
#289 = VECTOR ( 'NONE', #16, 39.37007874015747433 ) ;
#290 = AXIS2_PLACEMENT_3D ( 'NONE', #46, #77, #280 ) ;
#291 = EDGE_CURVE ( 'NONE', #163, #158, #340, .T. ) ;
#292 = ORIENTED_EDGE ( 'NONE', *, *, #260, .T. ) ;
#293 = SURFACE_SIDE_STYLE ('',( #4 ) ) ;
#294 = CARTESIAN_POINT ( 'NONE',  ( 0.000000000000000000, 0.000000000000000000, 0.000000000000000000 ) ) ;
#295 = ORIENTED_EDGE ( 'NONE', *, *, #260, .F. ) ;
#296 = AXIS2_PLACEMENT_3D ( 'NONE', #90, #230, #9 ) ;
#297 =( NAMED_UNIT ( * ) SI_UNIT ( $, .STERADIAN. ) SOLID_ANGLE_UNIT ( ) );
#298 = CARTESIAN_POINT ( 'NONE',  ( -0.1250000000000001388, 2.500000000000000000, 0.000000000000000000 ) ) ;
#299 = FILL_AREA_STYLE_COLOUR ( '', #48 ) ;
#300 = ORIENTED_EDGE ( 'NONE', *, *, #291, .T. ) ;
#301 = CARTESIAN_POINT ( 'NONE',  ( 0.000000000000000000, 0.09299999999999980504, 0.000000000000000000 ) ) ;
#302 = EDGE_CURVE ( 'NONE', #243, #325, #61, .T. ) ;
#303 =( LENGTH_UNIT ( ) NAMED_UNIT ( * ) SI_UNIT ( $, .METRE. ) );
#304 = CARTESIAN_POINT ( 'NONE',  ( 0.000000000000000000, 0.000000000000000000, 0.000000000000000000 ) ) ;
#305 = MECHANICAL_DESIGN_GEOMETRIC_PRESENTATION_REPRESENTATION (  '', ( #208 ), #169 ) ;
#306 = CARTESIAN_POINT ( 'NONE',  ( 0.000000000000000000, 0.09299999999999980504, 0.000000000000000000 ) ) ;
#307 =( NAMED_UNIT ( * ) SI_UNIT ( $, .STERADIAN. ) SOLID_ANGLE_UNIT ( ) );
#308 = UNCERTAINTY_MEASURE_WITH_UNIT (LENGTH_MEASURE( 1.000000000000000082E-05 ), #262, 'distance_accuracy_value', 'NONE');
#309 = CARTESIAN_POINT ( 'NONE',  ( 0.000000000000000000, 0.000000000000000000, -0.01560000000000003224 ) ) ;
#310 = DIRECTION ( 'NONE',  ( -0.000000000000000000, -1.000000000000000000, -0.000000000000000000 ) ) ;
#311 =( NAMED_UNIT ( * ) PLANE_ANGLE_UNIT ( ) SI_UNIT ( $, .RADIAN. ) );
#312 = CARTESIAN_POINT ( 'NONE',  ( 0.000000000000000000, 0.09299999999999980504, 0.000000000000000000 ) ) ;
#313 = SURFACE_STYLE_USAGE ( .BOTH. , #55 ) ;
#314 = DIMENSIONAL_EXPONENTS ( 1.000000000000000000, 0.000000000000000000, 0.000000000000000000, 0.000000000000000000, 0.000000000000000000, 0.000000000000000000, 0.000000000000000000 ) ;
#315 = CIRCLE ( 'NONE', #70, 0.01560000000000003224 ) ;
#316 = PRESENTATION_STYLE_ASSIGNMENT (( #138 ) ) ;
#317 = DIRECTION ( 'NONE',  ( -1.000000000000000000, 0.000000000000000000, 0.000000000000000000 ) ) ;
#318 =( GEOMETRIC_REPRESENTATION_CONTEXT ( 3 ) GLOBAL_UNCERTAINTY_ASSIGNED_CONTEXT ( ( #219 ) ) GLOBAL_UNIT_ASSIGNED_CONTEXT ( ( #173, #336, #297 ) ) REPRESENTATION_CONTEXT ( 'NONE', 'WORKASPACE' ) );
#319 =( GEOMETRIC_REPRESENTATION_CONTEXT ( 3 ) GLOBAL_UNCERTAINTY_ASSIGNED_CONTEXT ( ( #108 ) ) GLOBAL_UNIT_ASSIGNED_CONTEXT ( ( #283, #225, #139 ) ) REPRESENTATION_CONTEXT ( 'NONE', 'WORKASPACE' ) );
#320 = EDGE_CURVE ( 'NONE', #198, #359, #80, .T. ) ;
#321 = DIRECTION ( 'NONE',  ( -1.000000000000000000, 0.000000000000000000, 0.000000000000000000 ) ) ;
#322 = ORIENTED_EDGE ( 'NONE', *, *, #180, .T. ) ;
#323 = MECHANICAL_DESIGN_GEOMETRIC_PRESENTATION_REPRESENTATION (  '', ( #22 ), #128 ) ;
#324 = DIRECTION ( 'NONE',  ( 0.000000000000000000, 0.000000000000000000, 1.000000000000000000 ) ) ;
#325 = VERTEX_POINT ( 'NONE', #30 ) ;
#326 = SURFACE_STYLE_FILL_AREA ( #31 ) ;
#327 =( NAMED_UNIT ( * ) SI_UNIT ( $, .STERADIAN. ) SOLID_ANGLE_UNIT ( ) );
#328 = CARTESIAN_POINT ( 'NONE',  ( 0.000000000000000000, 0.000000000000000000, 0.000000000000000000 ) ) ;
#329 = DIRECTION ( 'NONE',  ( 0.000000000000000000, -0.000000000000000000, 1.000000000000000000 ) ) ;
#330 = ADVANCED_FACE ( 'NONE', ( #107 ), #220, .T. ) ;
#331 = LENGTH_MEASURE_WITH_UNIT ( LENGTH_MEASURE( 0.02539999999999999897 ), #57 );
#332 = ORIENTED_EDGE ( 'NONE', *, *, #180, .F. ) ;
#333 = DIRECTION ( 'NONE',  ( 0.000000000000000000, 0.000000000000000000, -1.000000000000000000 ) ) ;
#334 = AXIS2_PLACEMENT_3D ( 'NONE', #288, #149, #179 ) ;
#335 = DIMENSIONAL_EXPONENTS ( 1.000000000000000000, 0.000000000000000000, 0.000000000000000000, 0.000000000000000000, 0.000000000000000000, 0.000000000000000000, 0.000000000000000000 ) ;
#336 =( NAMED_UNIT ( * ) PLANE_ANGLE_UNIT ( ) SI_UNIT ( $, .RADIAN. ) );
#337 = FACE_OUTER_BOUND ( 'NONE', #19, .T. ) ;
#338 = CARTESIAN_POINT ( 'NONE',  ( 0.1250000000000000000, 2.500000000000000000, 0.000000000000000000 ) ) ;
#339 = PRESENTATION_LAYER_ASSIGNMENT (  '', '', ( #176 ) ) ;
#340 = CIRCLE ( 'NONE', #112, 0.01560000000000003224 ) ;
#341 = DIRECTION ( 'NONE',  ( -2.543927709072191646E-17, 1.000000000000000000, -0.000000000000000000 ) ) ;
#342 = PRESENTATION_STYLE_ASSIGNMENT (( #152 ) ) ;
#343 = PLANE ( 'NONE',  #97 ) ;
#344 = PRODUCT_DEFINITION_SHAPE ( 'NONE', 'NONE',  #349 ) ;
#345 = DIRECTION ( 'NONE',  ( -0.000000000000000000, -1.000000000000000000, -0.000000000000000000 ) ) ;
#346 = DIRECTION ( 'NONE',  ( -0.000000000000000000, -1.000000000000000000, -0.000000000000000000 ) ) ;
#347 =( NAMED_UNIT ( * ) PLANE_ANGLE_UNIT ( ) SI_UNIT ( $, .RADIAN. ) );
#348 = CLOSED_SHELL ( 'NONE', ( #75, #330, #116, #113, #191, #127 ) ) ;
#349 = PRODUCT_DEFINITION ( 'UNKNOWN', '', #212, #249 ) ;
#350 = DIRECTION ( 'NONE',  ( -1.000000000000000000, 0.000000000000000000, 0.000000000000000000 ) ) ;
#351 = VERTEX_POINT ( 'NONE', #135 ) ;
#352 = LENGTH_MEASURE_WITH_UNIT ( LENGTH_MEASURE( 0.02539999999999999897 ), #23 );
#353 = ORIENTED_EDGE ( 'NONE', *, *, #91, .T. ) ;
#354 = EDGE_LOOP ( 'NONE', ( #18, #69 ) ) ;
#355 = COLOUR_RGB ( '',1.000000000000000000, 0.000000000000000000, 0.000000000000000000 ) ;
#356 = COLOUR_RGB ( '',1.000000000000000000, 0.000000000000000000, 0.000000000000000000 ) ;
#357 = APPLICATION_PROTOCOL_DEFINITION ( 'draft international standard', 'automotive_design', 1998, #197 ) ;
#358 = CYLINDRICAL_SURFACE ( 'NONE', #11, 0.01560000000000003224 ) ;
#359 = VERTEX_POINT ( 'NONE', #60 ) ;
ENDSEC;
END-ISO-10303-21;
