ISO-10303-21;
HEADER;
FILE_DESCRIPTION (( 'STEP AP214' ),
    '1' );
FILE_NAME ('Micro_SBMM-040-220X.STEP',
    '2021-09-02T17:09:18',
    ( '' ),
    ( '' ),
    'SwSTEP 2.0',
    'SolidWorks 2020',
    '' );
FILE_SCHEMA (( 'AUTOMOTIVE_DESIGN' ));
ENDSEC;

DATA;
#1 = CARTESIAN_POINT ( 'NONE',  ( 0.0000000000000000000, 0.0000000000000000000, 0.1368357679160022988 ) ) ;
#2 = DIRECTION ( 'NONE',  ( -0.0000000000000000000, -0.0000000000000000000, -1.000000000000000000 ) ) ;
#3 = ORIENTED_EDGE ( 'NONE', *, *, #61, .F. ) ;
#4 = AXIS2_PLACEMENT_3D ( 'NONE', #270, #151, #156 ) ;
#5 = EDGE_CURVE ( 'NONE', #301, #53, #294, .T. ) ;
#6 = ORIENTED_EDGE ( 'NONE', *, *, #278, .F. ) ;
#7 = CARTESIAN_POINT ( 'NONE',  ( 0.1181100000000000344, 1.446430334472939084E-17, 2.937755999999999368 ) ) ;
#8 = PRESENTATION_LAYER_ASSIGNMENT (  '', '', ( #339 ) ) ;
#9 = ORIENTED_EDGE ( 'NONE', *, *, #170, .F. ) ;
#10 = CIRCLE ( 'NONE', #95, 0.1181100000000000344 ) ;
#11 = PRESENTATION_STYLE_ASSIGNMENT (( #154 ) ) ;
#12 = ORIENTED_EDGE ( 'NONE', *, *, #170, .T. ) ;
#13 = CIRCLE ( 'NONE', #4, 0.05314949999999990515 ) ;
#14 = ORIENTED_EDGE ( 'NONE', *, *, #319, .F. ) ;
#15 = EDGE_CURVE ( 'NONE', #182, #50, #245, .T. ) ;
#16 = DIRECTION ( 'NONE',  ( 0.0000000000000000000, 0.0000000000000000000, 1.000000000000000000 ) ) ;
#17 = VECTOR ( 'NONE', #115, 39.37007874015748854 ) ;
#18 = DIRECTION ( 'NONE',  ( 1.000000000000000000, 0.0000000000000000000, 0.0000000000000000000 ) ) ;
#19 = LINE ( 'NONE', #147, #240 ) ;
#20 = DIRECTION ( 'NONE',  ( -1.000000000000000000, 0.0000000000000000000, 0.0000000000000000000 ) ) ;
#21 = CARTESIAN_POINT ( 'NONE',  ( 0.05314949999999990515, 0.0000000000000000000, 0.7874019999999999353 ) ) ;
#22 = AXIS2_PLACEMENT_3D ( 'NONE', #87, #175, #46 ) ;
#23 = FACE_OUTER_BOUND ( 'NONE', #129, .T. ) ;
#24 = PRODUCT_DEFINITION_CONTEXT ( 'detailed design', #235, 'design' ) ;
#25 = CONICAL_SURFACE ( 'NONE', #212, 0.1031099999999991745, 0.7853981633974500554 ) ;
#26 = VERTEX_POINT ( 'NONE', #165 ) ;
#27 = DIRECTION ( 'NONE',  ( -0.0000000000000000000, -0.0000000000000000000, -1.000000000000000000 ) ) ;
#28 = ORIENTED_EDGE ( 'NONE', *, *, #37, .T. ) ;
#29 = ORIENTED_EDGE ( 'NONE', *, *, #202, .T. ) ;
#30 = CARTESIAN_POINT ( 'NONE',  ( 0.1031099999999991745, 1.354581824536882559E-17, 2.952755999999999936 ) ) ;
#31 = ORIENTED_EDGE ( 'NONE', *, *, #300, .F. ) ;
#32 = EDGE_LOOP ( 'NONE', ( #103, #274, #287, #158 ) ) ;
#33 = ADVANCED_FACE ( 'NONE', ( #308 ), #25, .T. ) ;
#34 = DIRECTION ( 'NONE',  ( 0.0000000000000000000, 0.0000000000000000000, -1.000000000000000000 ) ) ;
#35 = DIRECTION ( 'NONE',  ( -1.000000000000000000, 0.0000000000000000000, 0.0000000000000000000 ) ) ;
#36 = AXIS2_PLACEMENT_3D ( 'NONE', #310, #60, #173 ) ;
#37 = EDGE_CURVE ( 'NONE', #271, #340, #171, .T. ) ;
#38 = CARTESIAN_POINT ( 'NONE',  ( -0.05314949999999998842, 0.0000000000000000000, 0.1368357679160022988 ) ) ;
#39 = CARTESIAN_POINT ( 'NONE',  ( 0.0000000000000000000, 0.0000000000000000000, 1.417323000000000333 ) ) ;
#40 = FACE_OUTER_BOUND ( 'NONE', #77, .T. ) ;
#41 = FACE_OUTER_BOUND ( 'NONE', #321, .T. ) ;
#42 = DIRECTION ( 'NONE',  ( 1.000000000000000000, 0.0000000000000000000, 0.0000000000000000000 ) ) ;
#43 = MANIFOLD_SOLID_BREP ( 'Cut-Revolve3', #122 ) ;
#44 = DIRECTION ( 'NONE',  ( -0.0000000000000000000, -0.0000000000000000000, -1.000000000000000000 ) ) ;
#45 = DIRECTION ( 'NONE',  ( 0.7071067811865486830, 8.659560562354947649E-17, -0.7071067811865462405 ) ) ;
#46 = DIRECTION ( 'NONE',  ( -1.000000000000000000, 0.0000000000000000000, 0.0000000000000000000 ) ) ;
#47 = ORIENTED_EDGE ( 'NONE', *, *, #163, .T. ) ;
#48 = ORIENTED_EDGE ( 'NONE', *, *, #15, .F. ) ;
#49 = AXIS2_PLACEMENT_3D ( 'NONE', #311, #174, #42 ) ;
#50 = VERTEX_POINT ( 'NONE', #282 ) ;
#51 = DIRECTION ( 'NONE',  ( 0.0000000000000000000, 1.000000000000000000, 0.0000000000000000000 ) ) ;
#52 = ORIENTED_EDGE ( 'NONE', *, *, #318, .F. ) ;
#53 = VERTEX_POINT ( 'NONE', #304 ) ;
#54 = CARTESIAN_POINT ( 'NONE',  ( 0.0000000000000000000, 0.0000000000000000000, 2.952755999999999936 ) ) ;
#55 = AXIS2_PLACEMENT_3D ( 'NONE', #78, #295, #127 ) ;
#56 = DIRECTION ( 'NONE',  ( 0.0000000000000000000, 0.0000000000000000000, 1.000000000000000000 ) ) ;
#57 = CARTESIAN_POINT ( 'NONE',  ( -0.05314949999999995373, 0.0000000000000000000, 0.0000000000000000000 ) ) ;
#58 = FILL_AREA_STYLE_COLOUR ( '', #172 ) ;
#59 = SURFACE_STYLE_USAGE ( .BOTH. , #166 ) ;
#60 = DIRECTION ( 'NONE',  ( -0.0000000000000000000, -0.0000000000000000000, -1.000000000000000000 ) ) ;
#61 = EDGE_CURVE ( 'NONE', #26, #213, #94, .T. ) ;
#62 = CIRCLE ( 'NONE', #269, 0.1031099999999991745 ) ;
#63 = DIRECTION ( 'NONE',  ( 0.0000000000000000000, 0.0000000000000000000, 1.000000000000000000 ) ) ;
#64 = CARTESIAN_POINT ( 'NONE',  ( 0.1181100000000000344, 1.446430334472939084E-17, 2.952755999999999936 ) ) ;
#65 = CARTESIAN_POINT ( 'NONE',  ( 0.0000000000000000000, 0.0000000000000000000, 0.0000000000000000000 ) ) ;
#66 = CARTESIAN_POINT ( 'NONE',  ( 0.0000000000000000000, 0.05314949999999997454, 0.1368357679160022988 ) ) ;
#67 = CIRCLE ( 'NONE', #275, 0.07873999999999996280 ) ;
#68 =( CONVERSION_BASED_UNIT ( 'INCH', #320 ) LENGTH_UNIT ( ) NAMED_UNIT ( #121 ) );
#69 = ADVANCED_FACE ( 'NONE', ( #40 ), #332, .T. ) ;
#70 = ADVANCED_FACE ( 'NONE', ( #111 ), #306, .T. ) ;
#71 = ORIENTED_EDGE ( 'NONE', *, *, #278, .T. ) ;
#72 = ORIENTED_EDGE ( 'NONE', *, *, #259, .F. ) ;
#73 = AXIS2_PLACEMENT_3D ( 'NONE', #217, #135, #106 ) ;
#74 = APPLICATION_PROTOCOL_DEFINITION ( 'draft international standard', 'automotive_design', 1998, #197 ) ;
#75 = ORIENTED_EDGE ( 'NONE', *, *, #319, .T. ) ;
#76 = DIRECTION ( 'NONE',  ( -1.000000000000000000, 0.0000000000000000000, 0.0000000000000000000 ) ) ;
#77 = EDGE_LOOP ( 'NONE', ( #52, #293, #241, #322 ) ) ;
#78 = CARTESIAN_POINT ( 'NONE',  ( 0.0000000000000000000, 0.0000000000000000000, 0.1368357679160022988 ) ) ;
#79 = VERTEX_POINT ( 'NONE', #38 ) ;
#80 = DIRECTION ( 'NONE',  ( 0.0000000000000000000, 0.0000000000000000000, 1.000000000000000000 ) ) ;
#81 = CARTESIAN_POINT ( 'NONE',  ( 0.0000000000000000000, 0.0000000000000000000, 0.07874000000000000443 ) ) ;
#82 = EDGE_CURVE ( 'NONE', #155, #79, #334, .T. ) ;
#83 = CIRCLE ( 'NONE', #327, 0.05314949999999998842 ) ;
#84 = LENGTH_MEASURE_WITH_UNIT ( LENGTH_MEASURE( 0.02539999999999999897 ), #140 );
#85 =( GEOMETRIC_REPRESENTATION_CONTEXT ( 3 ) GLOBAL_UNCERTAINTY_ASSIGNED_CONTEXT ( ( #186 ) ) GLOBAL_UNIT_ASSIGNED_CONTEXT ( ( #214, #132, #323 ) ) REPRESENTATION_CONTEXT ( 'NONE', 'WORKASPACE' ) );
#86 = EDGE_CURVE ( 'NONE', #53, #182, #336, .T. ) ;
#87 = CARTESIAN_POINT ( 'NONE',  ( 0.0000000000000000000, 0.0000000000000000000, 2.952755999999999936 ) ) ;
#88 = FACE_OUTER_BOUND ( 'NONE', #180, .T. ) ;
#89 = DIRECTION ( 'NONE',  ( 1.000000000000000000, 0.0000000000000000000, 0.0000000000000000000 ) ) ;
#90 = PRODUCT_RELATED_PRODUCT_CATEGORY ( 'part', '', ( #220 ) ) ;
#91 = EDGE_CURVE ( 'NONE', #340, #271, #62, .T. ) ;
#92 = DIRECTION ( 'NONE',  ( -1.000000000000000000, 0.0000000000000000000, 0.0000000000000000000 ) ) ;
#93 = CARTESIAN_POINT ( 'NONE',  ( 0.0000000000000000000, 0.0000000000000000000, 0.07874000000000000443 ) ) ;
#94 = CIRCLE ( 'NONE', #143, 0.07873999999999999055 ) ;
#95 = AXIS2_PLACEMENT_3D ( 'NONE', #260, #317, #114 ) ;
#96 = ORIENTED_EDGE ( 'NONE', *, *, #86, .F. ) ;
#97 =( LENGTH_UNIT ( ) NAMED_UNIT ( * ) SI_UNIT ( $, .METRE. ) );
#98 = EDGE_LOOP ( 'NONE', ( #296, #232, #162, #211 ) ) ;
#99 = CARTESIAN_POINT ( 'NONE',  ( 0.0000000000000000000, 0.0000000000000000000, 0.1368357679160022988 ) ) ;
#100 = ORIENTED_EDGE ( 'NONE', *, *, #82, .F. ) ;
#101 = EDGE_CURVE ( 'NONE', #26, #79, #261, .T. ) ;
#102 = DIRECTION ( 'NONE',  ( -1.000000000000000000, 0.0000000000000000000, 0.0000000000000000000 ) ) ;
#103 = ORIENTED_EDGE ( 'NONE', *, *, #218, .F. ) ;
#104 = PRESENTATION_LAYER_ASSIGNMENT (  '', '', ( #291 ) ) ;
#105 = EDGE_CURVE ( 'NONE', #160, #213, #67, .T. ) ;
#106 = DIRECTION ( 'NONE',  ( 1.000000000000000000, 0.0000000000000000000, 0.0000000000000000000 ) ) ;
#107 = CARTESIAN_POINT ( 'NONE',  ( 0.0000000000000000000, 0.0000000000000000000, 2.952755999999999936 ) ) ;
#108 = AXIS2_PLACEMENT_3D ( 'NONE', #285, #262, #20 ) ;
#109 = AXIS2_PLACEMENT_3D ( 'NONE', #191, #164, #333 ) ;
#110 = DIRECTION ( 'NONE',  ( 1.000000000000000000, 1.224646799147353207E-16, -0.0000000000000000000 ) ) ;
#111 = FACE_OUTER_BOUND ( 'NONE', #32, .T. ) ;
#112 = APPLICATION_PROTOCOL_DEFINITION ( 'draft international standard', 'automotive_design', 1998, #235 ) ;
#113 = DIRECTION ( 'NONE',  ( -1.224646799147352961E-16, 1.000000000000000000, 0.0000000000000000000 ) ) ;
#114 = DIRECTION ( 'NONE',  ( 1.000000000000000000, 0.0000000000000000000, 0.0000000000000000000 ) ) ;
#115 = DIRECTION ( 'NONE',  ( -0.7071067811865486830, 0.0000000000000000000, -0.7071067811865462405 ) ) ;
#116 = EDGE_CURVE ( 'NONE', #50, #182, #10, .T. ) ;
#117 = CYLINDRICAL_SURFACE ( 'NONE', #128, 0.05314949999999995373 ) ;
#118 = LINE ( 'NONE', #64, #153 ) ;
#119 = AXIS2_PLACEMENT_3D ( 'NONE', #159, #187, #243 ) ;
#120 = LINE ( 'NONE', #207, #17 ) ;
#121 = DIMENSIONAL_EXPONENTS ( 1.000000000000000000, 0.0000000000000000000, 0.0000000000000000000, 0.0000000000000000000, 0.0000000000000000000, 0.0000000000000000000, 0.0000000000000000000 ) ;
#122 = CLOSED_SHELL ( 'NONE', ( #237, #168, #69, #33, #150, #70, #194, #190, #255, #265, #258 ) ) ;
#123 = SURFACE_SIDE_STYLE ('',( #184 ) ) ;
#124 = DIMENSIONAL_EXPONENTS ( 1.000000000000000000, 0.0000000000000000000, 0.0000000000000000000, 0.0000000000000000000, 0.0000000000000000000, 0.0000000000000000000, 0.0000000000000000000 ) ;
#125 =( GEOMETRIC_REPRESENTATION_CONTEXT ( 3 ) GLOBAL_UNCERTAINTY_ASSIGNED_CONTEXT ( ( #325 ) ) GLOBAL_UNIT_ASSIGNED_CONTEXT ( ( #138, #137, #169 ) ) REPRESENTATION_CONTEXT ( 'NONE', 'WORKASPACE' ) );
#126 = ORIENTED_EDGE ( 'NONE', *, *, #239, .T. ) ;
#127 = DIRECTION ( 'NONE',  ( -1.000000000000000000, 0.0000000000000000000, 0.0000000000000000000 ) ) ;
#128 = AXIS2_PLACEMENT_3D ( 'NONE', #65, #146, #92 ) ;
#129 = EDGE_LOOP ( 'NONE', ( #71, #133, #267, #189 ) ) ;
#130 =( LENGTH_UNIT ( ) NAMED_UNIT ( * ) SI_UNIT ( $, .METRE. ) );
#131 = EDGE_LOOP ( 'NONE', ( #9, #248, #244, #210, #225 ) ) ;
#132 =( NAMED_UNIT ( * ) PLANE_ANGLE_UNIT ( ) SI_UNIT ( $, .RADIAN. ) );
#133 = ORIENTED_EDGE ( 'NONE', *, *, #313, .T. ) ;
#134 = VECTOR ( 'NONE', #277, 39.37007874015748143 ) ;
#135 = DIRECTION ( 'NONE',  ( 0.0000000000000000000, 0.0000000000000000000, -1.000000000000000000 ) ) ;
#136 = AXIS2_PLACEMENT_3D ( 'NONE', #195, #303, #226 ) ;
#137 =( NAMED_UNIT ( * ) PLANE_ANGLE_UNIT ( ) SI_UNIT ( $, .RADIAN. ) );
#138 =( CONVERSION_BASED_UNIT ( 'INCH', #84 ) LENGTH_UNIT ( ) NAMED_UNIT ( #209 ) );
#139 = CONICAL_SURFACE ( 'NONE', #49, 0.1299209999999998422, 0.1027615830204128555 ) ;
#140 =( LENGTH_UNIT ( ) NAMED_UNIT ( * ) SI_UNIT ( $, .METRE. ) );
#141 = SURFACE_STYLE_FILL_AREA ( #222 ) ;
#142 = CARTESIAN_POINT ( 'NONE',  ( 0.0000000000000000000, 0.0000000000000000000, 0.07874000000000000443 ) ) ;
#143 = AXIS2_PLACEMENT_3D ( 'NONE', #142, #110, #113 ) ;
#144 = PLANE ( 'NONE',  #312 ) ;
#145 = FACE_OUTER_BOUND ( 'NONE', #252, .T. ) ;
#146 = DIRECTION ( 'NONE',  ( -0.0000000000000000000, -0.0000000000000000000, -1.000000000000000000 ) ) ;
#147 = CARTESIAN_POINT ( 'NONE',  ( 0.1299209999999998422, 0.0000000000000000000, 1.531854090909089194 ) ) ;
#148 = AXIS2_PLACEMENT_3D ( 'NONE', #1, #2, #102 ) ;
#149 = CARTESIAN_POINT ( 'NONE',  ( 0.0000000000000000000, 0.0000000000000000000, 2.952755999999999936 ) ) ;
#150 = ADVANCED_FACE ( 'NONE', ( #41 ), #283, .T. ) ;
#151 = DIRECTION ( 'NONE',  ( -0.0000000000000000000, -0.0000000000000000000, -1.000000000000000000 ) ) ;
#152 = EDGE_LOOP ( 'NONE', ( #3, #250, #75, #276 ) ) ;
#153 = VECTOR ( 'NONE', #44, 39.37007874015748143 ) ;
#154 = SURFACE_STYLE_USAGE ( .BOTH. , #123 ) ;
#155 = VERTEX_POINT ( 'NONE', #204 ) ;
#156 = DIRECTION ( 'NONE',  ( -1.000000000000000000, 0.0000000000000000000, 0.0000000000000000000 ) ) ;
#157 = VECTOR ( 'NONE', #45, 39.37007874015748854 ) ;
#158 = ORIENTED_EDGE ( 'NONE', *, *, #15, .T. ) ;
#159 = CARTESIAN_POINT ( 'NONE',  ( 0.0000000000000000000, 0.0000000000000000000, 0.7874019999999999353 ) ) ;
#160 = VERTEX_POINT ( 'NONE', #66 ) ;
#161 = AXIS2_PLACEMENT_3D ( 'NONE', #281, #16, #196 ) ;
#162 = ORIENTED_EDGE ( 'NONE', *, *, #202, .F. ) ;
#163 = EDGE_CURVE ( 'NONE', #185, #50, #19, .T. ) ;
#164 = DIRECTION ( 'NONE',  ( -0.0000000000000000000, -0.0000000000000000000, -1.000000000000000000 ) ) ;
#165 = CARTESIAN_POINT ( 'NONE',  ( 6.508936505128221412E-18, -0.05314949999999997454, 0.1368357679160022988 ) ) ;
#166 = SURFACE_SIDE_STYLE ('',( #141 ) ) ;
#167 = CONICAL_SURFACE ( 'NONE', #22, 0.1031099999999991745, 0.7853981633974500554 ) ;
#168 = ADVANCED_FACE ( 'NONE', ( #23 ), #341, .T. ) ;
#169 =( NAMED_UNIT ( * ) SI_UNIT ( $, .STERADIAN. ) SOLID_ANGLE_UNIT ( ) );
#170 = EDGE_CURVE ( 'NONE', #185, #246, #178, .T. ) ;
#171 = CIRCLE ( 'NONE', #161, 0.1031099999999991745 ) ;
#172 = COLOUR_RGB ( '',0.7921568627450980005, 0.8196078431372548767, 0.9333333333333333481 ) ;
#173 = DIRECTION ( 'NONE',  ( -1.000000000000000000, 0.0000000000000000000, 0.0000000000000000000 ) ) ;
#174 = DIRECTION ( 'NONE',  ( 0.0000000000000000000, 0.0000000000000000000, 1.000000000000000000 ) ) ;
#175 = DIRECTION ( 'NONE',  ( 0.0000000000000000000, 0.0000000000000000000, -1.000000000000000000 ) ) ;
#176 = LINE ( 'NONE', #289, #157 ) ;
#177 = EDGE_CURVE ( 'NONE', #155, #182, #345, .T. ) ;
#178 = LINE ( 'NONE', #208, #302 ) ;
#179 = PRODUCT_DEFINITION_FORMATION_WITH_SPECIFIED_SOURCE ( 'ANY', '', #220, .NOT_KNOWN. ) ;
#180 = EDGE_LOOP ( 'NONE', ( #326, #31, #47, #48 ) ) ;
#181 =( NAMED_UNIT ( * ) SI_UNIT ( $, .STERADIAN. ) SOLID_ANGLE_UNIT ( ) );
#182 = VERTEX_POINT ( 'NONE', #233 ) ;
#183 = PRODUCT_DEFINITION ( 'UNKNOWN', '', #179, #24 ) ;
#184 = SURFACE_STYLE_FILL_AREA ( #247 ) ;
#185 = VERTEX_POINT ( 'NONE', #21 ) ;
#186 = UNCERTAINTY_MEASURE_WITH_UNIT (LENGTH_MEASURE( 1.000000000000000082E-05 ), #214, 'distance_accuracy_value', 'NONE');
#187 = DIRECTION ( 'NONE',  ( -0.0000000000000000000, -0.0000000000000000000, -1.000000000000000000 ) ) ;
#188 = ORIENTED_EDGE ( 'NONE', *, *, #318, .T. ) ;
#189 = ORIENTED_EDGE ( 'NONE', *, *, #105, .F. ) ;
#190 = ADVANCED_FACE ( 'NONE', ( #236 ), #167, .T. ) ;
#191 = CARTESIAN_POINT ( 'NONE',  ( 0.0000000000000000000, 0.0000000000000000000, 0.1368357679160022988 ) ) ;
#192 = DIRECTION ( 'NONE',  ( -1.000000000000000000, 0.0000000000000000000, 0.0000000000000000000 ) ) ;
#193 = PRODUCT_CONTEXT ( 'NONE', #197, 'mechanical' ) ;
#194 = ADVANCED_FACE ( 'NONE', ( #145 ), #144, .T. ) ;
#195 = CARTESIAN_POINT ( 'NONE',  ( 0.0000000000000000000, 0.0000000000000000000, 0.0000000000000000000 ) ) ;
#196 = DIRECTION ( 'NONE',  ( 1.000000000000000000, 0.0000000000000000000, 0.0000000000000000000 ) ) ;
#197 = APPLICATION_CONTEXT ( 'automotive_design' ) ;
#198 = AXIS2_PLACEMENT_3D ( 'NONE', #315, #231, #18 ) ;
#199 = DIRECTION ( 'NONE',  ( 0.0000000000000000000, 0.0000000000000000000, 1.000000000000000000 ) ) ;
#200 = PRODUCT_DEFINITION_SHAPE ( 'NONE', 'NONE',  #183 ) ;
#201 = MECHANICAL_DESIGN_GEOMETRIC_PRESENTATION_REPRESENTATION (  '', ( #291 ), #249 ) ;
#202 = EDGE_CURVE ( 'NONE', #53, #301, #307, .T. ) ;
#203 = FACE_OUTER_BOUND ( 'NONE', #272, .T. ) ;
#204 = CARTESIAN_POINT ( 'NONE',  ( -0.05314949999999990515, 1.048661992492880112E-17, 0.7874019999999999353 ) ) ;
#205 = DIRECTION ( 'NONE',  ( -0.0000000000000000000, -0.0000000000000000000, -1.000000000000000000 ) ) ;
#206 = COLOUR_RGB ( '',0.7921568627450980005, 0.8196078431372548767, 0.9333333333333333481 ) ;
#207 = CARTESIAN_POINT ( 'NONE',  ( -0.1031099999999991745, 0.0000000000000000000, 2.952755999999999936 ) ) ;
#208 = CARTESIAN_POINT ( 'NONE',  ( 0.05314949999999995373, 6.508936505128219101E-18, 0.0000000000000000000 ) ) ;
#209 = DIMENSIONAL_EXPONENTS ( 1.000000000000000000, 0.0000000000000000000, 0.0000000000000000000, 0.0000000000000000000, 0.0000000000000000000, 0.0000000000000000000, 0.0000000000000000000 ) ;
#210 = ORIENTED_EDGE ( 'NONE', *, *, #101, .F. ) ;
#211 = ORIENTED_EDGE ( 'NONE', *, *, #239, .F. ) ;
#212 = AXIS2_PLACEMENT_3D ( 'NONE', #54, #34, #35 ) ;
#213 = VERTEX_POINT ( 'NONE', #257 ) ;
#214 =( CONVERSION_BASED_UNIT ( 'INCH', #292 ) LENGTH_UNIT ( ) NAMED_UNIT ( #124 ) );
#215 = EDGE_LOOP ( 'NONE', ( #72, #324, #126, #314 ) ) ;
#216 = DIRECTION ( 'NONE',  ( 1.000000000000000000, 0.0000000000000000000, 0.0000000000000000000 ) ) ;
#217 = CARTESIAN_POINT ( 'NONE',  ( 0.0000000000000000000, 0.0000000000000000000, 2.937755999999999368 ) ) ;
#218 = EDGE_CURVE ( 'NONE', #301, #50, #118, .T. ) ;
#219 = DIRECTION ( 'NONE',  ( -0.0000000000000000000, -0.0000000000000000000, -1.000000000000000000 ) ) ;
#220 = PRODUCT ( 'Micro_SBMM-040-220X', 'Micro_SBMM-040-220X', '', ( #193 ) ) ;
#221 = AXIS2_PLACEMENT_3D ( 'NONE', #335, #253, #223 ) ;
#222 = FILL_AREA_STYLE ('',( #58 ) ) ;
#223 = DIRECTION ( 'NONE',  ( 1.000000000000000000, 0.0000000000000000000, 0.0000000000000000000 ) ) ;
#224 = DIRECTION ( 'NONE',  ( -1.000000000000000000, 0.0000000000000000000, 0.0000000000000000000 ) ) ;
#225 = ORIENTED_EDGE ( 'NONE', *, *, #313, .F. ) ;
#226 = DIRECTION ( 'NONE',  ( 1.000000000000000000, 0.0000000000000000000, 0.0000000000000000000 ) ) ;
#227 = CARTESIAN_POINT ( 'NONE',  ( 0.0000000000000000000, 0.0000000000000000000, 2.952755999999999936 ) ) ;
#228 = VECTOR ( 'NONE', #331, 39.37007874015748143 ) ;
#229 = DIRECTION ( 'NONE',  ( 0.1025808190807222103, 0.0000000000000000000, 0.9947246732421630711 ) ) ;
#230 = CIRCLE ( 'NONE', #55, 0.05314949999999998842 ) ;
#231 = DIRECTION ( 'NONE',  ( 0.0000000000000000000, 0.0000000000000000000, -1.000000000000000000 ) ) ;
#232 = ORIENTED_EDGE ( 'NONE', *, *, #259, .T. ) ;
#233 = CARTESIAN_POINT ( 'NONE',  ( -0.1181100000000000344, 0.0000000000000000000, 1.417323000000000333 ) ) ;
#234 = DIRECTION ( 'NONE',  ( 1.000000000000000000, 0.0000000000000000000, -0.0000000000000000000 ) ) ;
#235 = APPLICATION_CONTEXT ( 'automotive_design' ) ;
#236 = FACE_OUTER_BOUND ( 'NONE', #215, .T. ) ;
#237 = ADVANCED_FACE ( 'NONE', ( #203 ), #343, .T. ) ;
#238 = FACE_OUTER_BOUND ( 'NONE', #152, .T. ) ;
#239 = EDGE_CURVE ( 'NONE', #271, #53, #120, .T. ) ;
#240 = VECTOR ( 'NONE', #229, 39.37007874015748143 ) ;
#241 = ORIENTED_EDGE ( 'NONE', *, *, #116, .F. ) ;
#242 = AXIS2_PLACEMENT_3D ( 'NONE', #273, #216, #51 ) ;
#243 = DIRECTION ( 'NONE',  ( -1.000000000000000000, 0.0000000000000000000, 0.0000000000000000000 ) ) ;
#244 = ORIENTED_EDGE ( 'NONE', *, *, #82, .T. ) ;
#245 = CIRCLE ( 'NONE', #330, 0.1181100000000000344 ) ;
#246 = VERTEX_POINT ( 'NONE', #256 ) ;
#247 = FILL_AREA_STYLE ('',( #266 ) ) ;
#248 = ORIENTED_EDGE ( 'NONE', *, *, #300, .T. ) ;
#249 =( GEOMETRIC_REPRESENTATION_CONTEXT ( 3 ) GLOBAL_UNCERTAINTY_ASSIGNED_CONTEXT ( ( #268 ) ) GLOBAL_UNIT_ASSIGNED_CONTEXT ( ( #68, #298, #181 ) ) REPRESENTATION_CONTEXT ( 'NONE', 'WORKASPACE' ) );
#250 = ORIENTED_EDGE ( 'NONE', *, *, #101, .T. ) ;
#251 = PRESENTATION_STYLE_ASSIGNMENT (( #59 ) ) ;
#252 = EDGE_LOOP ( 'NONE', ( #28, #299 ) ) ;
#253 = DIRECTION ( 'NONE',  ( 0.0000000000000000000, 0.0000000000000000000, 1.000000000000000000 ) ) ;
#254 = AXIS2_PLACEMENT_3D ( 'NONE', #227, #219, #224 ) ;
#255 = ADVANCED_FACE ( 'NONE', ( #88 ), #139, .T. ) ;
#256 = CARTESIAN_POINT ( 'NONE',  ( 0.05314949999999998842, 6.508936505128223723E-18, 0.1368357679160022988 ) ) ;
#257 = CARTESIAN_POINT ( 'NONE',  ( 0.0000000000000000000, 4.821434448243128484E-18, 1.707404996040164512E-17 ) ) ;
#258 = ADVANCED_FACE ( 'NONE', ( #288 ), #117, .T. ) ;
#259 = EDGE_CURVE ( 'NONE', #340, #301, #176, .T. ) ;
#260 = CARTESIAN_POINT ( 'NONE',  ( 0.0000000000000000000, 0.0000000000000000000, 1.417323000000000333 ) ) ;
#261 = CIRCLE ( 'NONE', #109, 0.05314949999999998842 ) ;
#262 = DIRECTION ( 'NONE',  ( -0.0000000000000000000, -0.0000000000000000000, -1.000000000000000000 ) ) ;
#263 = CIRCLE ( 'NONE', #119, 0.05314949999999990515 ) ;
#264 = SPHERICAL_SURFACE ( 'NONE', #242, 0.07873999999999999055 ) ;
#265 = ADVANCED_FACE ( 'NONE', ( #238 ), #264, .T. ) ;
#266 = FILL_AREA_STYLE_COLOUR ( '', #206 ) ;
#267 = ORIENTED_EDGE ( 'NONE', *, *, #61, .T. ) ;
#268 = UNCERTAINTY_MEASURE_WITH_UNIT (LENGTH_MEASURE( 1.000000000000000082E-05 ), #68, 'distance_accuracy_value', 'NONE');
#269 = AXIS2_PLACEMENT_3D ( 'NONE', #107, #80, #305 ) ;
#270 = CARTESIAN_POINT ( 'NONE',  ( 0.0000000000000000000, 0.0000000000000000000, 0.7874019999999999353 ) ) ;
#271 = VERTEX_POINT ( 'NONE', #328 ) ;
#272 = EDGE_LOOP ( 'NONE', ( #188, #12, #6, #14, #100 ) ) ;
#273 = CARTESIAN_POINT ( 'NONE',  ( 0.0000000000000000000, 0.0000000000000000000, 0.07874000000000000443 ) ) ;
#274 = ORIENTED_EDGE ( 'NONE', *, *, #5, .T. ) ;
#275 = AXIS2_PLACEMENT_3D ( 'NONE', #81, #192, #56 ) ;
#276 = ORIENTED_EDGE ( 'NONE', *, *, #105, .T. ) ;
#277 = DIRECTION ( 'NONE',  ( -0.0000000000000000000, -0.0000000000000000000, -1.000000000000000000 ) ) ;
#278 = EDGE_CURVE ( 'NONE', #160, #246, #286, .T. ) ;
#279 = SHAPE_DEFINITION_REPRESENTATION ( #200, #344 ) ;
#280 = CARTESIAN_POINT ( 'NONE',  ( -0.1181100000000000344, 0.0000000000000000000, 2.952755999999999936 ) ) ;
#281 = CARTESIAN_POINT ( 'NONE',  ( 0.0000000000000000000, 0.0000000000000000000, 2.952755999999999936 ) ) ;
#282 = CARTESIAN_POINT ( 'NONE',  ( 0.1181100000000000344, 1.446430334472939084E-17, 1.417323000000000333 ) ) ;
#283 = CYLINDRICAL_SURFACE ( 'NONE', #108, 0.1181100000000000344 ) ;
#284 = VECTOR ( 'NONE', #338, 39.37007874015748143 ) ;
#285 = CARTESIAN_POINT ( 'NONE',  ( 0.0000000000000000000, 0.0000000000000000000, 2.952755999999999936 ) ) ;
#286 = CIRCLE ( 'NONE', #148, 0.05314949999999998842 ) ;
#287 = ORIENTED_EDGE ( 'NONE', *, *, #86, .T. ) ;
#288 = FACE_OUTER_BOUND ( 'NONE', #131, .T. ) ;
#289 = CARTESIAN_POINT ( 'NONE',  ( 0.1031099999999991745, 1.262733314600825725E-17, 2.952755999999999936 ) ) ;
#290 = MECHANICAL_DESIGN_GEOMETRIC_PRESENTATION_REPRESENTATION (  '', ( #339 ), #125 ) ;
#291 = STYLED_ITEM ( 'NONE', ( #11 ), #344 ) ;
#292 = LENGTH_MEASURE_WITH_UNIT ( LENGTH_MEASURE( 0.02539999999999999897 ), #97 );
#293 = ORIENTED_EDGE ( 'NONE', *, *, #177, .T. ) ;
#294 = CIRCLE ( 'NONE', #73, 0.1181100000000000344 ) ;
#295 = DIRECTION ( 'NONE',  ( -0.0000000000000000000, -0.0000000000000000000, -1.000000000000000000 ) ) ;
#296 = ORIENTED_EDGE ( 'NONE', *, *, #91, .F. ) ;
#297 = ORIENTED_EDGE ( 'NONE', *, *, #218, .T. ) ;
#298 =( NAMED_UNIT ( * ) PLANE_ANGLE_UNIT ( ) SI_UNIT ( $, .RADIAN. ) );
#299 = ORIENTED_EDGE ( 'NONE', *, *, #91, .T. ) ;
#300 = EDGE_CURVE ( 'NONE', #185, #155, #263, .T. ) ;
#301 = VERTEX_POINT ( 'NONE', #7 ) ;
#302 = VECTOR ( 'NONE', #205, 39.37007874015748143 ) ;
#303 = DIRECTION ( 'NONE',  ( 0.0000000000000000000, 0.0000000000000000000, 1.000000000000000000 ) ) ;
#304 = CARTESIAN_POINT ( 'NONE',  ( -0.1181100000000000344, 0.0000000000000000000, 2.937755999999999368 ) ) ;
#305 = DIRECTION ( 'NONE',  ( 1.000000000000000000, 0.0000000000000000000, 0.0000000000000000000 ) ) ;
#306 = CYLINDRICAL_SURFACE ( 'NONE', #254, 0.1181100000000000344 ) ;
#307 = CIRCLE ( 'NONE', #198, 0.1181100000000000344 ) ;
#308 = FACE_OUTER_BOUND ( 'NONE', #98, .T. ) ;
#309 = DIRECTION ( 'NONE',  ( 1.000000000000000000, 0.0000000000000000000, 0.0000000000000000000 ) ) ;
#310 = CARTESIAN_POINT ( 'NONE',  ( 0.0000000000000000000, 0.0000000000000000000, 0.0000000000000000000 ) ) ;
#311 = CARTESIAN_POINT ( 'NONE',  ( 0.0000000000000000000, 0.0000000000000000000, 1.531854090909089194 ) ) ;
#312 = AXIS2_PLACEMENT_3D ( 'NONE', #149, #63, #234 ) ;
#313 = EDGE_CURVE ( 'NONE', #246, #26, #83, .T. ) ;
#314 = ORIENTED_EDGE ( 'NONE', *, *, #5, .F. ) ;
#315 = CARTESIAN_POINT ( 'NONE',  ( 0.0000000000000000000, 0.0000000000000000000, 2.937755999999999368 ) ) ;
#316 = DIRECTION ( 'NONE',  ( 0.0000000000000000000, 1.000000000000000000, 0.0000000000000000000 ) ) ;
#317 = DIRECTION ( 'NONE',  ( 0.0000000000000000000, 0.0000000000000000000, 1.000000000000000000 ) ) ;
#318 = EDGE_CURVE ( 'NONE', #155, #185, #13, .T. ) ;
#319 = EDGE_CURVE ( 'NONE', #79, #160, #230, .T. ) ;
#320 = LENGTH_MEASURE_WITH_UNIT ( LENGTH_MEASURE( 0.02539999999999999897 ), #130 );
#321 = EDGE_LOOP ( 'NONE', ( #29, #297, #329, #96 ) ) ;
#322 = ORIENTED_EDGE ( 'NONE', *, *, #163, .F. ) ;
#323 =( NAMED_UNIT ( * ) SI_UNIT ( $, .STERADIAN. ) SOLID_ANGLE_UNIT ( ) );
#324 = ORIENTED_EDGE ( 'NONE', *, *, #37, .F. ) ;
#325 = UNCERTAINTY_MEASURE_WITH_UNIT (LENGTH_MEASURE( 1.000000000000000082E-05 ), #138, 'distance_accuracy_value', 'NONE');
#326 = ORIENTED_EDGE ( 'NONE', *, *, #177, .F. ) ;
#327 = AXIS2_PLACEMENT_3D ( 'NONE', #99, #27, #76 ) ;
#328 = CARTESIAN_POINT ( 'NONE',  ( -0.1031099999999991745, 0.0000000000000000000, 2.952755999999999936 ) ) ;
#329 = ORIENTED_EDGE ( 'NONE', *, *, #116, .T. ) ;
#330 = AXIS2_PLACEMENT_3D ( 'NONE', #39, #199, #309 ) ;
#331 = DIRECTION ( 'NONE',  ( -0.0000000000000000000, -0.0000000000000000000, -1.000000000000000000 ) ) ;
#332 = CONICAL_SURFACE ( 'NONE', #221, 0.1299209999999998422, 0.1027615830204128555 ) ;
#333 = DIRECTION ( 'NONE',  ( -1.000000000000000000, 0.0000000000000000000, 0.0000000000000000000 ) ) ;
#334 = LINE ( 'NONE', #57, #134 ) ;
#335 = CARTESIAN_POINT ( 'NONE',  ( 0.0000000000000000000, 0.0000000000000000000, 1.531854090909089194 ) ) ;
#336 = LINE ( 'NONE', #280, #228 ) ;
#337 = CARTESIAN_POINT ( 'NONE',  ( -0.1299209999999998422, 1.591073367920230651E-17, 1.531854090909089194 ) ) ;
#338 = DIRECTION ( 'NONE',  ( -0.1025808190807222103, 1.256252717411202019E-17, 0.9947246732421630711 ) ) ;
#339 = STYLED_ITEM ( 'NONE', ( #251 ), #43 ) ;
#340 = VERTEX_POINT ( 'NONE', #30 ) ;
#341 = SPHERICAL_SURFACE ( 'NONE', #342, 0.07873999999999999055 ) ;
#342 = AXIS2_PLACEMENT_3D ( 'NONE', #93, #89, #316 ) ;
#343 = CYLINDRICAL_SURFACE ( 'NONE', #36, 0.05314949999999995373 ) ;
#344 = ADVANCED_BREP_SHAPE_REPRESENTATION ( 'Micro_SBMM-040-220X', ( #43, #136 ), #85 ) ;
#345 = LINE ( 'NONE', #337, #284 ) ;
ENDSEC;
END-ISO-10303-21;
