ISO-10303-21;
HEADER;
FILE_DESCRIPTION (( 'STEP AP214' ),
    '1' );
FILE_NAME ('59473.STEP',
    '2023-07-24T15:47:49',
    ( '' ),
    ( '' ),
    'SwSTEP 2.0',
    'SolidWorks 2023',
    '' );
FILE_SCHEMA (( 'AUTOMOTIVE_DESIGN' ));
ENDSEC;

DATA;
#1 = CARTESIAN_POINT ( 'NONE',  ( 0.000000000000000000, 0.000000000000000000, 0.000000000000000000 ) ) ;
#2 = DIRECTION ( 'NONE',  ( -0.000000000000000000, -1.000000000000000000, -0.000000000000000000 ) ) ;
#3 = ADVANCED_FACE ( 'NONE', ( #123 ), #221, .F. ) ;
#4 = COLOUR_RGB ( '',1.000000000000000000, 0.000000000000000000, 0.000000000000000000 ) ;
#5 = DIRECTION ( 'NONE',  ( 0.000000000000000000, 0.000000000000000000, -1.000000000000000000 ) ) ;
#6 = SURFACE_STYLE_FILL_AREA ( #159 ) ;
#7 = DIRECTION ( 'NONE',  ( -0.000000000000000000, -1.000000000000000000, -0.000000000000000000 ) ) ;
#8 = MANIFOLD_SOLID_BREP ( 'Revolve - Cutting Edge', #79 ) ;
#9 = CARTESIAN_POINT ( 'NONE',  ( 10.00000000000000000, 89.00000000000000000, 1.224646799147353454E-15 ) ) ;
#10 = PRESENTATION_LAYER_ASSIGNMENT (  '', '', ( #168 ) ) ;
#11 =( GEOMETRIC_REPRESENTATION_CONTEXT ( 3 ) GLOBAL_UNCERTAINTY_ASSIGNED_CONTEXT ( ( #112 ) ) GLOBAL_UNIT_ASSIGNED_CONTEXT ( ( #266, #183, #245 ) ) REPRESENTATION_CONTEXT ( 'NONE', 'WORKASPACE' ) );
#12 = PRODUCT_CONTEXT ( 'NONE', #224, 'mechanical' ) ;
#13 = MECHANICAL_DESIGN_GEOMETRIC_PRESENTATION_REPRESENTATION (  '', ( #108 ), #11 ) ;
#14 = SURFACE_SIDE_STYLE ('',( #124 ) ) ;
#15 = CARTESIAN_POINT ( 'NONE',  ( 4.222248167218096493E-33, 30.00000000000000000, 0.000000000000000000 ) ) ;
#16 = SURFACE_STYLE_USAGE ( .BOTH. , #14 ) ;
#17 = VERTEX_POINT ( 'NONE', #47 ) ;
#18 = CIRCLE ( 'NONE', #185, 10.00000000000000178 ) ;
#19 = ORIENTED_EDGE ( 'NONE', *, *, #127, .T. ) ;
#20 = PRODUCT_RELATED_PRODUCT_CATEGORY ( 'part', '', ( #74 ) ) ;
#21 = ORIENTED_EDGE ( 'NONE', *, *, #254, .F. ) ;
#22 = CARTESIAN_POINT ( 'NONE',  ( 1.224646799147353256E-15, 0.000000000000000000, 10.00000000000000000 ) ) ;
#23 = UNCERTAINTY_MEASURE_WITH_UNIT (LENGTH_MEASURE( 1.000000000000000082E-05 ), #26, 'distance_accuracy_value', 'NONE');
#24 = DIRECTION ( 'NONE',  ( -0.000000000000000000, -1.000000000000000000, -0.000000000000000000 ) ) ;
#25 = FACE_OUTER_BOUND ( 'NONE', #286, .T. ) ;
#26 =( LENGTH_UNIT ( ) NAMED_UNIT ( * ) SI_UNIT ( .MILLI., .METRE. ) );
#27 = DIRECTION ( 'NONE',  ( -2.905941557298803228E-17, 1.000000000000000000, -0.000000000000000000 ) ) ;
#28 = PRESENTATION_STYLE_ASSIGNMENT (( #76 ) ) ;
#29 = ADVANCED_FACE ( 'NONE', ( #51 ), #200, .T. ) ;
#30 = DIRECTION ( 'NONE',  ( -2.905941557298803228E-17, 1.000000000000000000, -0.000000000000000000 ) ) ;
#31 = ADVANCED_FACE ( 'NONE', ( #191 ), #139, .T. ) ;
#32 = COLOUR_RGB ( '',0.7921568627450980005, 0.8196078431372548767, 0.9333333333333333481 ) ;
#33 = SURFACE_STYLE_FILL_AREA ( #239 ) ;
#34 = EDGE_LOOP ( 'NONE', ( #178, #257 ) ) ;
#35 = CYLINDRICAL_SURFACE ( 'NONE', #155, 10.00000000000000000 ) ;
#36 = ORIENTED_EDGE ( 'NONE', *, *, #105, .T. ) ;
#37 = PRESENTATION_STYLE_ASSIGNMENT (( #199 ) ) ;
#38 = EDGE_CURVE ( 'NONE', #240, #128, #214, .T. ) ;
#39 = AXIS2_PLACEMENT_3D ( 'NONE', #196, #58, #198 ) ;
#40 = ORIENTED_EDGE ( 'NONE', *, *, #102, .F. ) ;
#41 = EDGE_LOOP ( 'NONE', ( #82, #285 ) ) ;
#42 =( GEOMETRIC_REPRESENTATION_CONTEXT ( 3 ) GLOBAL_UNCERTAINTY_ASSIGNED_CONTEXT ( ( #209 ) ) GLOBAL_UNIT_ASSIGNED_CONTEXT ( ( #217, #173, #258 ) ) REPRESENTATION_CONTEXT ( 'NONE', 'WORKASPACE' ) );
#43 = AXIS2_PLACEMENT_3D ( 'NONE', #188, #270, #44 ) ;
#44 = DIRECTION ( 'NONE',  ( 0.000000000000000000, 0.000000000000000000, -1.000000000000000000 ) ) ;
#45 = UNCERTAINTY_MEASURE_WITH_UNIT (LENGTH_MEASURE( 1.000000000000000082E-05 ), #233, 'distance_accuracy_value', 'NONE');
#46 = CARTESIAN_POINT ( 'NONE',  ( -10.00000000000000355, 89.00000000000000000, 0.000000000000000000 ) ) ;
#47 = CARTESIAN_POINT ( 'NONE',  ( -10.00000000000000355, 89.00000000000000000, 0.000000000000000000 ) ) ;
#48 = PRESENTATION_LAYER_ASSIGNMENT (  '', '', ( #153 ) ) ;
#49 = AXIS2_PLACEMENT_3D ( 'NONE', #88, #65, #246 ) ;
#50 = FILL_AREA_STYLE ('',( #136 ) ) ;
#51 = FACE_OUTER_BOUND ( 'NONE', #34, .T. ) ;
#52 = PRESENTATION_STYLE_ASSIGNMENT (( #250 ) ) ;
#53 = SURFACE_STYLE_FILL_AREA ( #135 ) ;
#54 = APPLICATION_PROTOCOL_DEFINITION ( 'draft international standard', 'automotive_design', 1998, #224 ) ;
#55 = DIRECTION ( 'NONE',  ( -1.000000000000000000, 0.000000000000000000, 0.000000000000000000 ) ) ;
#56 =( NAMED_UNIT ( * ) PLANE_ANGLE_UNIT ( ) SI_UNIT ( $, .RADIAN. ) );
#57 = EDGE_CURVE ( 'NONE', #17, #128, #18, .T. ) ;
#58 = DIRECTION ( 'NONE',  ( -2.905941557298803228E-17, 1.000000000000000000, -0.000000000000000000 ) ) ;
#59 = EDGE_LOOP ( 'NONE', ( #151, #236, #21, #228 ) ) ;
#60 = CIRCLE ( 'NONE', #92, 10.00000000000000000 ) ;
#61 = DIRECTION ( 'NONE',  ( 0.000000000000000000, -0.000000000000000000, 1.000000000000000000 ) ) ;
#62 = COLOUR_RGB ( '',1.000000000000000000, 0.000000000000000000, 0.000000000000000000 ) ;
#63 = AXIS2_PLACEMENT_3D ( 'NONE', #69, #248, #186 ) ;
#64 =( GEOMETRIC_REPRESENTATION_CONTEXT ( 3 ) GLOBAL_UNCERTAINTY_ASSIGNED_CONTEXT ( ( #23 ) ) GLOBAL_UNIT_ASSIGNED_CONTEXT ( ( #26, #164, #115 ) ) REPRESENTATION_CONTEXT ( 'NONE', 'WORKASPACE' ) );
#65 = DIRECTION ( 'NONE',  ( -0.000000000000000000, -1.000000000000000000, -0.000000000000000000 ) ) ;
#66 = ADVANCED_FACE ( 'NONE', ( #216 ), #95, .T. ) ;
#67 = CARTESIAN_POINT ( 'NONE',  ( 10.00000000000000000, 30.00000000000000000, 1.224646799147353454E-15 ) ) ;
#68 = UNCERTAINTY_MEASURE_WITH_UNIT (LENGTH_MEASURE( 1.000000000000000082E-05 ), #215, 'distance_accuracy_value', 'NONE');
#69 = CARTESIAN_POINT ( 'NONE',  ( 0.000000000000000000, 30.00000000000000000, 0.000000000000000000 ) ) ;
#70 = SURFACE_SIDE_STYLE ('',( #53 ) ) ;
#71 = AXIS2_PLACEMENT_3D ( 'NONE', #15, #81, #100 ) ;
#72 =( GEOMETRIC_REPRESENTATION_CONTEXT ( 3 ) GLOBAL_UNCERTAINTY_ASSIGNED_CONTEXT ( ( #68 ) ) GLOBAL_UNIT_ASSIGNED_CONTEXT ( ( #215, #165, #251 ) ) REPRESENTATION_CONTEXT ( 'NONE', 'WORKASPACE' ) );
#73 = SURFACE_STYLE_FILL_AREA ( #50 ) ;
#74 = PRODUCT ( '59473', '59473', '', ( #12 ) ) ;
#75 = VECTOR ( 'NONE', #232, 1000.000000000000000 ) ;
#76 = SURFACE_STYLE_USAGE ( .BOTH. , #70 ) ;
#77 = SURFACE_STYLE_FILL_AREA ( #121 ) ;
#78 = EDGE_LOOP ( 'NONE', ( #145, #203, #264, #261 ) ) ;
#79 = CLOSED_SHELL ( 'NONE', ( #96, #93, #84, #29 ) ) ;
#80 =( LENGTH_UNIT ( ) NAMED_UNIT ( * ) SI_UNIT ( .MILLI., .METRE. ) );
#81 = DIRECTION ( 'NONE',  ( -2.905941557298802612E-17, 1.000000000000000000, 0.000000000000000000 ) ) ;
#82 = ORIENTED_EDGE ( 'NONE', *, *, #105, .F. ) ;
#83 = ORIENTED_EDGE ( 'NONE', *, *, #57, .T. ) ;
#84 = ADVANCED_FACE ( 'NONE', ( #256 ), #201, .T. ) ;
#85 = PRESENTATION_LAYER_ASSIGNMENT (  '', '', ( #126 ) ) ;
#86 = AXIS2_PLACEMENT_3D ( 'NONE', #131, #2, #231 ) ;
#87 =( NAMED_UNIT ( * ) SI_UNIT ( $, .STERADIAN. ) SOLID_ANGLE_UNIT ( ) );
#88 = CARTESIAN_POINT ( 'NONE',  ( 0.000000000000000000, 30.00000000000000000, 0.000000000000000000 ) ) ;
#89 = DIRECTION ( 'NONE',  ( -1.000000000000000000, 0.000000000000000000, 0.000000000000000000 ) ) ;
#90 = FILL_AREA_STYLE_COLOUR ( '', #129 ) ;
#91 = DIRECTION ( 'NONE',  ( -1.000000000000000000, 0.000000000000000000, 0.000000000000000000 ) ) ;
#92 = AXIS2_PLACEMENT_3D ( 'NONE', #114, #27, #89 ) ;
#93 = ADVANCED_FACE ( 'NONE', ( #176 ), #279, .T. ) ;
#94 = CARTESIAN_POINT ( 'NONE',  ( 0.000000000000000000, 0.000000000000000000, 0.000000000000000000 ) ) ;
#95 = CYLINDRICAL_SURFACE ( 'NONE', #39, 10.00000000000000178 ) ;
#96 = ADVANCED_FACE ( 'NONE', ( #280 ), #35, .T. ) ;
#97 = STYLED_ITEM ( 'NONE', ( #137 ), #8 ) ;
#98 = DIRECTION ( 'NONE',  ( -0.000000000000000000, -1.000000000000000000, -0.000000000000000000 ) ) ;
#99 = PRESENTATION_STYLE_ASSIGNMENT (( #16 ) ) ;
#100 = DIRECTION ( 'NONE',  ( -1.000000000000000000, -2.905941557298802612E-17, 0.000000000000000000 ) ) ;
#101 = EDGE_LOOP ( 'NONE', ( #243, #179 ) ) ;
#102 = EDGE_CURVE ( 'NONE', #172, #238, #273, .T. ) ;
#103 = CIRCLE ( 'NONE', #182, 10.00000000000000178 ) ;
#104 = VERTEX_POINT ( 'NONE', #109 ) ;
#105 = EDGE_CURVE ( 'NONE', #107, #240, #60, .T. ) ;
#106 = ORIENTED_EDGE ( 'NONE', *, *, #38, .T. ) ;
#107 = VERTEX_POINT ( 'NONE', #161 ) ;
#108 = STYLED_ITEM ( 'NONE', ( #52 ), #210 ) ;
#109 = CARTESIAN_POINT ( 'NONE',  ( 0.000000000000000000, 30.00000000000000000, -10.00000000000000000 ) ) ;
#110 = LINE ( 'NONE', #272, #265 ) ;
#111 = AXIS2_PLACEMENT_3D ( 'NONE', #220, #260, #61 ) ;
#112 = UNCERTAINTY_MEASURE_WITH_UNIT (LENGTH_MEASURE( 1.000000000000000082E-05 ), #266, 'distance_accuracy_value', 'NONE');
#113 = AXIS2_PLACEMENT_3D ( 'NONE', #94, #277, #169 ) ;
#114 = CARTESIAN_POINT ( 'NONE',  ( 0.000000000000000000, 30.00000000000000000, 0.000000000000000000 ) ) ;
#115 =( NAMED_UNIT ( * ) SI_UNIT ( $, .STERADIAN. ) SOLID_ANGLE_UNIT ( ) );
#116 = AXIS2_PLACEMENT_3D ( 'NONE', #1, #98, #143 ) ;
#117 = SHAPE_DEFINITION_REPRESENTATION ( #166, #287 ) ;
#118 = SURFACE_SIDE_STYLE ('',( #6 ) ) ;
#119 = EDGE_CURVE ( 'NONE', #204, #104, #259, .T. ) ;
#120 = DIRECTION ( 'NONE',  ( -1.000000000000000000, 0.000000000000000000, 0.000000000000000000 ) ) ;
#121 = FILL_AREA_STYLE ('',( #147 ) ) ;
#122 = PRESENTATION_LAYER_ASSIGNMENT (  '', '', ( #218 ) ) ;
#123 = FACE_OUTER_BOUND ( 'NONE', #41, .T. ) ;
#124 = SURFACE_STYLE_FILL_AREA ( #241 ) ;
#125 =( NAMED_UNIT ( * ) PLANE_ANGLE_UNIT ( ) SI_UNIT ( $, .RADIAN. ) );
#126 = STYLED_ITEM ( 'NONE', ( #99 ), #84 ) ;
#127 = EDGE_CURVE ( 'NONE', #128, #17, #103, .T. ) ;
#128 = VERTEX_POINT ( 'NONE', #9 ) ;
#129 = COLOUR_RGB ( '',1.000000000000000000, 0.000000000000000000, 0.000000000000000000 ) ;
#130 = DIRECTION ( 'NONE',  ( 0.000000000000000000, 0.000000000000000000, -1.000000000000000000 ) ) ;
#131 = CARTESIAN_POINT ( 'NONE',  ( 0.000000000000000000, 0.000000000000000000, 0.000000000000000000 ) ) ;
#132 =( GEOMETRIC_REPRESENTATION_CONTEXT ( 3 ) GLOBAL_UNCERTAINTY_ASSIGNED_CONTEXT ( ( #45 ) ) GLOBAL_UNIT_ASSIGNED_CONTEXT ( ( #233, #56, #167 ) ) REPRESENTATION_CONTEXT ( 'NONE', 'WORKASPACE' ) );
#133 = PRESENTATION_LAYER_ASSIGNMENT (  '', '', ( #108 ) ) ;
#134 = DIRECTION ( 'NONE',  ( -0.000000000000000000, -1.000000000000000000, -0.000000000000000000 ) ) ;
#135 = FILL_AREA_STYLE ('',( #90 ) ) ;
#136 = FILL_AREA_STYLE_COLOUR ( '', #32 ) ;
#137 = PRESENTATION_STYLE_ASSIGNMENT (( #271 ) ) ;
#138 = APPLICATION_PROTOCOL_DEFINITION ( 'draft international standard', 'automotive_design', 1998, #187 ) ;
#139 = CYLINDRICAL_SURFACE ( 'NONE', #234, 10.00000000000000178 ) ;
#140 = COLOUR_RGB ( '',0.7921568627450980005, 0.8196078431372548767, 0.9333333333333333481 ) ;
#141 = PLANE ( 'NONE',  #242 ) ;
#142 = DIRECTION ( 'NONE',  ( 0.000000000000000000, 0.000000000000000000, -1.000000000000000000 ) ) ;
#143 = DIRECTION ( 'NONE',  ( 0.000000000000000000, 0.000000000000000000, -1.000000000000000000 ) ) ;
#144 = COLOUR_RGB ( '',1.000000000000000000, 0.000000000000000000, 0.000000000000000000 ) ;
#145 = ORIENTED_EDGE ( 'NONE', *, *, #38, .F. ) ;
#146 = CARTESIAN_POINT ( 'NONE',  ( 10.00000000000000000, 89.00000000000000000, 0.000000000000000000 ) ) ;
#147 = FILL_AREA_STYLE_COLOUR ( '', #144 ) ;
#148 = PRODUCT_DEFINITION ( 'UNKNOWN', '', #156, #219 ) ;
#149 = ORIENTED_EDGE ( 'NONE', *, *, #205, .F. ) ;
#150 = FILL_AREA_STYLE_COLOUR ( '', #4 ) ;
#151 = ORIENTED_EDGE ( 'NONE', *, *, #262, .T. ) ;
#152 = EDGE_CURVE ( 'NONE', #107, #17, #157, .T. ) ;
#153 = STYLED_ITEM ( 'NONE', ( #37 ), #93 ) ;
#154 = CARTESIAN_POINT ( 'NONE',  ( -1.714505518806293849E-15, 89.00000000000000000, 0.000000000000000000 ) ) ;
#155 = AXIS2_PLACEMENT_3D ( 'NONE', #160, #7, #130 ) ;
#156 = PRODUCT_DEFINITION_FORMATION_WITH_SPECIFIED_SOURCE ( 'ANY', '', #74, .NOT_KNOWN. ) ;
#157 = LINE ( 'NONE', #46, #75 ) ;
#158 = UNCERTAINTY_MEASURE_WITH_UNIT (LENGTH_MEASURE( 1.000000000000000082E-05 ), #80, 'distance_accuracy_value', 'NONE');
#159 = FILL_AREA_STYLE ('',( #223 ) ) ;
#160 = CARTESIAN_POINT ( 'NONE',  ( 0.000000000000000000, 0.000000000000000000, 0.000000000000000000 ) ) ;
#161 = CARTESIAN_POINT ( 'NONE',  ( -10.00000000000000000, 30.00000000000000000, 0.000000000000000000 ) ) ;
#162 = EDGE_CURVE ( 'NONE', #240, #107, #267, .T. ) ;
#163 = SURFACE_SIDE_STYLE ('',( #73 ) ) ;
#164 =( NAMED_UNIT ( * ) PLANE_ANGLE_UNIT ( ) SI_UNIT ( $, .RADIAN. ) );
#165 =( NAMED_UNIT ( * ) PLANE_ANGLE_UNIT ( ) SI_UNIT ( $, .RADIAN. ) );
#166 = PRODUCT_DEFINITION_SHAPE ( 'NONE', 'NONE',  #148 ) ;
#167 =( NAMED_UNIT ( * ) SI_UNIT ( $, .STERADIAN. ) SOLID_ANGLE_UNIT ( ) );
#168 = STYLED_ITEM ( 'NONE', ( #28 ), #29 ) ;
#169 = DIRECTION ( 'NONE',  ( 1.000000000000000000, 0.000000000000000000, 0.000000000000000000 ) ) ;
#170 = DIRECTION ( 'NONE',  ( 2.905941557298802612E-17, -1.000000000000000000, 0.000000000000000000 ) ) ;
#171 =( NAMED_UNIT ( * ) PLANE_ANGLE_UNIT ( ) SI_UNIT ( $, .RADIAN. ) );
#172 = VERTEX_POINT ( 'NONE', #22 ) ;
#173 =( NAMED_UNIT ( * ) PLANE_ANGLE_UNIT ( ) SI_UNIT ( $, .RADIAN. ) );
#174 =( GEOMETRIC_REPRESENTATION_CONTEXT ( 3 ) GLOBAL_UNCERTAINTY_ASSIGNED_CONTEXT ( ( #268 ) ) GLOBAL_UNIT_ASSIGNED_CONTEXT ( ( #177, #171, #87 ) ) REPRESENTATION_CONTEXT ( 'NONE', 'WORKASPACE' ) );
#175 = ORIENTED_EDGE ( 'NONE', *, *, #152, .F. ) ;
#176 = FACE_OUTER_BOUND ( 'NONE', #101, .T. ) ;
#177 =( LENGTH_UNIT ( ) NAMED_UNIT ( * ) SI_UNIT ( .MILLI., .METRE. ) );
#178 = ORIENTED_EDGE ( 'NONE', *, *, #254, .T. ) ;
#179 = ORIENTED_EDGE ( 'NONE', *, *, #119, .F. ) ;
#180 = MECHANICAL_DESIGN_GEOMETRIC_PRESENTATION_REPRESENTATION (  '', ( #126 ), #174 ) ;
#181 = CIRCLE ( 'NONE', #86, 10.00000000000000000 ) ;
#182 = AXIS2_PLACEMENT_3D ( 'NONE', #154, #247, #91 ) ;
#183 =( NAMED_UNIT ( * ) PLANE_ANGLE_UNIT ( ) SI_UNIT ( $, .RADIAN. ) );
#184 = DIRECTION ( 'NONE',  ( -0.000000000000000000, -1.000000000000000000, -0.000000000000000000 ) ) ;
#185 = AXIS2_PLACEMENT_3D ( 'NONE', #235, #30, #120 ) ;
#186 = DIRECTION ( 'NONE',  ( -1.000000000000000000, 0.000000000000000000, 0.000000000000000000 ) ) ;
#187 = APPLICATION_CONTEXT ( 'automotive_design' ) ;
#188 = CARTESIAN_POINT ( 'NONE',  ( 0.000000000000000000, 30.00000000000000000, 0.000000000000000000 ) ) ;
#189 = CARTESIAN_POINT ( 'NONE',  ( 1.224646799147353256E-15, 30.00000000000000000, 10.00000000000000000 ) ) ;
#190 = AXIS2_PLACEMENT_3D ( 'NONE', #213, #134, #5 ) ;
#191 = FACE_OUTER_BOUND ( 'NONE', #284, .T. ) ;
#192 = CIRCLE ( 'NONE', #49, 10.00000000000000000 ) ;
#193 = CARTESIAN_POINT ( 'NONE',  ( 0.000000000000000000, 0.000000000000000000, 0.000000000000000000 ) ) ;
#194 = CARTESIAN_POINT ( 'NONE',  ( 10.00000000000000000, 89.00000000000000000, 1.224646799147353454E-15 ) ) ;
#195 = DIRECTION ( 'NONE',  ( 1.000000000000000000, 2.905941557298802612E-17, 0.000000000000000000 ) ) ;
#196 = CARTESIAN_POINT ( 'NONE',  ( -1.714505518806293849E-15, 89.00000000000000000, 0.000000000000000000 ) ) ;
#197 = AXIS2_PLACEMENT_3D ( 'NONE', #193, #275, #142 ) ;
#198 = DIRECTION ( 'NONE',  ( -1.000000000000000000, 0.000000000000000000, 0.000000000000000000 ) ) ;
#199 = SURFACE_STYLE_USAGE ( .BOTH. , #255 ) ;
#200 = PLANE ( 'NONE',  #197 ) ;
#201 = CYLINDRICAL_SURFACE ( 'NONE', #116, 10.00000000000000000 ) ;
#202 = EDGE_LOOP ( 'NONE', ( #149, #281, #225, #40 ) ) ;
#203 = ORIENTED_EDGE ( 'NONE', *, *, #162, .T. ) ;
#204 = VERTEX_POINT ( 'NONE', #189 ) ;
#205 = EDGE_CURVE ( 'NONE', #204, #172, #110, .T. ) ;
#206 =( GEOMETRIC_REPRESENTATION_CONTEXT ( 3 ) GLOBAL_UNCERTAINTY_ASSIGNED_CONTEXT ( ( #158 ) ) GLOBAL_UNIT_ASSIGNED_CONTEXT ( ( #80, #125, #212 ) ) REPRESENTATION_CONTEXT ( 'NONE', 'WORKASPACE' ) );
#207 = FILL_AREA_STYLE_COLOUR ( '', #62 ) ;
#208 = CARTESIAN_POINT ( 'NONE',  ( 0.000000000000000000, 0.000000000000000000, -10.00000000000000000 ) ) ;
#209 = UNCERTAINTY_MEASURE_WITH_UNIT (LENGTH_MEASURE( 1.000000000000000082E-05 ), #217, 'distance_accuracy_value', 'NONE');
#210 = MANIFOLD_SOLID_BREP ( 'Revolve - Tool Body (Straight Shanked)', #253 ) ;
#211 = EDGE_CURVE ( 'NONE', #104, #238, #269, .T. ) ;
#212 =( NAMED_UNIT ( * ) SI_UNIT ( $, .STERADIAN. ) SOLID_ANGLE_UNIT ( ) );
#213 = CARTESIAN_POINT ( 'NONE',  ( 0.000000000000000000, 0.000000000000000000, 0.000000000000000000 ) ) ;
#214 = LINE ( 'NONE', #194, #244 ) ;
#215 =( LENGTH_UNIT ( ) NAMED_UNIT ( * ) SI_UNIT ( .MILLI., .METRE. ) );
#216 = FACE_OUTER_BOUND ( 'NONE', #78, .T. ) ;
#217 =( LENGTH_UNIT ( ) NAMED_UNIT ( * ) SI_UNIT ( .MILLI., .METRE. ) );
#218 = STYLED_ITEM ( 'NONE', ( #222 ), #96 ) ;
#219 = PRODUCT_DEFINITION_CONTEXT ( 'detailed design', #187, 'design' ) ;
#220 = CARTESIAN_POINT ( 'NONE',  ( 0.000000000000000000, 30.00000000000000000, 0.000000000000000000 ) ) ;
#221 = PLANE ( 'NONE',  #71 ) ;
#222 = PRESENTATION_STYLE_ASSIGNMENT (( #226 ) ) ;
#223 = FILL_AREA_STYLE_COLOUR ( '', #140 ) ;
#224 = APPLICATION_CONTEXT ( 'automotive_design' ) ;
#225 = ORIENTED_EDGE ( 'NONE', *, *, #211, .T. ) ;
#226 = SURFACE_STYLE_USAGE ( .BOTH. , #237 ) ;
#227 = ORIENTED_EDGE ( 'NONE', *, *, #57, .F. ) ;
#228 = ORIENTED_EDGE ( 'NONE', *, *, #211, .F. ) ;
#229 = MECHANICAL_DESIGN_GEOMETRIC_PRESENTATION_REPRESENTATION (  '', ( #97 ), #64 ) ;
#230 = CARTESIAN_POINT ( 'NONE',  ( 0.000000000000000000, 0.000000000000000000, -10.00000000000000000 ) ) ;
#231 = DIRECTION ( 'NONE',  ( 0.000000000000000000, 0.000000000000000000, -1.000000000000000000 ) ) ;
#232 = DIRECTION ( 'NONE',  ( -2.905941557298802612E-17, 1.000000000000000000, -0.000000000000000000 ) ) ;
#233 =( LENGTH_UNIT ( ) NAMED_UNIT ( * ) SI_UNIT ( .MILLI., .METRE. ) );
#234 = AXIS2_PLACEMENT_3D ( 'NONE', #274, #252, #55 ) ;
#235 = CARTESIAN_POINT ( 'NONE',  ( -1.714505518806293849E-15, 89.00000000000000000, 0.000000000000000000 ) ) ;
#236 = ORIENTED_EDGE ( 'NONE', *, *, #205, .T. ) ;
#237 = SURFACE_SIDE_STYLE ('',( #77 ) ) ;
#238 = VERTEX_POINT ( 'NONE', #208 ) ;
#239 = FILL_AREA_STYLE ('',( #150 ) ) ;
#240 = VERTEX_POINT ( 'NONE', #67 ) ;
#241 = FILL_AREA_STYLE ('',( #207 ) ) ;
#242 = AXIS2_PLACEMENT_3D ( 'NONE', #146, #170, #195 ) ;
#243 = ORIENTED_EDGE ( 'NONE', *, *, #262, .F. ) ;
#244 = VECTOR ( 'NONE', #276, 1000.000000000000000 ) ;
#245 =( NAMED_UNIT ( * ) SI_UNIT ( $, .STERADIAN. ) SOLID_ANGLE_UNIT ( ) );
#246 = DIRECTION ( 'NONE',  ( 0.000000000000000000, 0.000000000000000000, -1.000000000000000000 ) ) ;
#247 = DIRECTION ( 'NONE',  ( -2.905941557298803228E-17, 1.000000000000000000, -0.000000000000000000 ) ) ;
#248 = DIRECTION ( 'NONE',  ( -2.905941557298803228E-17, 1.000000000000000000, -0.000000000000000000 ) ) ;
#249 = MECHANICAL_DESIGN_GEOMETRIC_PRESENTATION_REPRESENTATION (  '', ( #153 ), #42 ) ;
#250 = SURFACE_STYLE_USAGE ( .BOTH. , #163 ) ;
#251 =( NAMED_UNIT ( * ) SI_UNIT ( $, .STERADIAN. ) SOLID_ANGLE_UNIT ( ) );
#252 = DIRECTION ( 'NONE',  ( -2.905941557298803228E-17, 1.000000000000000000, -0.000000000000000000 ) ) ;
#253 = CLOSED_SHELL ( 'NONE', ( #31, #3, #66, #282 ) ) ;
#254 = EDGE_CURVE ( 'NONE', #238, #172, #181, .T. ) ;
#255 = SURFACE_SIDE_STYLE ('',( #33 ) ) ;
#256 = FACE_OUTER_BOUND ( 'NONE', #202, .T. ) ;
#257 = ORIENTED_EDGE ( 'NONE', *, *, #102, .T. ) ;
#258 =( NAMED_UNIT ( * ) SI_UNIT ( $, .STERADIAN. ) SOLID_ANGLE_UNIT ( ) );
#259 = CIRCLE ( 'NONE', #43, 10.00000000000000000 ) ;
#260 = DIRECTION ( 'NONE',  ( 0.000000000000000000, 1.000000000000000000, 0.000000000000000000 ) ) ;
#261 = ORIENTED_EDGE ( 'NONE', *, *, #127, .F. ) ;
#262 = EDGE_CURVE ( 'NONE', #104, #204, #192, .T. ) ;
#263 = MECHANICAL_DESIGN_GEOMETRIC_PRESENTATION_REPRESENTATION (  '', ( #168 ), #132 ) ;
#264 = ORIENTED_EDGE ( 'NONE', *, *, #152, .T. ) ;
#265 = VECTOR ( 'NONE', #184, 1000.000000000000000 ) ;
#266 =( LENGTH_UNIT ( ) NAMED_UNIT ( * ) SI_UNIT ( .MILLI., .METRE. ) );
#267 = CIRCLE ( 'NONE', #63, 10.00000000000000000 ) ;
#268 = UNCERTAINTY_MEASURE_WITH_UNIT (LENGTH_MEASURE( 1.000000000000000082E-05 ), #177, 'distance_accuracy_value', 'NONE');
#269 = LINE ( 'NONE', #230, #283 ) ;
#270 = DIRECTION ( 'NONE',  ( -0.000000000000000000, -1.000000000000000000, -0.000000000000000000 ) ) ;
#271 = SURFACE_STYLE_USAGE ( .BOTH. , #118 ) ;
#272 = CARTESIAN_POINT ( 'NONE',  ( 1.224646799147353256E-15, 0.000000000000000000, 10.00000000000000000 ) ) ;
#273 = CIRCLE ( 'NONE', #190, 10.00000000000000000 ) ;
#274 = CARTESIAN_POINT ( 'NONE',  ( -1.714505518806293849E-15, 89.00000000000000000, 0.000000000000000000 ) ) ;
#275 = DIRECTION ( 'NONE',  ( 0.000000000000000000, -1.000000000000000000, -0.000000000000000000 ) ) ;
#276 = DIRECTION ( 'NONE',  ( -2.905941557298802612E-17, 1.000000000000000000, -0.000000000000000000 ) ) ;
#277 = DIRECTION ( 'NONE',  ( 0.000000000000000000, 0.000000000000000000, 1.000000000000000000 ) ) ;
#278 = PRESENTATION_LAYER_ASSIGNMENT (  '', '', ( #97 ) ) ;
#279 = PLANE ( 'NONE',  #111 ) ;
#280 = FACE_OUTER_BOUND ( 'NONE', #59, .T. ) ;
#281 = ORIENTED_EDGE ( 'NONE', *, *, #119, .T. ) ;
#282 = ADVANCED_FACE ( 'NONE', ( #25 ), #141, .F. ) ;
#283 = VECTOR ( 'NONE', #24, 1000.000000000000000 ) ;
#284 = EDGE_LOOP ( 'NONE', ( #36, #106, #227, #175 ) ) ;
#285 = ORIENTED_EDGE ( 'NONE', *, *, #162, .F. ) ;
#286 = EDGE_LOOP ( 'NONE', ( #83, #19 ) ) ;
#287 = ADVANCED_BREP_SHAPE_REPRESENTATION ( '59473', ( #8, #210, #113 ), #72 ) ;
#288 = MECHANICAL_DESIGN_GEOMETRIC_PRESENTATION_REPRESENTATION (  '', ( #218 ), #206 ) ;
ENDSEC;
END-ISO-10303-21;
