ISO-10303-21;
HEADER;
FILE_DESCRIPTION (( 'STEP AP214' ),
    '1' );
FILE_NAME ('Micro_DMM-160-4120X.STEP',
    '2021-09-02T16:35:44',
    ( '' ),
    ( '' ),
    'SwSTEP 2.0',
    'SolidWorks 2020',
    '' );
FILE_SCHEMA (( 'AUTOMOTIVE_DESIGN' ));
ENDSEC;

DATA;
#1 = ORIENTED_EDGE ( 'NONE', *, *, #131, .T. ) ;
#2 = CIRCLE ( 'NONE', #51, 0.007499999999999999722 ) ;
#3 = LINE ( 'NONE', #107, #61 ) ;
#4 =( LENGTH_UNIT ( ) NAMED_UNIT ( * ) SI_UNIT ( $, .METRE. ) );
#5 = VERTEX_POINT ( 'NONE', #257 ) ;
#6 = ORIENTED_EDGE ( 'NONE', *, *, #97, .F. ) ;
#7 = AXIS2_PLACEMENT_3D ( 'NONE', #75, #14, #71 ) ;
#8 = CARTESIAN_POINT ( 'NONE',  ( -0.3149105000000000931, 0.0000000000000000000, 0.0000000000000000000 ) ) ;
#9 = CARTESIAN_POINT ( 'NONE',  ( -0.3149604999999999766, 0.0000000000000000000, 3.622047000000000239 ) ) ;
#10 = CYLINDRICAL_SURFACE ( 'NONE', #242, 0.3149105000000000931 ) ;
#11 = AXIS2_PLACEMENT_3D ( 'NONE', #91, #119, #68 ) ;
#12 = DIRECTION ( 'NONE',  ( -0.0000000000000000000, -0.0000000000000000000, -1.000000000000000000 ) ) ;
#13 = PLANE ( 'NONE',  #198 ) ;
#14 = DIRECTION ( 'NONE',  ( -0.0000000000000000000, 0.0000000000000000000, -1.000000000000000000 ) ) ;
#15 = CYLINDRICAL_SURFACE ( 'NONE', #288, 0.3149604999999999766 ) ;
#16 = PRODUCT_DEFINITION_CONTEXT ( 'detailed design', #181, 'design' ) ;
#17 = DIRECTION ( 'NONE',  ( 0.0000000000000000000, 0.0000000000000000000, 1.000000000000000000 ) ) ;
#18 = VERTEX_POINT ( 'NONE', #28 ) ;
#19 = CARTESIAN_POINT ( 'NONE',  ( 0.007499999999999999722, 0.0000000000000000000, 1.707404996040164512E-17 ) ) ;
#20 = VERTEX_POINT ( 'NONE', #186 ) ;
#21 = EDGE_CURVE ( 'NONE', #20, #41, #3, .T. ) ;
#22 = AXIS2_PLACEMENT_3D ( 'NONE', #121, #253, #228 ) ;
#23 = LENGTH_MEASURE_WITH_UNIT ( LENGTH_MEASURE( 0.02539999999999999897 ), #4 );
#24 = CARTESIAN_POINT ( 'NONE',  ( 0.0000000000000000000, 0.0000000000000000000, 0.0000000000000000000 ) ) ;
#25 = VERTEX_POINT ( 'NONE', #316 ) ;
#26 = ADVANCED_BREP_SHAPE_REPRESENTATION ( 'Micro_DMM-160-4120X', ( #31, #62 ), #258 ) ;
#27 = PRESENTATION_STYLE_ASSIGNMENT (( #57 ) ) ;
#28 = CARTESIAN_POINT ( 'NONE',  ( -0.2999604999999996857, 0.0000000000000000000, 3.622047000000000239 ) ) ;
#29 = CIRCLE ( 'NONE', #117, 0.3149105000000000376 ) ;
#30 = ORIENTED_EDGE ( 'NONE', *, *, #227, .T. ) ;
#31 = MANIFOLD_SOLID_BREP ( 'Cut-Revolve4', #314 ) ;
#32 = ORIENTED_EDGE ( 'NONE', *, *, #64, .T. ) ;
#33 = SURFACE_STYLE_FILL_AREA ( #263 ) ;
#34 = CARTESIAN_POINT ( 'NONE',  ( -0.007499999999999999722, 9.184850993605147975E-19, 1.707404996040164512E-17 ) ) ;
#35 = EDGE_CURVE ( 'NONE', #136, #312, #85, .T. ) ;
#36 = CARTESIAN_POINT ( 'NONE',  ( 0.3149105000000000376, 0.0000000000000000000, 0.1774835349267163964 ) ) ;
#37 = PRESENTATION_STYLE_ASSIGNMENT (( #329 ) ) ;
#38 = ORIENTED_EDGE ( 'NONE', *, *, #261, .F. ) ;
#39 = CIRCLE ( 'NONE', #264, 0.3149604999999999766 ) ;
#40 = LINE ( 'NONE', #9, #78 ) ;
#41 = VERTEX_POINT ( 'NONE', #36 ) ;
#42 = DIRECTION ( 'NONE',  ( 1.000000000000000000, 0.0000000000000000000, 0.0000000000000000000 ) ) ;
#43 = DIRECTION ( 'NONE',  ( 0.0000000000000000000, 0.0000000000000000000, -1.000000000000000000 ) ) ;
#44 = FACE_OUTER_BOUND ( 'NONE', #297, .T. ) ;
#45 = COLOUR_RGB ( '',0.7921568627450980005, 0.8196078431372548767, 0.9333333333333333481 ) ;
#46 = DIRECTION ( 'NONE',  ( -0.0000000000000000000, -0.0000000000000000000, -1.000000000000000000 ) ) ;
#47 = UNCERTAINTY_MEASURE_WITH_UNIT (LENGTH_MEASURE( 1.000000000000000082E-05 ), #284, 'distance_accuracy_value', 'NONE');
#48 = DIRECTION ( 'NONE',  ( 0.8660254037844398178, 0.0000000000000000000, 0.4999999999999977240 ) ) ;
#49 = PRODUCT_DEFINITION ( 'UNKNOWN', '', #88, #16 ) ;
#50 = FILL_AREA_STYLE ('',( #108 ) ) ;
#51 = AXIS2_PLACEMENT_3D ( 'NONE', #185, #208, #187 ) ;
#52 = ORIENTED_EDGE ( 'NONE', *, *, #138, .T. ) ;
#53 = VERTEX_POINT ( 'NONE', #87 ) ;
#54 = SURFACE_SIDE_STYLE ('',( #309 ) ) ;
#55 = ORIENTED_EDGE ( 'NONE', *, *, #246, .F. ) ;
#56 =( GEOMETRIC_REPRESENTATION_CONTEXT ( 3 ) GLOBAL_UNCERTAINTY_ASSIGNED_CONTEXT ( ( #197 ) ) GLOBAL_UNIT_ASSIGNED_CONTEXT ( ( #266, #191, #289 ) ) REPRESENTATION_CONTEXT ( 'NONE', 'WORKASPACE' ) );
#57 = SURFACE_STYLE_USAGE ( .BOTH. , #54 ) ;
#58 = ORIENTED_EDGE ( 'NONE', *, *, #246, .T. ) ;
#59 = ORIENTED_EDGE ( 'NONE', *, *, #159, .T. ) ;
#60 = LINE ( 'NONE', #34, #296 ) ;
#61 = VECTOR ( 'NONE', #111, 39.37007874015748143 ) ;
#62 = AXIS2_PLACEMENT_3D ( 'NONE', #24, #182, #206 ) ;
#63 = DIRECTION ( 'NONE',  ( -1.000000000000000000, 0.0000000000000000000, 0.0000000000000000000 ) ) ;
#64 = EDGE_CURVE ( 'NONE', #312, #53, #39, .T. ) ;
#65 = LINE ( 'NONE', #8, #248 ) ;
#66 = ORIENTED_EDGE ( 'NONE', *, *, #21, .F. ) ;
#67 = AXIS2_PLACEMENT_3D ( 'NONE', #317, #190, #63 ) ;
#68 = DIRECTION ( 'NONE',  ( 1.000000000000000000, 0.0000000000000000000, 0.0000000000000000000 ) ) ;
#69 = FACE_BOUND ( 'NONE', #104, .T. ) ;
#70 = PRODUCT_DEFINITION_SHAPE ( 'NONE', 'NONE',  #49 ) ;
#71 = DIRECTION ( 'NONE',  ( -1.000000000000000000, 0.0000000000000000000, 0.0000000000000000000 ) ) ;
#72 = AXIS2_PLACEMENT_3D ( 'NONE', #318, #169, #90 ) ;
#73 = CARTESIAN_POINT ( 'NONE',  ( 0.0000000000000000000, 0.0000000000000000000, 1.377952999999999983 ) ) ;
#74 = EDGE_CURVE ( 'NONE', #5, #53, #40, .T. ) ;
#75 = CARTESIAN_POINT ( 'NONE',  ( 0.3149105000000001486, 0.0000000000000000000, 1.377952999999999983 ) ) ;
#76 = DIRECTION ( 'NONE',  ( 0.0000000000000000000, 0.0000000000000000000, -1.000000000000000000 ) ) ;
#77 = EDGE_LOOP ( 'NONE', ( #189, #150, #83, #232 ) ) ;
#78 = VECTOR ( 'NONE', #269, 39.37007874015748143 ) ;
#79 = AXIS2_PLACEMENT_3D ( 'NONE', #275, #154, #101 ) ;
#80 = VERTEX_POINT ( 'NONE', #147 ) ;
#81 = EDGE_LOOP ( 'NONE', ( #89, #52, #254, #180 ) ) ;
#82 = APPLICATION_PROTOCOL_DEFINITION ( 'draft international standard', 'automotive_design', 1998, #166 ) ;
#83 = ORIENTED_EDGE ( 'NONE', *, *, #229, .F. ) ;
#84 = EDGE_CURVE ( 'NONE', #18, #5, #86, .T. ) ;
#85 = LINE ( 'NONE', #193, #241 ) ;
#86 = LINE ( 'NONE', #213, #265 ) ;
#87 = CARTESIAN_POINT ( 'NONE',  ( -0.3149604999999999766, 0.0000000000000000000, 1.377952999999999983 ) ) ;
#88 = PRODUCT_DEFINITION_FORMATION_WITH_SPECIFIED_SOURCE ( 'ANY', '', #244, .NOT_KNOWN. ) ;
#89 = ORIENTED_EDGE ( 'NONE', *, *, #217, .F. ) ;
#90 = DIRECTION ( 'NONE',  ( -1.000000000000000000, 0.0000000000000000000, 0.0000000000000000000 ) ) ;
#91 = CARTESIAN_POINT ( 'NONE',  ( 0.0000000000000000000, 0.0000000000000000000, 1.707404996040164512E-17 ) ) ;
#92 = CIRCLE ( 'NONE', #100, 0.3149604999999999766 ) ;
#93 = FACE_OUTER_BOUND ( 'NONE', #259, .T. ) ;
#94 = CARTESIAN_POINT ( 'NONE',  ( 0.0000000000000000000, 0.0000000000000000000, 0.1774835349267163964 ) ) ;
#95 = EDGE_CURVE ( 'NONE', #25, #18, #122, .T. ) ;
#96 = DIRECTION ( 'NONE',  ( -0.0000000000000000000, -0.0000000000000000000, -1.000000000000000000 ) ) ;
#97 = EDGE_CURVE ( 'NONE', #130, #20, #98, .T. ) ;
#98 = CIRCLE ( 'NONE', #216, 0.3149105000000001486 ) ;
#99 = DIRECTION ( 'NONE',  ( 0.0000000000000000000, 0.0000000000000000000, 1.000000000000000000 ) ) ;
#100 = AXIS2_PLACEMENT_3D ( 'NONE', #247, #327, #298 ) ;
#101 = DIRECTION ( 'NONE',  ( -1.000000000000000000, 0.0000000000000000000, 0.0000000000000000000 ) ) ;
#102 = ORIENTED_EDGE ( 'NONE', *, *, #84, .F. ) ;
#103 = STYLED_ITEM ( 'NONE', ( #37 ), #31 ) ;
#104 = EDGE_LOOP ( 'NONE', ( #6, #313 ) ) ;
#105 = AXIS2_PLACEMENT_3D ( 'NONE', #199, #17, #177 ) ;
#106 =( CONVERSION_BASED_UNIT ( 'INCH', #311 ) LENGTH_UNIT ( ) NAMED_UNIT ( #303 ) );
#107 = CARTESIAN_POINT ( 'NONE',  ( 0.3149105000000000931, 3.856541358428926856E-17, 0.0000000000000000000 ) ) ;
#108 = FILL_AREA_STYLE_COLOUR ( '', #45 ) ;
#109 = ORIENTED_EDGE ( 'NONE', *, *, #325, .F. ) ;
#110 = EDGE_CURVE ( 'NONE', #130, #164, #65, .T. ) ;
#111 = DIRECTION ( 'NONE',  ( -0.0000000000000000000, -0.0000000000000000000, -1.000000000000000000 ) ) ;
#112 = CIRCLE ( 'NONE', #315, 0.3149105000000001486 ) ;
#113 = CARTESIAN_POINT ( 'NONE',  ( 0.2999604999999996857, 3.673456661956392842E-17, 3.622047000000000239 ) ) ;
#114 = DIRECTION ( 'NONE',  ( -0.0000000000000000000, -0.0000000000000000000, -1.000000000000000000 ) ) ;
#115 = CARTESIAN_POINT ( 'NONE',  ( 0.0000000000000000000, 0.0000000000000000000, 0.0000000000000000000 ) ) ;
#116 = ADVANCED_FACE ( 'NONE', ( #219 ), #174, .T. ) ;
#117 = AXIS2_PLACEMENT_3D ( 'NONE', #94, #46, #203 ) ;
#118 = DIRECTION ( 'NONE',  ( 0.0000000000000000000, 0.0000000000000000000, 1.000000000000000000 ) ) ;
#119 = DIRECTION ( 'NONE',  ( 0.0000000000000000000, 0.0000000000000000000, 1.000000000000000000 ) ) ;
#120 = ADVANCED_FACE ( 'NONE', ( #271 ), #161, .T. ) ;
#121 = CARTESIAN_POINT ( 'NONE',  ( 0.0000000000000000000, 0.0000000000000000000, 1.707404996040164512E-17 ) ) ;
#122 = CIRCLE ( 'NONE', #135, 0.2999604999999996857 ) ;
#123 = STYLED_ITEM ( 'NONE', ( #27 ), #26 ) ;
#124 = CARTESIAN_POINT ( 'NONE',  ( 0.0000000000000000000, 0.0000000000000000000, 3.622047000000000239 ) ) ;
#125 = FACE_OUTER_BOUND ( 'NONE', #294, .T. ) ;
#126 = FACE_OUTER_BOUND ( 'NONE', #127, .T. ) ;
#127 = EDGE_LOOP ( 'NONE', ( #158, #32 ) ) ;
#128 = DIRECTION ( 'NONE',  ( 1.000000000000000000, 0.0000000000000000000, 0.0000000000000000000 ) ) ;
#129 = VECTOR ( 'NONE', #48, 39.37007874015748143 ) ;
#130 = VERTEX_POINT ( 'NONE', #220 ) ;
#131 = EDGE_CURVE ( 'NONE', #25, #136, #292, .T. ) ;
#132 = ORIENTED_EDGE ( 'NONE', *, *, #74, .F. ) ;
#133 = ADVANCED_FACE ( 'NONE', ( #196 ), #295, .T. ) ;
#134 =( LENGTH_UNIT ( ) NAMED_UNIT ( * ) SI_UNIT ( $, .METRE. ) );
#135 = AXIS2_PLACEMENT_3D ( 'NONE', #270, #118, #243 ) ;
#136 = VERTEX_POINT ( 'NONE', #287 ) ;
#137 = CONICAL_SURFACE ( 'NONE', #105, 0.007499999999999999722, 1.047197551196600296 ) ;
#138 = EDGE_CURVE ( 'NONE', #80, #164, #60, .T. ) ;
#139 = ORIENTED_EDGE ( 'NONE', *, *, #236, .F. ) ;
#140 = SHAPE_DEFINITION_REPRESENTATION ( #70, #26 ) ;
#141 = ORIENTED_EDGE ( 'NONE', *, *, #325, .T. ) ;
#142 =( LENGTH_UNIT ( ) NAMED_UNIT ( * ) SI_UNIT ( $, .METRE. ) );
#143 = COLOUR_RGB ( '',0.7921568627450980005, 0.8196078431372548767, 0.9333333333333333481 ) ;
#144 = AXIS2_PLACEMENT_3D ( 'NONE', #124, #302, #42 ) ;
#145 = ADVANCED_FACE ( 'NONE', ( #240 ), #10, .T. ) ;
#146 = DIRECTION ( 'NONE',  ( -0.8660254037844398178, 1.060575238724908517E-16, 0.4999999999999977240 ) ) ;
#147 = CARTESIAN_POINT ( 'NONE',  ( -0.007499999999999999722, 1.974194934182489380E-17, 1.707404996040164512E-17 ) ) ;
#148 = CIRCLE ( 'NONE', #79, 0.3149105000000000376 ) ;
#149 = DIRECTION ( 'NONE',  ( -0.0000000000000000000, -0.0000000000000000000, -1.000000000000000000 ) ) ;
#150 = ORIENTED_EDGE ( 'NONE', *, *, #21, .T. ) ;
#151 = DIRECTION ( 'NONE',  ( -0.0000000000000000000, -0.0000000000000000000, -1.000000000000000000 ) ) ;
#152 = DIRECTION ( 'NONE',  ( 1.000000000000000000, 0.0000000000000000000, -0.0000000000000000000 ) ) ;
#153 = AXIS2_PLACEMENT_3D ( 'NONE', #201, #96, #301 ) ;
#154 = DIRECTION ( 'NONE',  ( -0.0000000000000000000, -0.0000000000000000000, -1.000000000000000000 ) ) ;
#155 = DIRECTION ( 'NONE',  ( -0.0000000000000000000, -0.0000000000000000000, -1.000000000000000000 ) ) ;
#156 = CARTESIAN_POINT ( 'NONE',  ( 0.0000000000000000000, 0.0000000000000000000, 3.607046999999999226 ) ) ;
#157 = ORIENTED_EDGE ( 'NONE', *, *, #131, .F. ) ;
#158 = ORIENTED_EDGE ( 'NONE', *, *, #236, .T. ) ;
#159 = EDGE_CURVE ( 'NONE', #188, #41, #273, .T. ) ;
#160 =( NAMED_UNIT ( * ) PLANE_ANGLE_UNIT ( ) SI_UNIT ( $, .RADIAN. ) );
#161 = CONICAL_SURFACE ( 'NONE', #11, 0.007499999999999999722, 1.047197551196600296 ) ;
#162 = ORIENTED_EDGE ( 'NONE', *, *, #74, .T. ) ;
#163 = AXIS2_PLACEMENT_3D ( 'NONE', #176, #172, #128 ) ;
#164 = VERTEX_POINT ( 'NONE', #204 ) ;
#165 = ORIENTED_EDGE ( 'NONE', *, *, #227, .F. ) ;
#166 = APPLICATION_CONTEXT ( 'automotive_design' ) ;
#167 = CIRCLE ( 'NONE', #144, 0.2999604999999996857 ) ;
#168 = DIRECTION ( 'NONE',  ( -1.000000000000000000, 0.0000000000000000000, 0.0000000000000000000 ) ) ;
#169 = DIRECTION ( 'NONE',  ( 0.0000000000000000000, 0.0000000000000000000, -1.000000000000000000 ) ) ;
#170 = AXIS2_PLACEMENT_3D ( 'NONE', #225, #99, #152 ) ;
#171 = EDGE_CURVE ( 'NONE', #136, #5, #323, .T. ) ;
#172 = DIRECTION ( 'NONE',  ( 0.0000000000000000000, 0.0000000000000000000, -1.000000000000000000 ) ) ;
#173 = DIRECTION ( 'NONE',  ( 1.000000000000000000, 0.0000000000000000000, -0.0000000000000000000 ) ) ;
#174 = CONICAL_SURFACE ( 'NONE', #72, 0.2999604999999996857, 0.7853981633974324028 ) ;
#175 = DIRECTION ( 'NONE',  ( -0.0000000000000000000, -0.0000000000000000000, -1.000000000000000000 ) ) ;
#176 = CARTESIAN_POINT ( 'NONE',  ( 0.0000000000000000000, 0.0000000000000000000, 3.607046999999999226 ) ) ;
#177 = DIRECTION ( 'NONE',  ( 1.000000000000000000, 0.0000000000000000000, 0.0000000000000000000 ) ) ;
#178 = MECHANICAL_DESIGN_GEOMETRIC_PRESENTATION_REPRESENTATION (  '', ( #103 ), #56 ) ;
#179 = CIRCLE ( 'NONE', #163, 0.3149604999999999766 ) ;
#180 = ORIENTED_EDGE ( 'NONE', *, *, #159, .F. ) ;
#181 = APPLICATION_CONTEXT ( 'automotive_design' ) ;
#182 = DIRECTION ( 'NONE',  ( 0.0000000000000000000, 0.0000000000000000000, 1.000000000000000000 ) ) ;
#183 = EDGE_LOOP ( 'NONE', ( #157, #165, #233, #207 ) ) ;
#184 = ADVANCED_FACE ( 'NONE', ( #93 ), #278, .F. ) ;
#185 = CARTESIAN_POINT ( 'NONE',  ( 0.0000000000000000000, 0.0000000000000000000, 1.707404996040164512E-17 ) ) ;
#186 = CARTESIAN_POINT ( 'NONE',  ( 0.3149105000000001486, 3.856541358428927472E-17, 1.377952999999999983 ) ) ;
#187 = DIRECTION ( 'NONE',  ( -1.000000000000000000, 0.0000000000000000000, 0.0000000000000000000 ) ) ;
#188 = VERTEX_POINT ( 'NONE', #19 ) ;
#189 = ORIENTED_EDGE ( 'NONE', *, *, #97, .T. ) ;
#190 = DIRECTION ( 'NONE',  ( -0.0000000000000000000, -0.0000000000000000000, -1.000000000000000000 ) ) ;
#191 =( NAMED_UNIT ( * ) PLANE_ANGLE_UNIT ( ) SI_UNIT ( $, .RADIAN. ) );
#192 =( GEOMETRIC_REPRESENTATION_CONTEXT ( 3 ) GLOBAL_UNCERTAINTY_ASSIGNED_CONTEXT ( ( #291 ) ) GLOBAL_UNIT_ASSIGNED_CONTEXT ( ( #106, #160, #211 ) ) REPRESENTATION_CONTEXT ( 'NONE', 'WORKASPACE' ) );
#193 = CARTESIAN_POINT ( 'NONE',  ( 0.3149604999999999766, 3.857153681828499730E-17, 3.622047000000000239 ) ) ;
#194 = ADVANCED_FACE ( 'NONE', ( #252 ), #13, .T. ) ;
#195 = DIRECTION ( 'NONE',  ( -0.7071067811865362485, 0.0000000000000000000, -0.7071067811865587860 ) ) ;
#196 = FACE_OUTER_BOUND ( 'NONE', #77, .T. ) ;
#197 = UNCERTAINTY_MEASURE_WITH_UNIT (LENGTH_MEASURE( 1.000000000000000082E-05 ), #266, 'distance_accuracy_value', 'NONE');
#198 = AXIS2_PLACEMENT_3D ( 'NONE', #276, #200, #173 ) ;
#199 = CARTESIAN_POINT ( 'NONE',  ( 0.0000000000000000000, 0.0000000000000000000, 1.707404996040164512E-17 ) ) ;
#200 = DIRECTION ( 'NONE',  ( 0.0000000000000000000, 0.0000000000000000000, 1.000000000000000000 ) ) ;
#201 = CARTESIAN_POINT ( 'NONE',  ( 0.0000000000000000000, 0.0000000000000000000, 3.622047000000000239 ) ) ;
#202 = VECTOR ( 'NONE', #320, 39.37007874015748143 ) ;
#203 = DIRECTION ( 'NONE',  ( -1.000000000000000000, 0.0000000000000000000, 0.0000000000000000000 ) ) ;
#204 = CARTESIAN_POINT ( 'NONE',  ( -0.3149105000000000376, 3.856541358428926240E-17, 0.1774835349267163964 ) ) ;
#205 = EDGE_LOOP ( 'NONE', ( #66, #221, #282, #38 ) ) ;
#206 = DIRECTION ( 'NONE',  ( 1.000000000000000000, 0.0000000000000000000, 0.0000000000000000000 ) ) ;
#207 = ORIENTED_EDGE ( 'NONE', *, *, #171, .F. ) ;
#208 = DIRECTION ( 'NONE',  ( -0.0000000000000000000, -0.0000000000000000000, -1.000000000000000000 ) ) ;
#209 = ORIENTED_EDGE ( 'NONE', *, *, #217, .T. ) ;
#210 = ORIENTED_EDGE ( 'NONE', *, *, #95, .T. ) ;
#211 =( NAMED_UNIT ( * ) SI_UNIT ( $, .STERADIAN. ) SOLID_ANGLE_UNIT ( ) );
#212 = ORIENTED_EDGE ( 'NONE', *, *, #95, .F. ) ;
#213 = CARTESIAN_POINT ( 'NONE',  ( -0.2999604999999996857, 0.0000000000000000000, 3.622047000000000239 ) ) ;
#214 = ADVANCED_FACE ( 'NONE', ( #44 ), #137, .T. ) ;
#215 = DIRECTION ( 'NONE',  ( -0.0000000000000000000, -0.0000000000000000000, -1.000000000000000000 ) ) ;
#216 = AXIS2_PLACEMENT_3D ( 'NONE', #293, #114, #168 ) ;
#217 = EDGE_CURVE ( 'NONE', #80, #188, #267, .T. ) ;
#218 = AXIS2_PLACEMENT_3D ( 'NONE', #324, #76, #328 ) ;
#219 = FACE_OUTER_BOUND ( 'NONE', #310, .T. ) ;
#220 = CARTESIAN_POINT ( 'NONE',  ( -0.3149105000000001486, 0.0000000000000000000, 1.377952999999999983 ) ) ;
#221 = ORIENTED_EDGE ( 'NONE', *, *, #290, .T. ) ;
#222 = DIRECTION ( 'NONE',  ( -1.000000000000000000, 0.0000000000000000000, 0.0000000000000000000 ) ) ;
#223 = CONICAL_SURFACE ( 'NONE', #218, 0.2999604999999996857, 0.7853981633974324028 ) ;
#224 = FACE_OUTER_BOUND ( 'NONE', #183, .T. ) ;
#225 = CARTESIAN_POINT ( 'NONE',  ( 0.0000000000000000000, 0.0000000000000000000, 0.0000000000000000000 ) ) ;
#226 = DIRECTION ( 'NONE',  ( 1.000000000000000000, 0.0000000000000000000, 0.0000000000000000000 ) ) ;
#227 = EDGE_CURVE ( 'NONE', #18, #25, #167, .T. ) ;
#228 = DIRECTION ( 'NONE',  ( -1.000000000000000000, 0.0000000000000000000, 0.0000000000000000000 ) ) ;
#229 = EDGE_CURVE ( 'NONE', #164, #41, #29, .T. ) ;
#230 =( NAMED_UNIT ( * ) PLANE_ANGLE_UNIT ( ) SI_UNIT ( $, .RADIAN. ) );
#231 = SURFACE_SIDE_STYLE ('',( #33 ) ) ;
#232 = ORIENTED_EDGE ( 'NONE', *, *, #110, .F. ) ;
#233 = ORIENTED_EDGE ( 'NONE', *, *, #84, .T. ) ;
#234 = ORIENTED_EDGE ( 'NONE', *, *, #64, .F. ) ;
#235 = ORIENTED_EDGE ( 'NONE', *, *, #261, .T. ) ;
#236 = EDGE_CURVE ( 'NONE', #53, #312, #92, .T. ) ;
#237 = DIRECTION ( 'NONE',  ( -1.000000000000000000, 0.0000000000000000000, 0.0000000000000000000 ) ) ;
#238 = LENGTH_MEASURE_WITH_UNIT ( LENGTH_MEASURE( 0.02539999999999999897 ), #142 );
#239 = ADVANCED_FACE ( 'NONE', ( #69, #126 ), #299, .T. ) ;
#240 = FACE_OUTER_BOUND ( 'NONE', #205, .T. ) ;
#241 = VECTOR ( 'NONE', #215, 39.37007874015748143 ) ;
#242 = AXIS2_PLACEMENT_3D ( 'NONE', #115, #155, #321 ) ;
#243 = DIRECTION ( 'NONE',  ( 1.000000000000000000, 0.0000000000000000000, 0.0000000000000000000 ) ) ;
#244 = PRODUCT ( 'Micro_DMM-160-4120X', 'Micro_DMM-160-4120X', '', ( #260 ) ) ;
#245 = CARTESIAN_POINT ( 'NONE',  ( 0.007499999999999999722, 0.0000000000000000000, 1.707404996040164512E-17 ) ) ;
#246 = EDGE_CURVE ( 'NONE', #5, #136, #179, .T. ) ;
#247 = CARTESIAN_POINT ( 'NONE',  ( 0.0000000000000000000, 0.0000000000000000000, 1.377952999999999983 ) ) ;
#248 = VECTOR ( 'NONE', #12, 39.37007874015748143 ) ;
#249 = AXIS2_PLACEMENT_3D ( 'NONE', #156, #43, #226 ) ;
#250 = ADVANCED_FACE ( 'NONE', ( #224 ), #223, .T. ) ;
#251 = FACE_OUTER_BOUND ( 'NONE', #285, .T. ) ;
#252 = FACE_OUTER_BOUND ( 'NONE', #256, .T. ) ;
#253 = DIRECTION ( 'NONE',  ( -0.0000000000000000000, -0.0000000000000000000, -1.000000000000000000 ) ) ;
#254 = ORIENTED_EDGE ( 'NONE', *, *, #229, .T. ) ;
#255 =( NAMED_UNIT ( * ) SI_UNIT ( $, .STERADIAN. ) SOLID_ANGLE_UNIT ( ) );
#256 = EDGE_LOOP ( 'NONE', ( #30, #210 ) ) ;
#257 = CARTESIAN_POINT ( 'NONE',  ( -0.3149604999999999766, 0.0000000000000000000, 3.607046999999999226 ) ) ;
#258 =( GEOMETRIC_REPRESENTATION_CONTEXT ( 3 ) GLOBAL_UNCERTAINTY_ASSIGNED_CONTEXT ( ( #47 ) ) GLOBAL_UNIT_ASSIGNED_CONTEXT ( ( #284, #230, #255 ) ) REPRESENTATION_CONTEXT ( 'NONE', 'WORKASPACE' ) );
#259 = EDGE_LOOP ( 'NONE', ( #141, #209 ) ) ;
#260 = PRODUCT_CONTEXT ( 'NONE', #166, 'mechanical' ) ;
#261 = EDGE_CURVE ( 'NONE', #41, #164, #148, .T. ) ;
#262 = ORIENTED_EDGE ( 'NONE', *, *, #171, .T. ) ;
#263 = FILL_AREA_STYLE ('',( #283 ) ) ;
#264 = AXIS2_PLACEMENT_3D ( 'NONE', #272, #149, #237 ) ;
#265 = VECTOR ( 'NONE', #195, 39.37007874015748143 ) ;
#266 =( CONVERSION_BASED_UNIT ( 'INCH', #238 ) LENGTH_UNIT ( ) NAMED_UNIT ( #300 ) );
#267 = CIRCLE ( 'NONE', #22, 0.007499999999999999722 ) ;
#268 = ADVANCED_FACE ( 'NONE', ( #251 ), #15, .T. ) ;
#269 = DIRECTION ( 'NONE',  ( -0.0000000000000000000, -0.0000000000000000000, -1.000000000000000000 ) ) ;
#270 = CARTESIAN_POINT ( 'NONE',  ( 0.0000000000000000000, 0.0000000000000000000, 3.622047000000000239 ) ) ;
#271 = FACE_OUTER_BOUND ( 'NONE', #81, .T. ) ;
#272 = CARTESIAN_POINT ( 'NONE',  ( 0.0000000000000000000, 0.0000000000000000000, 1.377952999999999983 ) ) ;
#273 = LINE ( 'NONE', #245, #129 ) ;
#274 = ADVANCED_FACE ( 'NONE', ( #125 ), #326, .T. ) ;
#275 = CARTESIAN_POINT ( 'NONE',  ( 0.0000000000000000000, 0.0000000000000000000, 0.1774835349267163964 ) ) ;
#276 = CARTESIAN_POINT ( 'NONE',  ( 0.0000000000000000000, 0.0000000000000000000, 3.622047000000000239 ) ) ;
#277 = DIMENSIONAL_EXPONENTS ( 1.000000000000000000, 0.0000000000000000000, 0.0000000000000000000, 0.0000000000000000000, 0.0000000000000000000, 0.0000000000000000000, 0.0000000000000000000 ) ;
#278 = PLANE ( 'NONE',  #170 ) ;
#279 = CARTESIAN_POINT ( 'NONE',  ( 0.3149604999999999766, 3.857153681828499730E-17, 1.377952999999999983 ) ) ;
#280 = ORIENTED_EDGE ( 'NONE', *, *, #138, .F. ) ;
#281 = APPLICATION_PROTOCOL_DEFINITION ( 'draft international standard', 'automotive_design', 1998, #181 ) ;
#282 = ORIENTED_EDGE ( 'NONE', *, *, #110, .T. ) ;
#283 = FILL_AREA_STYLE_COLOUR ( '', #143 ) ;
#284 =( CONVERSION_BASED_UNIT ( 'INCH', #23 ) LENGTH_UNIT ( ) NAMED_UNIT ( #277 ) );
#285 = EDGE_LOOP ( 'NONE', ( #306, #262, #162, #234 ) ) ;
#286 = ORIENTED_EDGE ( 'NONE', *, *, #35, .T. ) ;
#287 = CARTESIAN_POINT ( 'NONE',  ( 0.3149604999999999766, 3.857153681828499730E-17, 3.607046999999999226 ) ) ;
#288 = AXIS2_PLACEMENT_3D ( 'NONE', #304, #151, #222 ) ;
#289 =( NAMED_UNIT ( * ) SI_UNIT ( $, .STERADIAN. ) SOLID_ANGLE_UNIT ( ) );
#290 = EDGE_CURVE ( 'NONE', #20, #130, #112, .T. ) ;
#291 = UNCERTAINTY_MEASURE_WITH_UNIT (LENGTH_MEASURE( 1.000000000000000082E-05 ), #106, 'distance_accuracy_value', 'NONE');
#292 = LINE ( 'NONE', #113, #202 ) ;
#293 = CARTESIAN_POINT ( 'NONE',  ( 0.0000000000000000000, 0.0000000000000000000, 1.377952999999999983 ) ) ;
#294 = EDGE_LOOP ( 'NONE', ( #58, #286, #139, #132 ) ) ;
#295 = CYLINDRICAL_SURFACE ( 'NONE', #67, 0.3149105000000000931 ) ;
#296 = VECTOR ( 'NONE', #146, 39.37007874015748143 ) ;
#297 = EDGE_LOOP ( 'NONE', ( #280, #109, #59, #235 ) ) ;
#298 = DIRECTION ( 'NONE',  ( -1.000000000000000000, 0.0000000000000000000, 0.0000000000000000000 ) ) ;
#299 = PLANE ( 'NONE',  #7 ) ;
#300 = DIMENSIONAL_EXPONENTS ( 1.000000000000000000, 0.0000000000000000000, 0.0000000000000000000, 0.0000000000000000000, 0.0000000000000000000, 0.0000000000000000000, 0.0000000000000000000 ) ;
#301 = DIRECTION ( 'NONE',  ( -1.000000000000000000, 0.0000000000000000000, 0.0000000000000000000 ) ) ;
#302 = DIRECTION ( 'NONE',  ( 0.0000000000000000000, 0.0000000000000000000, 1.000000000000000000 ) ) ;
#303 = DIMENSIONAL_EXPONENTS ( 1.000000000000000000, 0.0000000000000000000, 0.0000000000000000000, 0.0000000000000000000, 0.0000000000000000000, 0.0000000000000000000, 0.0000000000000000000 ) ;
#304 = CARTESIAN_POINT ( 'NONE',  ( 0.0000000000000000000, 0.0000000000000000000, 3.622047000000000239 ) ) ;
#305 = DIRECTION ( 'NONE',  ( -1.000000000000000000, 0.0000000000000000000, 0.0000000000000000000 ) ) ;
#306 = ORIENTED_EDGE ( 'NONE', *, *, #35, .F. ) ;
#307 = MECHANICAL_DESIGN_GEOMETRIC_PRESENTATION_REPRESENTATION (  '', ( #123 ), #192 ) ;
#308 = PRESENTATION_LAYER_ASSIGNMENT (  '', '', ( #123 ) ) ;
#309 = SURFACE_STYLE_FILL_AREA ( #50 ) ;
#310 = EDGE_LOOP ( 'NONE', ( #212, #1, #55, #102 ) ) ;
#311 = LENGTH_MEASURE_WITH_UNIT ( LENGTH_MEASURE( 0.02539999999999999897 ), #134 );
#312 = VERTEX_POINT ( 'NONE', #279 ) ;
#313 = ORIENTED_EDGE ( 'NONE', *, *, #290, .F. ) ;
#314 = CLOSED_SHELL ( 'NONE', ( #133, #120, #116, #274, #268, #194, #250, #239, #214, #145, #184 ) ) ;
#315 = AXIS2_PLACEMENT_3D ( 'NONE', #73, #175, #305 ) ;
#316 = CARTESIAN_POINT ( 'NONE',  ( 0.2999604999999996857, 3.765305171892445978E-17, 3.622047000000000239 ) ) ;
#317 = CARTESIAN_POINT ( 'NONE',  ( 0.0000000000000000000, 0.0000000000000000000, 0.0000000000000000000 ) ) ;
#318 = CARTESIAN_POINT ( 'NONE',  ( 0.0000000000000000000, 0.0000000000000000000, 3.622047000000000239 ) ) ;
#319 = PRODUCT_RELATED_PRODUCT_CATEGORY ( 'part', '', ( #244 ) ) ;
#320 = DIRECTION ( 'NONE',  ( 0.7071067811865362485, 8.659560562354796040E-17, -0.7071067811865587860 ) ) ;
#321 = DIRECTION ( 'NONE',  ( -1.000000000000000000, 0.0000000000000000000, 0.0000000000000000000 ) ) ;
#322 = PRESENTATION_LAYER_ASSIGNMENT (  '', '', ( #103 ) ) ;
#323 = CIRCLE ( 'NONE', #249, 0.3149604999999999766 ) ;
#324 = CARTESIAN_POINT ( 'NONE',  ( 0.0000000000000000000, 0.0000000000000000000, 3.622047000000000239 ) ) ;
#325 = EDGE_CURVE ( 'NONE', #188, #80, #2, .T. ) ;
#326 = CYLINDRICAL_SURFACE ( 'NONE', #153, 0.3149604999999999766 ) ;
#327 = DIRECTION ( 'NONE',  ( -0.0000000000000000000, -0.0000000000000000000, -1.000000000000000000 ) ) ;
#328 = DIRECTION ( 'NONE',  ( -1.000000000000000000, 0.0000000000000000000, 0.0000000000000000000 ) ) ;
#329 = SURFACE_STYLE_USAGE ( .BOTH. , #231 ) ;
ENDSEC;
END-ISO-10303-21;
