ISO-10303-21;
HEADER;
FILE_DESCRIPTION (( 'STEP AP214' ),
    '1' );
FILE_NAME ('Micro_RNC-125-1.STEP',
    '2021-09-03T17:33:07',
    ( '' ),
    ( '' ),
    'SwSTEP 2.0',
    'SolidWorks 2020',
    '' );
FILE_SCHEMA (( 'AUTOMOTIVE_DESIGN' ));
ENDSEC;

DATA;
#1 = ADVANCED_FACE ( 'NONE', ( #239 ), #201, .T. ) ;
#2 = AXIS2_PLACEMENT_3D ( 'NONE', #83, #234, #66 ) ;
#3 = DIMENSIONAL_EXPONENTS ( 1.000000000000000000, 0.0000000000000000000, 0.0000000000000000000, 0.0000000000000000000, 0.0000000000000000000, 0.0000000000000000000, 0.0000000000000000000 ) ;
#4 = EDGE_CURVE ( 'NONE', #117, #93, #137, .T. ) ;
#5 = DIRECTION ( 'NONE',  ( -1.000000000000000000, 0.0000000000000000000, 0.0000000000000000000 ) ) ;
#6 = CARTESIAN_POINT ( 'NONE',  ( 0.0000000000000000000, 0.0000000000000000000, 0.0000000000000000000 ) ) ;
#7 = DIRECTION ( 'NONE',  ( -0.0000000000000000000, -0.0000000000000000000, -1.000000000000000000 ) ) ;
#8 = AXIS2_PLACEMENT_3D ( 'NONE', #111, #42, #209 ) ;
#9 = DIRECTION ( 'NONE',  ( 0.0000000000000000000, 0.0000000000000000000, 1.000000000000000000 ) ) ;
#10 = ADVANCED_FACE ( 'NONE', ( #217 ), #168, .T. ) ;
#11 = SHAPE_DEFINITION_REPRESENTATION ( #84, #71 ) ;
#12 = CARTESIAN_POINT ( 'NONE',  ( 0.0000000000000000000, 0.0000000000000000000, 0.0000000000000000000 ) ) ;
#13 = AXIS2_PLACEMENT_3D ( 'NONE', #240, #198, #161 ) ;
#14 = CARTESIAN_POINT ( 'NONE',  ( 0.0000000000000000000, 0.0000000000000000000, 0.05849999999999978134 ) ) ;
#15 = VECTOR ( 'NONE', #38, 39.37007874015748143 ) ;
#16 = ORIENTED_EDGE ( 'NONE', *, *, #72, .F. ) ;
#17 = DIRECTION ( 'NONE',  ( -0.7071067811865487940, 8.659560562354948882E-17, 0.7071067811865462405 ) ) ;
#18 = FACE_OUTER_BOUND ( 'NONE', #203, .T. ) ;
#19 =( GEOMETRIC_REPRESENTATION_CONTEXT ( 3 ) GLOBAL_UNCERTAINTY_ASSIGNED_CONTEXT ( ( #195 ) ) GLOBAL_UNIT_ASSIGNED_CONTEXT ( ( #134, #30, #73 ) ) REPRESENTATION_CONTEXT ( 'NONE', 'WORKASPACE' ) );
#20 = SURFACE_SIDE_STYLE ('',( #108 ) ) ;
#21 = ORIENTED_EDGE ( 'NONE', *, *, #23, .T. ) ;
#22 =( LENGTH_UNIT ( ) NAMED_UNIT ( * ) SI_UNIT ( $, .METRE. ) );
#23 = EDGE_CURVE ( 'NONE', #35, #61, #238, .T. ) ;
#24 = DIRECTION ( 'NONE',  ( 0.0000000000000000000, 0.0000000000000000000, -1.000000000000000000 ) ) ;
#25 = DIMENSIONAL_EXPONENTS ( 1.000000000000000000, 0.0000000000000000000, 0.0000000000000000000, 0.0000000000000000000, 0.0000000000000000000, 0.0000000000000000000, 0.0000000000000000000 ) ;
#26 = AXIS2_PLACEMENT_3D ( 'NONE', #123, #107, #221 ) ;
#27 = DIRECTION ( 'NONE',  ( 0.7071067811865456854, 8.659560562354911904E-17, -0.7071067811865493491 ) ) ;
#28 = FILL_AREA_STYLE ('',( #115 ) ) ;
#29 = CIRCLE ( 'NONE', #41, 0.004000000000000000083 ) ;
#30 =( NAMED_UNIT ( * ) PLANE_ANGLE_UNIT ( ) SI_UNIT ( $, .RADIAN. ) );
#31 = ADVANCED_FACE ( 'NONE', ( #88 ), #200, .F. ) ;
#32 = LENGTH_MEASURE_WITH_UNIT ( LENGTH_MEASURE( 0.02539999999999999897 ), #54 );
#33 = ORIENTED_EDGE ( 'NONE', *, *, #116, .F. ) ;
#34 = PRODUCT_DEFINITION ( 'UNKNOWN', '', #140, #48 ) ;
#35 = VERTEX_POINT ( 'NONE', #87 ) ;
#36 = ORIENTED_EDGE ( 'NONE', *, *, #225, .F. ) ;
#37 = DIRECTION ( 'NONE',  ( -1.000000000000000000, 0.0000000000000000000, 0.0000000000000000000 ) ) ;
#38 = DIRECTION ( 'NONE',  ( -0.0000000000000000000, -0.0000000000000000000, -1.000000000000000000 ) ) ;
#39 = DIRECTION ( 'NONE',  ( -0.0000000000000000000, -0.0000000000000000000, -1.000000000000000000 ) ) ;
#40 = DIRECTION ( 'NONE',  ( -1.000000000000000000, 0.0000000000000000000, 0.0000000000000000000 ) ) ;
#41 = AXIS2_PLACEMENT_3D ( 'NONE', #6, #187, #5 ) ;
#42 = DIRECTION ( 'NONE',  ( -0.0000000000000000000, -0.0000000000000000000, -1.000000000000000000 ) ) ;
#43 = ORIENTED_EDGE ( 'NONE', *, *, #179, .T. ) ;
#44 = CARTESIAN_POINT ( 'NONE',  ( 0.04750000000000064587, 6.735557395310482421E-18, 1.500000000000000222 ) ) ;
#45 = CIRCLE ( 'NONE', #163, 0.04750000000000064587 ) ;
#46 = CIRCLE ( 'NONE', #158, 0.04750000000000064587 ) ;
#47 = EDGE_CURVE ( 'NONE', #93, #35, #118, .T. ) ;
#48 = PRODUCT_DEFINITION_CONTEXT ( 'detailed design', #98, 'design' ) ;
#49 = APPLICATION_PROTOCOL_DEFINITION ( 'draft international standard', 'automotive_design', 1998, #98 ) ;
#50 = DIRECTION ( 'NONE',  ( 0.0000000000000000000, 0.0000000000000000000, 1.000000000000000000 ) ) ;
#51 = ADVANCED_FACE ( 'NONE', ( #204 ), #166, .T. ) ;
#52 = DIRECTION ( 'NONE',  ( 1.000000000000000000, 0.0000000000000000000, -0.0000000000000000000 ) ) ;
#53 = ADVANCED_FACE ( 'NONE', ( #185 ), #244, .T. ) ;
#54 =( LENGTH_UNIT ( ) NAMED_UNIT ( * ) SI_UNIT ( $, .METRE. ) );
#55 = ORIENTED_EDGE ( 'NONE', *, *, #76, .F. ) ;
#56 = CLOSED_SHELL ( 'NONE', ( #1, #165, #113, #51, #53, #231, #10, #31 ) ) ;
#57 = ORIENTED_EDGE ( 'NONE', *, *, #95, .T. ) ;
#58 = ORIENTED_EDGE ( 'NONE', *, *, #47, .F. ) ;
#59 = PRESENTATION_STYLE_ASSIGNMENT (( #92 ) ) ;
#60 = CONICAL_SURFACE ( 'NONE', #2, 0.04750000000000064587, 0.7853981633974457255 ) ;
#61 = VERTEX_POINT ( 'NONE', #105 ) ;
#62 = CARTESIAN_POINT ( 'NONE',  ( 0.0000000000000000000, 0.0000000000000000000, 1.500000000000000222 ) ) ;
#63 = DIRECTION ( 'NONE',  ( 1.000000000000000000, 0.0000000000000000000, -0.0000000000000000000 ) ) ;
#64 = CIRCLE ( 'NONE', #190, 0.004000000000000000083 ) ;
#65 = ORIENTED_EDGE ( 'NONE', *, *, #155, .T. ) ;
#66 = DIRECTION ( 'NONE',  ( -1.000000000000000000, 0.0000000000000000000, 0.0000000000000000000 ) ) ;
#67 = SURFACE_STYLE_USAGE ( .BOTH. , #228 ) ;
#68 = FACE_OUTER_BOUND ( 'NONE', #162, .T. ) ;
#69 = AXIS2_PLACEMENT_3D ( 'NONE', #12, #103, #177 ) ;
#70 =( CONVERSION_BASED_UNIT ( 'INCH', #170 ) LENGTH_UNIT ( ) NAMED_UNIT ( #3 ) );
#71 = ADVANCED_BREP_SHAPE_REPRESENTATION ( 'Micro_RNC-125-1', ( #106, #13 ), #219 ) ;
#72 = EDGE_CURVE ( 'NONE', #93, #196, #122, .T. ) ;
#73 =( NAMED_UNIT ( * ) SI_UNIT ( $, .STERADIAN. ) SOLID_ANGLE_UNIT ( ) );
#74 = EDGE_LOOP ( 'NONE', ( #235, #202 ) ) ;
#75 = FILL_AREA_STYLE ('',( #248 ) ) ;
#76 = EDGE_CURVE ( 'NONE', #237, #35, #181, .T. ) ;
#77 = CARTESIAN_POINT ( 'NONE',  ( -0.06250000000000000000, 0.0000000000000000000, 1.500000000000000222 ) ) ;
#78 = STYLED_ITEM ( 'NONE', ( #131 ), #71 ) ;
#79 = DIRECTION ( 'NONE',  ( 0.0000000000000000000, 0.0000000000000000000, 1.000000000000000000 ) ) ;
#80 = ORIENTED_EDGE ( 'NONE', *, *, #47, .T. ) ;
#81 = CARTESIAN_POINT ( 'NONE',  ( 0.0000000000000000000, 0.0000000000000000000, 1.485000000000000764 ) ) ;
#82 = VECTOR ( 'NONE', #7, 39.37007874015748143 ) ;
#83 = CARTESIAN_POINT ( 'NONE',  ( 0.0000000000000000000, 0.0000000000000000000, 1.500000000000000222 ) ) ;
#84 = PRODUCT_DEFINITION_SHAPE ( 'NONE', 'NONE',  #34 ) ;
#85 = AXIS2_PLACEMENT_3D ( 'NONE', #214, #9, #52 ) ;
#86 = CARTESIAN_POINT ( 'NONE',  ( 0.0000000000000000000, 0.0000000000000000000, 1.500000000000000222 ) ) ;
#87 = CARTESIAN_POINT ( 'NONE',  ( -0.06250000000000000000, 0.0000000000000000000, 0.05849999999999978134 ) ) ;
#88 = FACE_OUTER_BOUND ( 'NONE', #241, .T. ) ;
#89 = ORIENTED_EDGE ( 'NONE', *, *, #76, .T. ) ;
#90 = DIRECTION ( 'NONE',  ( 0.0000000000000000000, 0.0000000000000000000, 1.000000000000000000 ) ) ;
#91 = VECTOR ( 'NONE', #17, 39.37007874015748143 ) ;
#92 = SURFACE_STYLE_USAGE ( .BOTH. , #20 ) ;
#93 = VERTEX_POINT ( 'NONE', #145 ) ;
#94 = DIRECTION ( 'NONE',  ( -1.000000000000000000, 0.0000000000000000000, 0.0000000000000000000 ) ) ;
#95 = EDGE_CURVE ( 'NONE', #156, #237, #64, .T. ) ;
#96 = VECTOR ( 'NONE', #27, 39.37007874015748143 ) ;
#97 = CARTESIAN_POINT ( 'NONE',  ( 0.004000000000000000083, 0.0000000000000000000, 0.0000000000000000000 ) ) ;
#98 = APPLICATION_CONTEXT ( 'automotive_design' ) ;
#99 = SURFACE_STYLE_FILL_AREA ( #28 ) ;
#100 = PRESENTATION_LAYER_ASSIGNMENT (  '', '', ( #119 ) ) ;
#101 = PRODUCT_CONTEXT ( 'NONE', #245, 'mechanical' ) ;
#102 = MECHANICAL_DESIGN_GEOMETRIC_PRESENTATION_REPRESENTATION (  '', ( #78 ), #19 ) ;
#103 = DIRECTION ( 'NONE',  ( 0.0000000000000000000, 0.0000000000000000000, 1.000000000000000000 ) ) ;
#104 =( NAMED_UNIT ( * ) SI_UNIT ( $, .STERADIAN. ) SOLID_ANGLE_UNIT ( ) );
#105 = CARTESIAN_POINT ( 'NONE',  ( 0.06250000000000000000, 7.654042494670956004E-18, 0.05849999999999978134 ) ) ;
#106 = MANIFOLD_SOLID_BREP ( 'Cut-Revolve1', #56 ) ;
#107 = DIRECTION ( 'NONE',  ( -0.0000000000000000000, -0.0000000000000000000, -1.000000000000000000 ) ) ;
#108 = SURFACE_STYLE_FILL_AREA ( #75 ) ;
#109 = DIRECTION ( 'NONE',  ( 0.7071067811865487940, 0.0000000000000000000, 0.7071067811865462405 ) ) ;
#110 = DIRECTION ( 'NONE',  ( 1.000000000000000000, 0.0000000000000000000, 0.0000000000000000000 ) ) ;
#111 = CARTESIAN_POINT ( 'NONE',  ( 0.0000000000000000000, 0.0000000000000000000, 0.05849999999999978134 ) ) ;
#112 = CIRCLE ( 'NONE', #212, 0.06250000000000000000 ) ;
#113 = ADVANCED_FACE ( 'NONE', ( #18 ), #218, .T. ) ;
#114 = DIRECTION ( 'NONE',  ( 0.0000000000000000000, 0.0000000000000000000, -1.000000000000000000 ) ) ;
#115 = FILL_AREA_STYLE_COLOUR ( '', #143 ) ;
#116 = EDGE_CURVE ( 'NONE', #117, #186, #46, .T. ) ;
#117 = VERTEX_POINT ( 'NONE', #191 ) ;
#118 = LINE ( 'NONE', #77, #15 ) ;
#119 = STYLED_ITEM ( 'NONE', ( #59 ), #106 ) ;
#120 = DIRECTION ( 'NONE',  ( -0.0000000000000000000, -0.0000000000000000000, -1.000000000000000000 ) ) ;
#121 = ORIENTED_EDGE ( 'NONE', *, *, #179, .F. ) ;
#122 = CIRCLE ( 'NONE', #149, 0.06250000000000000000 ) ;
#123 = CARTESIAN_POINT ( 'NONE',  ( 0.0000000000000000000, 0.0000000000000000000, 1.500000000000000222 ) ) ;
#124 = ORIENTED_EDGE ( 'NONE', *, *, #129, .F. ) ;
#125 = CARTESIAN_POINT ( 'NONE',  ( 0.0000000000000000000, 0.0000000000000000000, 1.500000000000000222 ) ) ;
#126 = CARTESIAN_POINT ( 'NONE',  ( 0.0000000000000000000, 0.0000000000000000000, 1.500000000000000222 ) ) ;
#127 = AXIS2_PLACEMENT_3D ( 'NONE', #171, #24, #94 ) ;
#128 = ORIENTED_EDGE ( 'NONE', *, *, #132, .F. ) ;
#129 = EDGE_CURVE ( 'NONE', #156, #61, #172, .T. ) ;
#130 = CARTESIAN_POINT ( 'NONE',  ( 0.004000000000000000083, 0.0000000000000000000, 0.0000000000000000000 ) ) ;
#131 = PRESENTATION_STYLE_ASSIGNMENT (( #67 ) ) ;
#132 = EDGE_CURVE ( 'NONE', #61, #35, #174, .T. ) ;
#133 =( GEOMETRIC_REPRESENTATION_CONTEXT ( 3 ) GLOBAL_UNCERTAINTY_ASSIGNED_CONTEXT ( ( #236 ) ) GLOBAL_UNIT_ASSIGNED_CONTEXT ( ( #167, #183, #104 ) ) REPRESENTATION_CONTEXT ( 'NONE', 'WORKASPACE' ) );
#134 =( CONVERSION_BASED_UNIT ( 'INCH', #32 ) LENGTH_UNIT ( ) NAMED_UNIT ( #25 ) );
#135 = ORIENTED_EDGE ( 'NONE', *, *, #150, .T. ) ;
#136 = CARTESIAN_POINT ( 'NONE',  ( 0.0000000000000000000, 0.0000000000000000000, 0.0000000000000000000 ) ) ;
#137 = LINE ( 'NONE', #175, #184 ) ;
#138 = EDGE_LOOP ( 'NONE', ( #121, #89, #21, #124 ) ) ;
#139 = CONICAL_SURFACE ( 'NONE', #127, 0.04750000000000064587, 0.7853981633974457255 ) ;
#140 = PRODUCT_DEFINITION_FORMATION_WITH_SPECIFIED_SOURCE ( 'ANY', '', #178, .NOT_KNOWN. ) ;
#141 = ORIENTED_EDGE ( 'NONE', *, *, #132, .T. ) ;
#142 = DIRECTION ( 'NONE',  ( -1.000000000000000000, 0.0000000000000000000, 0.0000000000000000000 ) ) ;
#143 = COLOUR_RGB ( '',0.7921568627450980005, 0.8196078431372548767, 0.9333333333333333481 ) ;
#144 = DIRECTION ( 'NONE',  ( 0.0000000000000000000, 0.0000000000000000000, -1.000000000000000000 ) ) ;
#145 = CARTESIAN_POINT ( 'NONE',  ( -0.06250000000000000000, 0.0000000000000000000, 1.485000000000000764 ) ) ;
#146 = CARTESIAN_POINT ( 'NONE',  ( 0.0000000000000000000, 0.0000000000000000000, 0.0000000000000000000 ) ) ;
#147 = ORIENTED_EDGE ( 'NONE', *, *, #95, .F. ) ;
#148 = DIRECTION ( 'NONE',  ( 0.0000000000000000000, 0.0000000000000000000, 1.000000000000000000 ) ) ;
#149 = AXIS2_PLACEMENT_3D ( 'NONE', #223, #144, #222 ) ;
#150 = EDGE_CURVE ( 'NONE', #196, #61, #173, .T. ) ;
#151 =( NAMED_UNIT ( * ) PLANE_ANGLE_UNIT ( ) SI_UNIT ( $, .RADIAN. ) );
#152 = CARTESIAN_POINT ( 'NONE',  ( 0.06250000000000000000, 7.654042494670956004E-18, 1.500000000000000222 ) ) ;
#153 = VECTOR ( 'NONE', #109, 39.37007874015748143 ) ;
#154 = DIRECTION ( 'NONE',  ( 1.000000000000000000, 0.0000000000000000000, 0.0000000000000000000 ) ) ;
#155 = EDGE_CURVE ( 'NONE', #186, #196, #189, .T. ) ;
#156 = VERTEX_POINT ( 'NONE', #97 ) ;
#157 = ORIENTED_EDGE ( 'NONE', *, *, #72, .T. ) ;
#158 = AXIS2_PLACEMENT_3D ( 'NONE', #62, #90, #110 ) ;
#159 = UNCERTAINTY_MEASURE_WITH_UNIT (LENGTH_MEASURE( 1.000000000000000082E-05 ), #70, 'distance_accuracy_value', 'NONE');
#160 = ORIENTED_EDGE ( 'NONE', *, *, #4, .F. ) ;
#161 = DIRECTION ( 'NONE',  ( 1.000000000000000000, 0.0000000000000000000, 0.0000000000000000000 ) ) ;
#162 = EDGE_LOOP ( 'NONE', ( #243, #33, #199, #36 ) ) ;
#163 = AXIS2_PLACEMENT_3D ( 'NONE', #86, #148, #154 ) ;
#164 = CARTESIAN_POINT ( 'NONE',  ( -0.004000000000000000083, 4.898587196589413537E-19, 0.0000000000000000000 ) ) ;
#165 = ADVANCED_FACE ( 'NONE', ( #232 ), #139, .T. ) ;
#166 = CYLINDRICAL_SURFACE ( 'NONE', #197, 0.06250000000000000000 ) ;
#167 =( CONVERSION_BASED_UNIT ( 'INCH', #246 ) LENGTH_UNIT ( ) NAMED_UNIT ( #229 ) );
#168 = CONICAL_SURFACE ( 'NONE', #69, 0.004000000000000000083, 0.7853981633974501664 ) ;
#169 = ORIENTED_EDGE ( 'NONE', *, *, #225, .T. ) ;
#170 = LENGTH_MEASURE_WITH_UNIT ( LENGTH_MEASURE( 0.02539999999999999897 ), #22 );
#171 = CARTESIAN_POINT ( 'NONE',  ( 0.0000000000000000000, 0.0000000000000000000, 1.500000000000000222 ) ) ;
#172 = LINE ( 'NONE', #130, #153 ) ;
#173 = LINE ( 'NONE', #152, #82 ) ;
#174 = CIRCLE ( 'NONE', #8, 0.06250000000000000000 ) ;
#175 = CARTESIAN_POINT ( 'NONE',  ( -0.04750000000000064587, 0.0000000000000000000, 1.500000000000000222 ) ) ;
#176 = PRODUCT_RELATED_PRODUCT_CATEGORY ( 'part', '', ( #178 ) ) ;
#177 = DIRECTION ( 'NONE',  ( 1.000000000000000000, 0.0000000000000000000, 0.0000000000000000000 ) ) ;
#178 = PRODUCT ( 'Micro_RNC-125-1', 'Micro_RNC-125-1', '', ( #101 ) ) ;
#179 = EDGE_CURVE ( 'NONE', #237, #156, #29, .T. ) ;
#180 = AXIS2_PLACEMENT_3D ( 'NONE', #136, #50, #242 ) ;
#181 = LINE ( 'NONE', #164, #91 ) ;
#182 = EDGE_LOOP ( 'NONE', ( #55, #147, #226, #141 ) ) ;
#183 =( NAMED_UNIT ( * ) PLANE_ANGLE_UNIT ( ) SI_UNIT ( $, .RADIAN. ) );
#184 = VECTOR ( 'NONE', #213, 39.37007874015748143 ) ;
#185 = FACE_OUTER_BOUND ( 'NONE', #74, .T. ) ;
#186 = VERTEX_POINT ( 'NONE', #44 ) ;
#187 = DIRECTION ( 'NONE',  ( -0.0000000000000000000, -0.0000000000000000000, -1.000000000000000000 ) ) ;
#188 = CARTESIAN_POINT ( 'NONE',  ( 0.04750000000000064587, 5.817072295950006528E-18, 1.500000000000000222 ) ) ;
#189 = LINE ( 'NONE', #188, #96 ) ;
#190 = AXIS2_PLACEMENT_3D ( 'NONE', #146, #247, #40 ) ;
#191 = CARTESIAN_POINT ( 'NONE',  ( -0.04750000000000064587, 0.0000000000000000000, 1.500000000000000222 ) ) ;
#192 = CARTESIAN_POINT ( 'NONE',  ( -0.004000000000000000083, 4.071950607164948872E-18, 0.0000000000000000000 ) ) ;
#193 = EDGE_LOOP ( 'NONE', ( #249, #169, #80, #128 ) ) ;
#194 = EDGE_CURVE ( 'NONE', #186, #117, #45, .T. ) ;
#195 = UNCERTAINTY_MEASURE_WITH_UNIT (LENGTH_MEASURE( 1.000000000000000082E-05 ), #134, 'distance_accuracy_value', 'NONE');
#196 = VERTEX_POINT ( 'NONE', #208 ) ;
#197 = AXIS2_PLACEMENT_3D ( 'NONE', #125, #39, #142 ) ;
#198 = DIRECTION ( 'NONE',  ( 0.0000000000000000000, 0.0000000000000000000, 1.000000000000000000 ) ) ;
#199 = ORIENTED_EDGE ( 'NONE', *, *, #4, .T. ) ;
#200 = PLANE ( 'NONE',  #85 ) ;
#201 = CONICAL_SURFACE ( 'NONE', #180, 0.004000000000000000083, 0.7853981633974501664 ) ;
#202 = ORIENTED_EDGE ( 'NONE', *, *, #194, .T. ) ;
#203 = EDGE_LOOP ( 'NONE', ( #157, #135, #207, #58 ) ) ;
#204 = FACE_OUTER_BOUND ( 'NONE', #193, .T. ) ;
#205 = AXIS2_PLACEMENT_3D ( 'NONE', #126, #79, #63 ) ;
#206 =( LENGTH_UNIT ( ) NAMED_UNIT ( * ) SI_UNIT ( $, .METRE. ) );
#207 = ORIENTED_EDGE ( 'NONE', *, *, #23, .F. ) ;
#208 = CARTESIAN_POINT ( 'NONE',  ( 0.06250000000000000000, 7.654042494670956004E-18, 1.485000000000000764 ) ) ;
#209 = DIRECTION ( 'NONE',  ( -1.000000000000000000, 0.0000000000000000000, 0.0000000000000000000 ) ) ;
#210 = PRESENTATION_LAYER_ASSIGNMENT (  '', '', ( #78 ) ) ;
#211 =( NAMED_UNIT ( * ) SI_UNIT ( $, .STERADIAN. ) SOLID_ANGLE_UNIT ( ) );
#212 = AXIS2_PLACEMENT_3D ( 'NONE', #81, #114, #227 ) ;
#213 = DIRECTION ( 'NONE',  ( -0.7071067811865456854, 0.0000000000000000000, -0.7071067811865493491 ) ) ;
#214 = CARTESIAN_POINT ( 'NONE',  ( 0.0000000000000000000, 0.0000000000000000000, 0.0000000000000000000 ) ) ;
#215 = ORIENTED_EDGE ( 'NONE', *, *, #194, .F. ) ;
#216 = MECHANICAL_DESIGN_GEOMETRIC_PRESENTATION_REPRESENTATION (  '', ( #119 ), #133 ) ;
#217 = FACE_OUTER_BOUND ( 'NONE', #182, .T. ) ;
#218 = CYLINDRICAL_SURFACE ( 'NONE', #26, 0.06250000000000000000 ) ;
#219 =( GEOMETRIC_REPRESENTATION_CONTEXT ( 3 ) GLOBAL_UNCERTAINTY_ASSIGNED_CONTEXT ( ( #159 ) ) GLOBAL_UNIT_ASSIGNED_CONTEXT ( ( #70, #151, #211 ) ) REPRESENTATION_CONTEXT ( 'NONE', 'WORKASPACE' ) );
#220 = EDGE_LOOP ( 'NONE', ( #215, #65, #16, #160 ) ) ;
#221 = DIRECTION ( 'NONE',  ( -1.000000000000000000, 0.0000000000000000000, 0.0000000000000000000 ) ) ;
#222 = DIRECTION ( 'NONE',  ( 1.000000000000000000, 0.0000000000000000000, 0.0000000000000000000 ) ) ;
#223 = CARTESIAN_POINT ( 'NONE',  ( 0.0000000000000000000, 0.0000000000000000000, 1.485000000000000764 ) ) ;
#224 = AXIS2_PLACEMENT_3D ( 'NONE', #14, #120, #37 ) ;
#225 = EDGE_CURVE ( 'NONE', #196, #93, #112, .T. ) ;
#226 = ORIENTED_EDGE ( 'NONE', *, *, #129, .T. ) ;
#227 = DIRECTION ( 'NONE',  ( 1.000000000000000000, 0.0000000000000000000, 0.0000000000000000000 ) ) ;
#228 = SURFACE_SIDE_STYLE ('',( #99 ) ) ;
#229 = DIMENSIONAL_EXPONENTS ( 1.000000000000000000, 0.0000000000000000000, 0.0000000000000000000, 0.0000000000000000000, 0.0000000000000000000, 0.0000000000000000000, 0.0000000000000000000 ) ;
#230 = APPLICATION_PROTOCOL_DEFINITION ( 'draft international standard', 'automotive_design', 1998, #245 ) ;
#231 = ADVANCED_FACE ( 'NONE', ( #68 ), #60, .T. ) ;
#232 = FACE_OUTER_BOUND ( 'NONE', #220, .T. ) ;
#233 = COLOUR_RGB ( '',0.7921568627450980005, 0.8196078431372548767, 0.9333333333333333481 ) ;
#234 = DIRECTION ( 'NONE',  ( 0.0000000000000000000, 0.0000000000000000000, -1.000000000000000000 ) ) ;
#235 = ORIENTED_EDGE ( 'NONE', *, *, #116, .T. ) ;
#236 = UNCERTAINTY_MEASURE_WITH_UNIT (LENGTH_MEASURE( 1.000000000000000082E-05 ), #167, 'distance_accuracy_value', 'NONE');
#237 = VERTEX_POINT ( 'NONE', #192 ) ;
#238 = CIRCLE ( 'NONE', #224, 0.06250000000000000000 ) ;
#239 = FACE_OUTER_BOUND ( 'NONE', #138, .T. ) ;
#240 = CARTESIAN_POINT ( 'NONE',  ( 0.0000000000000000000, 0.0000000000000000000, 0.0000000000000000000 ) ) ;
#241 = EDGE_LOOP ( 'NONE', ( #57, #43 ) ) ;
#242 = DIRECTION ( 'NONE',  ( 1.000000000000000000, 0.0000000000000000000, 0.0000000000000000000 ) ) ;
#243 = ORIENTED_EDGE ( 'NONE', *, *, #155, .F. ) ;
#244 = PLANE ( 'NONE',  #205 ) ;
#245 = APPLICATION_CONTEXT ( 'automotive_design' ) ;
#246 = LENGTH_MEASURE_WITH_UNIT ( LENGTH_MEASURE( 0.02539999999999999897 ), #206 );
#247 = DIRECTION ( 'NONE',  ( -0.0000000000000000000, -0.0000000000000000000, -1.000000000000000000 ) ) ;
#248 = FILL_AREA_STYLE_COLOUR ( '', #233 ) ;
#249 = ORIENTED_EDGE ( 'NONE', *, *, #150, .F. ) ;
ENDSEC;
END-ISO-10303-21;
