ISO-10303-21;
HEADER;
FILE_DESCRIPTION (( 'STEP AP214' ),
    '1' );
FILE_NAME ('24182.STEP',
    '2023-06-22T17:01:11',
    ( '' ),
    ( '' ),
    'SwSTEP 2.0',
    'SolidWorks 2023',
    '' );
FILE_SCHEMA (( 'AUTOMOTIVE_DESIGN' ));
ENDSEC;

DATA;
#1 = DIRECTION ( 'NONE',  ( -0.000000000000000000, -1.000000000000000000, -0.000000000000000000 ) ) ;
#2 = FILL_AREA_STYLE_COLOUR ( '', #157 ) ;
#3 = AXIS2_PLACEMENT_3D ( 'NONE', #306, #161, #281 ) ;
#4 =( LENGTH_UNIT ( ) NAMED_UNIT ( * ) SI_UNIT ( $, .METRE. ) );
#5 = LENGTH_MEASURE_WITH_UNIT ( LENGTH_MEASURE( 0.02539999999999999897 ), #33 );
#6 = EDGE_CURVE ( 'NONE', #285, #140, #254, .T. ) ;
#7 = DIMENSIONAL_EXPONENTS ( 1.000000000000000000, 0.000000000000000000, 0.000000000000000000, 0.000000000000000000, 0.000000000000000000, 0.000000000000000000, 0.000000000000000000 ) ;
#8 = COLOUR_RGB ( '',0.7921568627450980005, 0.8196078431372548767, 0.9333333333333333481 ) ;
#9 = LENGTH_MEASURE_WITH_UNIT ( LENGTH_MEASURE( 0.02539999999999999897 ), #221 );
#10 = ADVANCED_FACE ( 'NONE', ( #169 ), #64, .T. ) ;
#11 = DIRECTION ( 'NONE',  ( 0.000000000000000000, 0.000000000000000000, 1.000000000000000000 ) ) ;
#12 = SURFACE_STYLE_USAGE ( .BOTH. , #83 ) ;
#13 =( NAMED_UNIT ( * ) PLANE_ANGLE_UNIT ( ) SI_UNIT ( $, .RADIAN. ) );
#14 = PRESENTATION_LAYER_ASSIGNMENT (  '', '', ( #69 ) ) ;
#15 = PRODUCT_DEFINITION ( 'UNKNOWN', '', #173, #264 ) ;
#16 = SURFACE_STYLE_USAGE ( .BOTH. , #205 ) ;
#17 = ORIENTED_EDGE ( 'NONE', *, *, #272, .F. ) ;
#18 = ORIENTED_EDGE ( 'NONE', *, *, #272, .T. ) ;
#19 = AXIS2_PLACEMENT_3D ( 'NONE', #108, #72, #278 ) ;
#20 = SURFACE_SIDE_STYLE ('',( #210 ) ) ;
#21 = EDGE_LOOP ( 'NONE', ( #284, #234 ) ) ;
#22 = DIRECTION ( 'NONE',  ( -1.000000000000000000, 0.000000000000000000, 0.000000000000000000 ) ) ;
#23 = SURFACE_STYLE_USAGE ( .BOTH. , #20 ) ;
#24 = ORIENTED_EDGE ( 'NONE', *, *, #267, .T. ) ;
#25 = AXIS2_PLACEMENT_3D ( 'NONE', #144, #27, #97 ) ;
#26 = EDGE_CURVE ( 'NONE', #91, #260, #129, .T. ) ;
#27 = DIRECTION ( 'NONE',  ( -3.768143997376470743E-17, 1.000000000000000000, -0.000000000000000000 ) ) ;
#28 =( NAMED_UNIT ( * ) SI_UNIT ( $, .STERADIAN. ) SOLID_ANGLE_UNIT ( ) );
#29 =( GEOMETRIC_REPRESENTATION_CONTEXT ( 3 ) GLOBAL_UNCERTAINTY_ASSIGNED_CONTEXT ( ( #141 ) ) GLOBAL_UNIT_ASSIGNED_CONTEXT ( ( #98, #246, #209 ) ) REPRESENTATION_CONTEXT ( 'NONE', 'WORKASPACE' ) );
#30 = PRESENTATION_STYLE_ASSIGNMENT (( #240 ) ) ;
#31 = AXIS2_PLACEMENT_3D ( 'NONE', #63, #41, #130 ) ;
#32 = ADVANCED_FACE ( 'NONE', ( #44 ), #134, .T. ) ;
#33 =( LENGTH_UNIT ( ) NAMED_UNIT ( * ) SI_UNIT ( $, .METRE. ) );
#34 = FILL_AREA_STYLE_COLOUR ( '', #8 ) ;
#35 = CLOSED_SHELL ( 'NONE', ( #10, #243, #122, #82 ) ) ;
#36 =( NAMED_UNIT ( * ) PLANE_ANGLE_UNIT ( ) SI_UNIT ( $, .RADIAN. ) );
#37 = FILL_AREA_STYLE_COLOUR ( '', #151 ) ;
#38 = AXIS2_PLACEMENT_3D ( 'NONE', #110, #90, #186 ) ;
#39 = FACE_OUTER_BOUND ( 'NONE', #115, .T. ) ;
#40 =( GEOMETRIC_REPRESENTATION_CONTEXT ( 3 ) GLOBAL_UNCERTAINTY_ASSIGNED_CONTEXT ( ( #95 ) ) GLOBAL_UNIT_ASSIGNED_CONTEXT ( ( #170, #52, #28 ) ) REPRESENTATION_CONTEXT ( 'NONE', 'WORKASPACE' ) );
#41 = DIRECTION ( 'NONE',  ( -3.768143997376470743E-17, 1.000000000000000000, 0.000000000000000000 ) ) ;
#42 = EDGE_LOOP ( 'NONE', ( #280, #142 ) ) ;
#43 = LENGTH_MEASURE_WITH_UNIT ( LENGTH_MEASURE( 0.02539999999999999897 ), #279 );
#44 = FACE_OUTER_BOUND ( 'NONE', #138, .T. ) ;
#45 = CIRCLE ( 'NONE', #255, 0.1874999999999999722 ) ;
#46 = VERTEX_POINT ( 'NONE', #266 ) ;
#47 = FACE_OUTER_BOUND ( 'NONE', #42, .T. ) ;
#48 = EDGE_LOOP ( 'NONE', ( #187, #185 ) ) ;
#49 = EDGE_CURVE ( 'NONE', #89, #140, #116, .T. ) ;
#50 = AXIS2_PLACEMENT_3D ( 'NONE', #268, #289, #214 ) ;
#51 = COLOUR_RGB ( '',1.000000000000000000, 0.000000000000000000, 0.000000000000000000 ) ;
#52 =( NAMED_UNIT ( * ) PLANE_ANGLE_UNIT ( ) SI_UNIT ( $, .RADIAN. ) );
#53 = LINE ( 'NONE', #123, #295 ) ;
#54 = UNCERTAINTY_MEASURE_WITH_UNIT (LENGTH_MEASURE( 1.000000000000000082E-05 ), #298, 'distance_accuracy_value', 'NONE');
#55 = FACE_OUTER_BOUND ( 'NONE', #48, .T. ) ;
#56 = COLOUR_RGB ( '',1.000000000000000000, 0.000000000000000000, 0.000000000000000000 ) ;
#57 = PRODUCT_DEFINITION_SHAPE ( 'NONE', 'NONE',  #15 ) ;
#58 = VECTOR ( 'NONE', #93, 39.37007874015748143 ) ;
#59 = CYLINDRICAL_SURFACE ( 'NONE', #302, 0.1875000000000000278 ) ;
#60 = DIRECTION ( 'NONE',  ( -0.000000000000000000, -1.000000000000000000, -0.000000000000000000 ) ) ;
#61 = DIRECTION ( 'NONE',  ( -1.000000000000000000, 0.000000000000000000, 0.000000000000000000 ) ) ;
#62 =( GEOMETRIC_REPRESENTATION_CONTEXT ( 3 ) GLOBAL_UNCERTAINTY_ASSIGNED_CONTEXT ( ( #54 ) ) GLOBAL_UNIT_ASSIGNED_CONTEXT ( ( #298, #13, #270 ) ) REPRESENTATION_CONTEXT ( 'NONE', 'WORKASPACE' ) );
#63 = CARTESIAN_POINT ( 'NONE',  ( 1.331147736090405645E-34, 0.8750000000000000000, 0.000000000000000000 ) ) ;
#64 = CYLINDRICAL_SURFACE ( 'NONE', #291, 0.1875000000000000278 ) ;
#65 = EDGE_CURVE ( 'NONE', #164, #285, #237, .T. ) ;
#66 = CARTESIAN_POINT ( 'NONE',  ( -6.123233995736766036E-17, 2.500000000000000000, 0.000000000000000000 ) ) ;
#67 = FACE_OUTER_BOUND ( 'NONE', #182, .T. ) ;
#68 = ORIENTED_EDGE ( 'NONE', *, *, #71, .F. ) ;
#69 = STYLED_ITEM ( 'NONE', ( #204 ), #177 ) ;
#70 = ORIENTED_EDGE ( 'NONE', *, *, #87, .F. ) ;
#71 = EDGE_CURVE ( 'NONE', #256, #46, #135, .T. ) ;
#72 = DIRECTION ( 'NONE',  ( -0.000000000000000000, -1.000000000000000000, -0.000000000000000000 ) ) ;
#73 = CIRCLE ( 'NONE', #3, 0.1874999999999999722 ) ;
#74 = LENGTH_MEASURE_WITH_UNIT ( LENGTH_MEASURE( 0.02539999999999999897 ), #4 );
#75 = FILL_AREA_STYLE ('',( #235 ) ) ;
#76 = UNCERTAINTY_MEASURE_WITH_UNIT (LENGTH_MEASURE( 1.000000000000000082E-05 ), #79, 'distance_accuracy_value', 'NONE');
#77 =( CONVERSION_BASED_UNIT ( 'INCH', #274 ) LENGTH_UNIT ( ) NAMED_UNIT ( #273 ) );
#78 = CARTESIAN_POINT ( 'NONE',  ( 0.000000000000000000, 0.000000000000000000, 0.000000000000000000 ) ) ;
#79 =( CONVERSION_BASED_UNIT ( 'INCH', #9 ) LENGTH_UNIT ( ) NAMED_UNIT ( #244 ) );
#80 =( NAMED_UNIT ( * ) PLANE_ANGLE_UNIT ( ) SI_UNIT ( $, .RADIAN. ) );
#81 = APPLICATION_CONTEXT ( 'automotive_design' ) ;
#82 = ADVANCED_FACE ( 'NONE', ( #117 ), #194, .F. ) ;
#83 = SURFACE_SIDE_STYLE ('',( #100 ) ) ;
#84 =( NAMED_UNIT ( * ) PLANE_ANGLE_UNIT ( ) SI_UNIT ( $, .RADIAN. ) );
#85 = ORIENTED_EDGE ( 'NONE', *, *, #71, .T. ) ;
#86 = COLOUR_RGB ( '',1.000000000000000000, 0.000000000000000000, 0.000000000000000000 ) ;
#87 = EDGE_CURVE ( 'NONE', #140, #285, #105, .T. ) ;
#88 = ORIENTED_EDGE ( 'NONE', *, *, #65, .T. ) ;
#89 = VERTEX_POINT ( 'NONE', #171 ) ;
#90 = DIRECTION ( 'NONE',  ( 0.000000000000000000, -1.000000000000000000, -0.000000000000000000 ) ) ;
#91 = VERTEX_POINT ( 'NONE', #195 ) ;
#92 = ORIENTED_EDGE ( 'NONE', *, *, #199, .T. ) ;
#93 = DIRECTION ( 'NONE',  ( -0.000000000000000000, -1.000000000000000000, -0.000000000000000000 ) ) ;
#94 = DIRECTION ( 'NONE',  ( -0.000000000000000000, -1.000000000000000000, -0.000000000000000000 ) ) ;
#95 = UNCERTAINTY_MEASURE_WITH_UNIT (LENGTH_MEASURE( 1.000000000000000082E-05 ), #170, 'distance_accuracy_value', 'NONE');
#96 = AXIS2_PLACEMENT_3D ( 'NONE', #263, #293, #203 ) ;
#97 = DIRECTION ( 'NONE',  ( -1.000000000000000000, 0.000000000000000000, 0.000000000000000000 ) ) ;
#98 =( CONVERSION_BASED_UNIT ( 'INCH', #5 ) LENGTH_UNIT ( ) NAMED_UNIT ( #160 ) );
#99 = AXIS2_PLACEMENT_3D ( 'NONE', #309, #143, #147 ) ;
#100 = SURFACE_STYLE_FILL_AREA ( #292 ) ;
#101 =( NAMED_UNIT ( * ) SI_UNIT ( $, .STERADIAN. ) SOLID_ANGLE_UNIT ( ) );
#102 = DIRECTION ( 'NONE',  ( -3.768143997376470743E-17, 1.000000000000000000, -0.000000000000000000 ) ) ;
#103 =( LENGTH_UNIT ( ) NAMED_UNIT ( * ) SI_UNIT ( $, .METRE. ) );
#104 = DIMENSIONAL_EXPONENTS ( 1.000000000000000000, 0.000000000000000000, 0.000000000000000000, 0.000000000000000000, 0.000000000000000000, 0.000000000000000000, 0.000000000000000000 ) ;
#105 = CIRCLE ( 'NONE', #245, 0.1875000000000000278 ) ;
#106 = LENGTH_MEASURE_WITH_UNIT ( LENGTH_MEASURE( 0.02539999999999999897 ), #103 );
#107 = CARTESIAN_POINT ( 'NONE',  ( -6.123233995736766036E-17, 2.500000000000000000, 0.000000000000000000 ) ) ;
#108 = CARTESIAN_POINT ( 'NONE',  ( 0.000000000000000000, 0.000000000000000000, 0.000000000000000000 ) ) ;
#109 = EDGE_CURVE ( 'NONE', #260, #46, #53, .T. ) ;
#110 = CARTESIAN_POINT ( 'NONE',  ( 0.000000000000000000, 0.000000000000000000, 0.000000000000000000 ) ) ;
#111 = ORIENTED_EDGE ( 'NONE', *, *, #65, .F. ) ;
#112 = FILL_AREA_STYLE_COLOUR ( '', #86 ) ;
#113 = ADVANCED_FACE ( 'NONE', ( #55 ), #216, .T. ) ;
#114 = FILL_AREA_STYLE_COLOUR ( '', #51 ) ;
#115 = EDGE_LOOP ( 'NONE', ( #282, #258, #18, #189 ) ) ;
#116 = LINE ( 'NONE', #118, #58 ) ;
#117 = FACE_OUTER_BOUND ( 'NONE', #168, .T. ) ;
#118 = CARTESIAN_POINT ( 'NONE',  ( 0.000000000000000000, 0.000000000000000000, -0.1874999999999999722 ) ) ;
#119 = UNCERTAINTY_MEASURE_WITH_UNIT (LENGTH_MEASURE( 1.000000000000000082E-05 ), #77, 'distance_accuracy_value', 'NONE');
#120 = AXIS2_PLACEMENT_3D ( 'NONE', #206, #162, #253 ) ;
#121 = CARTESIAN_POINT ( 'NONE',  ( 0.000000000000000000, 0.000000000000000000, 0.000000000000000000 ) ) ;
#122 = ADVANCED_FACE ( 'NONE', ( #39 ), #59, .T. ) ;
#123 = CARTESIAN_POINT ( 'NONE',  ( 0.1874999999999999445, 2.500000000000000000, 2.296212748401287726E-17 ) ) ;
#124 = APPLICATION_PROTOCOL_DEFINITION ( 'draft international standard', 'automotive_design', 1998, #81 ) ;
#125 = PRESENTATION_LAYER_ASSIGNMENT (  '', '', ( #215 ) ) ;
#126 = PRODUCT ( '24182', '24182', '', ( #201 ) ) ;
#127 = PRESENTATION_STYLE_ASSIGNMENT (( #150 ) ) ;
#128 = DIMENSIONAL_EXPONENTS ( 1.000000000000000000, 0.000000000000000000, 0.000000000000000000, 0.000000000000000000, 0.000000000000000000, 0.000000000000000000, 0.000000000000000000 ) ;
#129 = CIRCLE ( 'NONE', #120, 0.1874999999999999722 ) ;
#130 = DIRECTION ( 'NONE',  ( -1.000000000000000000, -3.768143997376470743E-17, 0.000000000000000000 ) ) ;
#131 = LINE ( 'NONE', #183, #202 ) ;
#132 = EDGE_LOOP ( 'NONE', ( #208, #228, #68, #17 ) ) ;
#133 =( NAMED_UNIT ( * ) SI_UNIT ( $, .STERADIAN. ) SOLID_ANGLE_UNIT ( ) );
#134 = CYLINDRICAL_SURFACE ( 'NONE', #99, 0.1874999999999999722 ) ;
#135 = CIRCLE ( 'NONE', #25, 0.1875000000000000555 ) ;
#136 =( GEOMETRIC_REPRESENTATION_CONTEXT ( 3 ) GLOBAL_UNCERTAINTY_ASSIGNED_CONTEXT ( ( #239 ) ) GLOBAL_UNIT_ASSIGNED_CONTEXT ( ( #233, #84, #137 ) ) REPRESENTATION_CONTEXT ( 'NONE', 'WORKASPACE' ) );
#137 =( NAMED_UNIT ( * ) SI_UNIT ( $, .STERADIAN. ) SOLID_ANGLE_UNIT ( ) );
#138 = EDGE_LOOP ( 'NONE', ( #111, #92, #301, #207 ) ) ;
#139 = DIRECTION ( 'NONE',  ( -3.768143997376470743E-17, 1.000000000000000000, -0.000000000000000000 ) ) ;
#140 = VERTEX_POINT ( 'NONE', #225 ) ;
#141 = UNCERTAINTY_MEASURE_WITH_UNIT (LENGTH_MEASURE( 1.000000000000000082E-05 ), #98, 'distance_accuracy_value', 'NONE');
#142 = ORIENTED_EDGE ( 'NONE', *, *, #219, .F. ) ;
#143 = DIRECTION ( 'NONE',  ( -0.000000000000000000, -1.000000000000000000, -0.000000000000000000 ) ) ;
#144 = CARTESIAN_POINT ( 'NONE',  ( -6.123233995736766036E-17, 2.500000000000000000, 0.000000000000000000 ) ) ;
#145 = CLOSED_SHELL ( 'NONE', ( #299, #113, #32, #229 ) ) ;
#146 = AXIS2_PLACEMENT_3D ( 'NONE', #148, #300, #61 ) ;
#147 = DIRECTION ( 'NONE',  ( 0.000000000000000000, 0.000000000000000000, -1.000000000000000000 ) ) ;
#148 = CARTESIAN_POINT ( 'NONE',  ( 0.000000000000000000, 0.8749999999999997780, 0.000000000000000000 ) ) ;
#149 = UNCERTAINTY_MEASURE_WITH_UNIT (LENGTH_MEASURE( 1.000000000000000082E-05 ), #305, 'distance_accuracy_value', 'NONE');
#150 = SURFACE_STYLE_USAGE ( .BOTH. , #294 ) ;
#151 = COLOUR_RGB ( '',0.7921568627450980005, 0.8196078431372548767, 0.9333333333333333481 ) ;
#152 = AXIS2_PLACEMENT_3D ( 'NONE', #78, #60, #155 ) ;
#153 = SURFACE_STYLE_FILL_AREA ( #218 ) ;
#154 = DIRECTION ( 'NONE',  ( -0.000000000000000000, -1.000000000000000000, -0.000000000000000000 ) ) ;
#155 = DIRECTION ( 'NONE',  ( 0.000000000000000000, 0.000000000000000000, -1.000000000000000000 ) ) ;
#156 = MECHANICAL_DESIGN_GEOMETRIC_PRESENTATION_REPRESENTATION (  '', ( #180 ), #40 ) ;
#157 = COLOUR_RGB ( '',1.000000000000000000, 0.000000000000000000, 0.000000000000000000 ) ;
#158 =( LENGTH_UNIT ( ) NAMED_UNIT ( * ) SI_UNIT ( $, .METRE. ) );
#159 = PRESENTATION_LAYER_ASSIGNMENT (  '', '', ( #166 ) ) ;
#160 = DIMENSIONAL_EXPONENTS ( 1.000000000000000000, 0.000000000000000000, 0.000000000000000000, 0.000000000000000000, 0.000000000000000000, 0.000000000000000000, 0.000000000000000000 ) ;
#161 = DIRECTION ( 'NONE',  ( -0.000000000000000000, -1.000000000000000000, -0.000000000000000000 ) ) ;
#162 = DIRECTION ( 'NONE',  ( -3.768143997376470743E-17, 1.000000000000000000, -0.000000000000000000 ) ) ;
#163 = FILL_AREA_STYLE ('',( #114 ) ) ;
#164 = VERTEX_POINT ( 'NONE', #198 ) ;
#165 = PRESENTATION_LAYER_ASSIGNMENT (  '', '', ( #211 ) ) ;
#166 = STYLED_ITEM ( 'NONE', ( #308 ), #229 ) ;
#167 = FILL_AREA_STYLE ('',( #112 ) ) ;
#168 = EDGE_LOOP ( 'NONE', ( #85, #304 ) ) ;
#169 = FACE_OUTER_BOUND ( 'NONE', #132, .T. ) ;
#170 =( CONVERSION_BASED_UNIT ( 'INCH', #74 ) LENGTH_UNIT ( ) NAMED_UNIT ( #174 ) );
#171 = CARTESIAN_POINT ( 'NONE',  ( 0.000000000000000000, 0.8750000000000000000, -0.1874999999999999722 ) ) ;
#172 = SURFACE_SIDE_STYLE ('',( #288 ) ) ;
#173 = PRODUCT_DEFINITION_FORMATION_WITH_SPECIFIED_SOURCE ( 'ANY', '', #126, .NOT_KNOWN. ) ;
#174 = DIMENSIONAL_EXPONENTS ( 1.000000000000000000, 0.000000000000000000, 0.000000000000000000, 0.000000000000000000, 0.000000000000000000, 0.000000000000000000, 0.000000000000000000 ) ;
#175 = SHAPE_DEFINITION_REPRESENTATION ( #57, #265 ) ;
#176 =( GEOMETRIC_REPRESENTATION_CONTEXT ( 3 ) GLOBAL_UNCERTAINTY_ASSIGNED_CONTEXT ( ( #76 ) ) GLOBAL_UNIT_ASSIGNED_CONTEXT ( ( #79, #80, #223 ) ) REPRESENTATION_CONTEXT ( 'NONE', 'WORKASPACE' ) );
#177 = MANIFOLD_SOLID_BREP ( 'Revolve - Tool Body (Straight Shanked)', #35 ) ;
#178 = CARTESIAN_POINT ( 'NONE',  ( -6.123233995736766036E-17, 2.500000000000000000, 0.000000000000000000 ) ) ;
#179 = MANIFOLD_SOLID_BREP ( 'Revolve - Cutting Edge', #145 ) ;
#180 = STYLED_ITEM ( 'NONE', ( #191 ), #32 ) ;
#181 = MECHANICAL_DESIGN_GEOMETRIC_PRESENTATION_REPRESENTATION (  '', ( #166 ), #136 ) ;
#182 = EDGE_LOOP ( 'NONE', ( #24, #88, #70, #184 ) ) ;
#183 = CARTESIAN_POINT ( 'NONE',  ( -0.1875000000000000833, 2.500000000000000000, 0.000000000000000000 ) ) ;
#184 = ORIENTED_EDGE ( 'NONE', *, *, #49, .F. ) ;
#185 = ORIENTED_EDGE ( 'NONE', *, *, #199, .F. ) ;
#186 = DIRECTION ( 'NONE',  ( 0.000000000000000000, 0.000000000000000000, -1.000000000000000000 ) ) ;
#187 = ORIENTED_EDGE ( 'NONE', *, *, #267, .F. ) ;
#188 = MECHANICAL_DESIGN_GEOMETRIC_PRESENTATION_REPRESENTATION (  '', ( #69 ), #62 ) ;
#189 = ORIENTED_EDGE ( 'NONE', *, *, #259, .F. ) ;
#190 = CARTESIAN_POINT ( 'NONE',  ( 2.296212748401286801E-17, 0.000000000000000000, 0.1874999999999999722 ) ) ;
#191 = PRESENTATION_STYLE_ASSIGNMENT (( #261 ) ) ;
#192 = VECTOR ( 'NONE', #1, 39.37007874015748143 ) ;
#193 = DIRECTION ( 'NONE',  ( -3.768143997376470743E-17, 1.000000000000000000, -0.000000000000000000 ) ) ;
#194 = PLANE ( 'NONE',  #50 ) ;
#195 = CARTESIAN_POINT ( 'NONE',  ( -0.1874999999999999722, 0.8749999999999997780, 0.000000000000000000 ) ) ;
#196 = MECHANICAL_DESIGN_GEOMETRIC_PRESENTATION_REPRESENTATION (  '', ( #215 ), #176 ) ;
#197 = CYLINDRICAL_SURFACE ( 'NONE', #152, 0.1874999999999999722 ) ;
#198 = CARTESIAN_POINT ( 'NONE',  ( 2.296212748401286801E-17, 0.8750000000000000000, 0.1874999999999999722 ) ) ;
#199 = EDGE_CURVE ( 'NONE', #164, #89, #45, .T. ) ;
#200 = CARTESIAN_POINT ( 'NONE',  ( 0.000000000000000000, 0.8750000000000000000, 0.000000000000000000 ) ) ;
#201 = PRODUCT_CONTEXT ( 'NONE', #217, 'mechanical' ) ;
#202 = VECTOR ( 'NONE', #139, 39.37007874015748143 ) ;
#203 = DIRECTION ( 'NONE',  ( 0.000000000000000000, -0.000000000000000000, 1.000000000000000000 ) ) ;
#204 = PRESENTATION_STYLE_ASSIGNMENT (( #12 ) ) ;
#205 = SURFACE_SIDE_STYLE ('',( #251 ) ) ;
#206 = CARTESIAN_POINT ( 'NONE',  ( 0.000000000000000000, 0.8749999999999997780, 0.000000000000000000 ) ) ;
#207 = ORIENTED_EDGE ( 'NONE', *, *, #6, .F. ) ;
#208 = ORIENTED_EDGE ( 'NONE', *, *, #26, .T. ) ;
#209 =( NAMED_UNIT ( * ) SI_UNIT ( $, .STERADIAN. ) SOLID_ANGLE_UNIT ( ) );
#210 = SURFACE_STYLE_FILL_AREA ( #167 ) ;
#211 = STYLED_ITEM ( 'NONE', ( #30 ), #113 ) ;
#212 =( GEOMETRIC_REPRESENTATION_CONTEXT ( 3 ) GLOBAL_UNCERTAINTY_ASSIGNED_CONTEXT ( ( #119 ) ) GLOBAL_UNIT_ASSIGNED_CONTEXT ( ( #77, #36, #133 ) ) REPRESENTATION_CONTEXT ( 'NONE', 'WORKASPACE' ) );
#213 = CARTESIAN_POINT ( 'NONE',  ( 0.000000000000000000, 0.000000000000000000, 0.000000000000000000 ) ) ;
#214 = DIRECTION ( 'NONE',  ( 1.000000000000000000, 3.768143997376470743E-17, 0.000000000000000000 ) ) ;
#215 = STYLED_ITEM ( 'NONE', ( #127 ), #179 ) ;
#216 = PLANE ( 'NONE',  #96 ) ;
#217 = APPLICATION_CONTEXT ( 'automotive_design' ) ;
#218 = FILL_AREA_STYLE ('',( #34 ) ) ;
#219 = EDGE_CURVE ( 'NONE', #260, #91, #296, .T. ) ;
#220 = MECHANICAL_DESIGN_GEOMETRIC_PRESENTATION_REPRESENTATION (  '', ( #211 ), #29 ) ;
#221 =( LENGTH_UNIT ( ) NAMED_UNIT ( * ) SI_UNIT ( $, .METRE. ) );
#222 =( LENGTH_UNIT ( ) NAMED_UNIT ( * ) SI_UNIT ( $, .METRE. ) );
#223 =( NAMED_UNIT ( * ) SI_UNIT ( $, .STERADIAN. ) SOLID_ANGLE_UNIT ( ) );
#224 = DIRECTION ( 'NONE',  ( 1.000000000000000000, 0.000000000000000000, 0.000000000000000000 ) ) ;
#225 = CARTESIAN_POINT ( 'NONE',  ( 0.000000000000000000, 0.000000000000000000, -0.1875000000000000278 ) ) ;
#226 = CARTESIAN_POINT ( 'NONE',  ( 0.1874999999999999722, 0.8749999999999997780, 2.296212748401287726E-17 ) ) ;
#227 = PRESENTATION_STYLE_ASSIGNMENT (( #23 ) ) ;
#228 = ORIENTED_EDGE ( 'NONE', *, *, #109, .T. ) ;
#229 = ADVANCED_FACE ( 'NONE', ( #257 ), #250, .T. ) ;
#230 = CARTESIAN_POINT ( 'NONE',  ( 2.296212748401287109E-17, 0.000000000000000000, 0.1875000000000000278 ) ) ;
#231 = CARTESIAN_POINT ( 'NONE',  ( -0.1875000000000001110, 2.500000000000000000, 0.000000000000000000 ) ) ;
#232 = DIRECTION ( 'NONE',  ( -3.768143997376470743E-17, 1.000000000000000000, -0.000000000000000000 ) ) ;
#233 =( CONVERSION_BASED_UNIT ( 'INCH', #276 ) LENGTH_UNIT ( ) NAMED_UNIT ( #128 ) );
#234 = ORIENTED_EDGE ( 'NONE', *, *, #6, .T. ) ;
#235 = FILL_AREA_STYLE_COLOUR ( '', #56 ) ;
#236 = CIRCLE ( 'NONE', #249, 0.1875000000000000555 ) ;
#237 = LINE ( 'NONE', #190, #192 ) ;
#238 = FILL_AREA_STYLE ('',( #2 ) ) ;
#239 = UNCERTAINTY_MEASURE_WITH_UNIT (LENGTH_MEASURE( 1.000000000000000082E-05 ), #233, 'distance_accuracy_value', 'NONE');
#240 = SURFACE_STYLE_USAGE ( .BOTH. , #172 ) ;
#241 = MECHANICAL_DESIGN_GEOMETRIC_PRESENTATION_REPRESENTATION (  '', ( #262 ), #287 ) ;
#242 = DIRECTION ( 'NONE',  ( 0.000000000000000000, 0.000000000000000000, -1.000000000000000000 ) ) ;
#243 = ADVANCED_FACE ( 'NONE', ( #47 ), #277, .F. ) ;
#244 = DIMENSIONAL_EXPONENTS ( 1.000000000000000000, 0.000000000000000000, 0.000000000000000000, 0.000000000000000000, 0.000000000000000000, 0.000000000000000000, 0.000000000000000000 ) ;
#245 = AXIS2_PLACEMENT_3D ( 'NONE', #213, #94, #242 ) ;
#246 =( NAMED_UNIT ( * ) PLANE_ANGLE_UNIT ( ) SI_UNIT ( $, .RADIAN. ) );
#247 = DIRECTION ( 'NONE',  ( 0.000000000000000000, 0.000000000000000000, -1.000000000000000000 ) ) ;
#248 = PRODUCT_RELATED_PRODUCT_CATEGORY ( 'part', '', ( #126 ) ) ;
#249 = AXIS2_PLACEMENT_3D ( 'NONE', #107, #283, #252 ) ;
#250 = PLANE ( 'NONE',  #38 ) ;
#251 = SURFACE_STYLE_FILL_AREA ( #163 ) ;
#252 = DIRECTION ( 'NONE',  ( -1.000000000000000000, 0.000000000000000000, 0.000000000000000000 ) ) ;
#253 = DIRECTION ( 'NONE',  ( -1.000000000000000000, 0.000000000000000000, 0.000000000000000000 ) ) ;
#254 = CIRCLE ( 'NONE', #19, 0.1875000000000000278 ) ;
#255 = AXIS2_PLACEMENT_3D ( 'NONE', #200, #154, #247 ) ;
#256 = VERTEX_POINT ( 'NONE', #231 ) ;
#257 = FACE_OUTER_BOUND ( 'NONE', #21, .T. ) ;
#258 = ORIENTED_EDGE ( 'NONE', *, *, #219, .T. ) ;
#259 = EDGE_CURVE ( 'NONE', #46, #256, #236, .T. ) ;
#260 = VERTEX_POINT ( 'NONE', #226 ) ;
#261 = SURFACE_STYLE_USAGE ( .BOTH. , #286 ) ;
#262 = STYLED_ITEM ( 'NONE', ( #227 ), #299 ) ;
#263 = CARTESIAN_POINT ( 'NONE',  ( 0.000000000000000000, 0.8750000000000000000, 0.000000000000000000 ) ) ;
#264 = PRODUCT_DEFINITION_CONTEXT ( 'detailed design', #81, 'design' ) ;
#265 = ADVANCED_BREP_SHAPE_REPRESENTATION ( '24182', ( #179, #177, #307 ), #212 ) ;
#266 = CARTESIAN_POINT ( 'NONE',  ( 0.1874999999999999722, 2.500000000000000000, 2.296212748401287726E-17 ) ) ;
#267 = EDGE_CURVE ( 'NONE', #89, #164, #73, .T. ) ;
#268 = CARTESIAN_POINT ( 'NONE',  ( 0.1874999999999999722, 2.500000000000000000, 0.000000000000000000 ) ) ;
#269 = SURFACE_STYLE_FILL_AREA ( #238 ) ;
#270 =( NAMED_UNIT ( * ) SI_UNIT ( $, .STERADIAN. ) SOLID_ANGLE_UNIT ( ) );
#271 = APPLICATION_PROTOCOL_DEFINITION ( 'draft international standard', 'automotive_design', 1998, #217 ) ;
#272 = EDGE_CURVE ( 'NONE', #91, #256, #131, .T. ) ;
#273 = DIMENSIONAL_EXPONENTS ( 1.000000000000000000, 0.000000000000000000, 0.000000000000000000, 0.000000000000000000, 0.000000000000000000, 0.000000000000000000, 0.000000000000000000 ) ;
#274 = LENGTH_MEASURE_WITH_UNIT ( LENGTH_MEASURE( 0.02539999999999999897 ), #222 );
#275 = DIRECTION ( 'NONE',  ( -1.000000000000000000, 0.000000000000000000, 0.000000000000000000 ) ) ;
#276 = LENGTH_MEASURE_WITH_UNIT ( LENGTH_MEASURE( 0.02539999999999999897 ), #158 );
#277 = PLANE ( 'NONE',  #31 ) ;
#278 = DIRECTION ( 'NONE',  ( 0.000000000000000000, 0.000000000000000000, -1.000000000000000000 ) ) ;
#279 =( LENGTH_UNIT ( ) NAMED_UNIT ( * ) SI_UNIT ( $, .METRE. ) );
#280 = ORIENTED_EDGE ( 'NONE', *, *, #26, .F. ) ;
#281 = DIRECTION ( 'NONE',  ( 0.000000000000000000, 0.000000000000000000, -1.000000000000000000 ) ) ;
#282 = ORIENTED_EDGE ( 'NONE', *, *, #109, .F. ) ;
#283 = DIRECTION ( 'NONE',  ( -3.768143997376470743E-17, 1.000000000000000000, -0.000000000000000000 ) ) ;
#284 = ORIENTED_EDGE ( 'NONE', *, *, #87, .T. ) ;
#285 = VERTEX_POINT ( 'NONE', #230 ) ;
#286 = SURFACE_SIDE_STYLE ('',( #269 ) ) ;
#287 =( GEOMETRIC_REPRESENTATION_CONTEXT ( 3 ) GLOBAL_UNCERTAINTY_ASSIGNED_CONTEXT ( ( #149 ) ) GLOBAL_UNIT_ASSIGNED_CONTEXT ( ( #305, #297, #101 ) ) REPRESENTATION_CONTEXT ( 'NONE', 'WORKASPACE' ) );
#288 = SURFACE_STYLE_FILL_AREA ( #75 ) ;
#289 = DIRECTION ( 'NONE',  ( 3.768143997376470743E-17, -1.000000000000000000, 0.000000000000000000 ) ) ;
#290 = PRESENTATION_LAYER_ASSIGNMENT (  '', '', ( #180 ) ) ;
#291 = AXIS2_PLACEMENT_3D ( 'NONE', #66, #232, #22 ) ;
#292 = FILL_AREA_STYLE ('',( #37 ) ) ;
#293 = DIRECTION ( 'NONE',  ( 0.000000000000000000, 1.000000000000000000, 0.000000000000000000 ) ) ;
#294 = SURFACE_SIDE_STYLE ('',( #153 ) ) ;
#295 = VECTOR ( 'NONE', #193, 39.37007874015748143 ) ;
#296 = CIRCLE ( 'NONE', #146, 0.1874999999999999722 ) ;
#297 =( NAMED_UNIT ( * ) PLANE_ANGLE_UNIT ( ) SI_UNIT ( $, .RADIAN. ) );
#298 =( CONVERSION_BASED_UNIT ( 'INCH', #106 ) LENGTH_UNIT ( ) NAMED_UNIT ( #104 ) );
#299 = ADVANCED_FACE ( 'NONE', ( #67 ), #197, .T. ) ;
#300 = DIRECTION ( 'NONE',  ( -3.768143997376470743E-17, 1.000000000000000000, -0.000000000000000000 ) ) ;
#301 = ORIENTED_EDGE ( 'NONE', *, *, #49, .T. ) ;
#302 = AXIS2_PLACEMENT_3D ( 'NONE', #178, #102, #275 ) ;
#303 = PRESENTATION_LAYER_ASSIGNMENT (  '', '', ( #262 ) ) ;
#304 = ORIENTED_EDGE ( 'NONE', *, *, #259, .T. ) ;
#305 =( CONVERSION_BASED_UNIT ( 'INCH', #43 ) LENGTH_UNIT ( ) NAMED_UNIT ( #7 ) );
#306 = CARTESIAN_POINT ( 'NONE',  ( 0.000000000000000000, 0.8750000000000000000, 0.000000000000000000 ) ) ;
#307 = AXIS2_PLACEMENT_3D ( 'NONE', #121, #11, #224 ) ;
#308 = PRESENTATION_STYLE_ASSIGNMENT (( #16 ) ) ;
#309 = CARTESIAN_POINT ( 'NONE',  ( 0.000000000000000000, 0.000000000000000000, 0.000000000000000000 ) ) ;
ENDSEC;
END-ISO-10303-21;
