ISO-10303-21;
HEADER;
FILE_DESCRIPTION (( 'STEP AP214' ),
    '1' );
FILE_NAME ('01465.STEP',
    '2023-06-22T14:32:31',
    ( '' ),
    ( '' ),
    'SwSTEP 2.0',
    'SolidWorks 2023',
    '' );
FILE_SCHEMA (( 'AUTOMOTIVE_DESIGN' ));
ENDSEC;

DATA;
#1 = CLOSED_SHELL ( 'NONE', ( #165, #199, #144, #67 ) ) ;
#2 = MECHANICAL_DESIGN_GEOMETRIC_PRESENTATION_REPRESENTATION (  '', ( #24 ), #231 ) ;
#3 = CYLINDRICAL_SURFACE ( 'NONE', #190, 0.2500000000000000000 ) ;
#4 = EDGE_CURVE ( 'NONE', #153, #218, #156, .T. ) ;
#5 = SURFACE_STYLE_USAGE ( .BOTH. , #54 ) ;
#6 = PLANE ( 'NONE',  #274 ) ;
#7 =( CONVERSION_BASED_UNIT ( 'INCH', #146 ) LENGTH_UNIT ( ) NAMED_UNIT ( #36 ) );
#8 = FACE_OUTER_BOUND ( 'NONE', #70, .T. ) ;
#9 =( NAMED_UNIT ( * ) SI_UNIT ( $, .STERADIAN. ) SOLID_ANGLE_UNIT ( ) );
#10 = PRODUCT_DEFINITION ( 'UNKNOWN', '', #284, #281 ) ;
#11 = PRESENTATION_LAYER_ASSIGNMENT (  '', '', ( #31 ) ) ;
#12 = SURFACE_STYLE_FILL_AREA ( #252 ) ;
#13 = DIRECTION ( 'NONE',  ( 3.498990854706726443E-17, -1.000000000000000000, 0.000000000000000000 ) ) ;
#14 = ORIENTED_EDGE ( 'NONE', *, *, #254, .T. ) ;
#15 = CARTESIAN_POINT ( 'NONE',  ( -0.2500000000000001110, 3.000000000000000444, 0.000000000000000000 ) ) ;
#16 = DIRECTION ( 'NONE',  ( 1.000000000000000000, 0.000000000000000000, 0.000000000000000000 ) ) ;
#17 = MECHANICAL_DESIGN_GEOMETRIC_PRESENTATION_REPRESENTATION (  '', ( #31 ), #213 ) ;
#18 = PRESENTATION_LAYER_ASSIGNMENT (  '', '', ( #230 ) ) ;
#19 = AXIS2_PLACEMENT_3D ( 'NONE', #292, #28, #293 ) ;
#20 = CARTESIAN_POINT ( 'NONE',  ( 3.061616997868383018E-17, 1.250000000000000000, 0.2500000000000000000 ) ) ;
#21 = EDGE_LOOP ( 'NONE', ( #216, #34, #115, #189 ) ) ;
#22 =( NAMED_UNIT ( * ) PLANE_ANGLE_UNIT ( ) SI_UNIT ( $, .RADIAN. ) );
#23 =( GEOMETRIC_REPRESENTATION_CONTEXT ( 3 ) GLOBAL_UNCERTAINTY_ASSIGNED_CONTEXT ( ( #217 ) ) GLOBAL_UNIT_ASSIGNED_CONTEXT ( ( #187, #104, #9 ) ) REPRESENTATION_CONTEXT ( 'NONE', 'WORKASPACE' ) );
#24 = STYLED_ITEM ( 'NONE', ( #98 ), #240 ) ;
#25 = FILL_AREA_STYLE_COLOUR ( '', #63 ) ;
#26 = LENGTH_MEASURE_WITH_UNIT ( LENGTH_MEASURE( 0.02539999999999999897 ), #288 );
#27 = CARTESIAN_POINT ( 'NONE',  ( -6.123233995736772199E-17, 3.000000000000000444, 0.000000000000000000 ) ) ;
#28 = DIRECTION ( 'NONE',  ( -3.498990854706726443E-17, 1.000000000000000000, -0.000000000000000000 ) ) ;
#29 = ORIENTED_EDGE ( 'NONE', *, *, #234, .F. ) ;
#30 = ADVANCED_FACE ( 'NONE', ( #210 ), #154, .T. ) ;
#31 = STYLED_ITEM ( 'NONE', ( #77 ), #40 ) ;
#32 = DIRECTION ( 'NONE',  ( -3.498990854706726443E-17, 1.000000000000000000, -0.000000000000000000 ) ) ;
#33 = VECTOR ( 'NONE', #158, 39.37007874015748143 ) ;
#34 = ORIENTED_EDGE ( 'NONE', *, *, #58, .T. ) ;
#35 = SHAPE_DEFINITION_REPRESENTATION ( #307, #61 ) ;
#36 = DIMENSIONAL_EXPONENTS ( 1.000000000000000000, 0.000000000000000000, 0.000000000000000000, 0.000000000000000000, 0.000000000000000000, 0.000000000000000000, 0.000000000000000000 ) ;
#37 = APPLICATION_CONTEXT ( 'automotive_design' ) ;
#38 = CARTESIAN_POINT ( 'NONE',  ( 0.000000000000000000, 0.000000000000000000, 0.000000000000000000 ) ) ;
#39 = COLOUR_RGB ( '',1.000000000000000000, 0.000000000000000000, 0.000000000000000000 ) ;
#40 = MANIFOLD_SOLID_BREP ( 'Revolve - Cutting Edge', #220 ) ;
#41 = FACE_OUTER_BOUND ( 'NONE', #131, .T. ) ;
#42 = CARTESIAN_POINT ( 'NONE',  ( 0.000000000000000000, 1.250000000000000000, 0.000000000000000000 ) ) ;
#43 =( GEOMETRIC_REPRESENTATION_CONTEXT ( 3 ) GLOBAL_UNCERTAINTY_ASSIGNED_CONTEXT ( ( #110 ) ) GLOBAL_UNIT_ASSIGNED_CONTEXT ( ( #172, #294, #90 ) ) REPRESENTATION_CONTEXT ( 'NONE', 'WORKASPACE' ) );
#44 = ADVANCED_FACE ( 'NONE', ( #81 ), #263, .T. ) ;
#45 = ORIENTED_EDGE ( 'NONE', *, *, #225, .T. ) ;
#46 = COLOUR_RGB ( '',0.7921568627450980005, 0.8196078431372548767, 0.9333333333333333481 ) ;
#47 =( NAMED_UNIT ( * ) PLANE_ANGLE_UNIT ( ) SI_UNIT ( $, .RADIAN. ) );
#48 = ORIENTED_EDGE ( 'NONE', *, *, #295, .F. ) ;
#49 = SURFACE_STYLE_USAGE ( .BOTH. , #78 ) ;
#50 = SURFACE_STYLE_USAGE ( .BOTH. , #192 ) ;
#51 = PRESENTATION_LAYER_ASSIGNMENT (  '', '', ( #24 ) ) ;
#52 = SURFACE_STYLE_FILL_AREA ( #188 ) ;
#53 = EDGE_LOOP ( 'NONE', ( #174, #303 ) ) ;
#54 = SURFACE_SIDE_STYLE ('',( #209 ) ) ;
#55 =( NAMED_UNIT ( * ) SI_UNIT ( $, .STERADIAN. ) SOLID_ANGLE_UNIT ( ) );
#56 =( CONVERSION_BASED_UNIT ( 'INCH', #301 ) LENGTH_UNIT ( ) NAMED_UNIT ( #168 ) );
#57 =( GEOMETRIC_REPRESENTATION_CONTEXT ( 3 ) GLOBAL_UNCERTAINTY_ASSIGNED_CONTEXT ( ( #150 ) ) GLOBAL_UNIT_ASSIGNED_CONTEXT ( ( #56, #178, #92 ) ) REPRESENTATION_CONTEXT ( 'NONE', 'WORKASPACE' ) );
#58 = EDGE_CURVE ( 'NONE', #197, #153, #88, .T. ) ;
#59 = CARTESIAN_POINT ( 'NONE',  ( -0.2500000000000001110, 3.000000000000000444, 0.000000000000000000 ) ) ;
#60 = UNCERTAINTY_MEASURE_WITH_UNIT (LENGTH_MEASURE( 1.000000000000000082E-05 ), #163, 'distance_accuracy_value', 'NONE');
#61 = ADVANCED_BREP_SHAPE_REPRESENTATION ( '01465', ( #40, #245, #116 ), #200 ) ;
#62 = CARTESIAN_POINT ( 'NONE',  ( 0.000000000000000000, 1.250000000000000000, 0.000000000000000000 ) ) ;
#63 = COLOUR_RGB ( '',0.7921568627450980005, 0.8196078431372548767, 0.9333333333333333481 ) ;
#64 = ORIENTED_EDGE ( 'NONE', *, *, #283, .T. ) ;
#65 = MECHANICAL_DESIGN_GEOMETRIC_PRESENTATION_REPRESENTATION (  '', ( #304 ), #57 ) ;
#66 = DIRECTION ( 'NONE',  ( 0.000000000000000000, 0.000000000000000000, -1.000000000000000000 ) ) ;
#67 = ADVANCED_FACE ( 'NONE', ( #8 ), #6, .F. ) ;
#68 = CARTESIAN_POINT ( 'NONE',  ( 0.2500000000000000000, 1.250000000000000000, 3.061616997868383634E-17 ) ) ;
#69 = APPLICATION_CONTEXT ( 'automotive_design' ) ;
#70 = EDGE_LOOP ( 'NONE', ( #247, #308 ) ) ;
#71 = AXIS2_PLACEMENT_3D ( 'NONE', #118, #205, #272 ) ;
#72 = ORIENTED_EDGE ( 'NONE', *, *, #225, .F. ) ;
#73 = CARTESIAN_POINT ( 'NONE',  ( -6.123233995736772199E-17, 3.000000000000000444, 0.000000000000000000 ) ) ;
#74 = VERTEX_POINT ( 'NONE', #113 ) ;
#75 = CIRCLE ( 'NONE', #96, 0.2500000000000000000 ) ;
#76 = VERTEX_POINT ( 'NONE', #109 ) ;
#77 = PRESENTATION_STYLE_ASSIGNMENT (( #50 ) ) ;
#78 = SURFACE_SIDE_STYLE ('',( #289 ) ) ;
#79 = SURFACE_SIDE_STYLE ('',( #52 ) ) ;
#80 = CARTESIAN_POINT ( 'NONE',  ( 0.2500000000000000000, 3.000000000000000444, 0.000000000000000000 ) ) ;
#81 = FACE_OUTER_BOUND ( 'NONE', #300, .T. ) ;
#82 = PRESENTATION_LAYER_ASSIGNMENT (  '', '', ( #89 ) ) ;
#83 = DIRECTION ( 'NONE',  ( -1.000000000000000000, 0.000000000000000000, 0.000000000000000000 ) ) ;
#84 = FILL_AREA_STYLE ('',( #25 ) ) ;
#85 = LENGTH_MEASURE_WITH_UNIT ( LENGTH_MEASURE( 0.02539999999999999897 ), #117 );
#86 = PRODUCT ( '01465', '01465', '', ( #248 ) ) ;
#87 = CARTESIAN_POINT ( 'NONE',  ( 0.000000000000000000, 0.000000000000000000, 0.000000000000000000 ) ) ;
#88 = LINE ( 'NONE', #219, #208 ) ;
#89 = STYLED_ITEM ( 'NONE', ( #148 ), #30 ) ;
#90 =( NAMED_UNIT ( * ) SI_UNIT ( $, .STERADIAN. ) SOLID_ANGLE_UNIT ( ) );
#91 = APPLICATION_PROTOCOL_DEFINITION ( 'draft international standard', 'automotive_design', 1998, #69 ) ;
#92 =( NAMED_UNIT ( * ) SI_UNIT ( $, .STERADIAN. ) SOLID_ANGLE_UNIT ( ) );
#93 = CARTESIAN_POINT ( 'NONE',  ( 0.000000000000000000, 0.000000000000000000, -0.2500000000000000000 ) ) ;
#94 = CARTESIAN_POINT ( 'NONE',  ( 3.061616997868383018E-17, 0.000000000000000000, 0.2500000000000000000 ) ) ;
#95 = COLOUR_RGB ( '',1.000000000000000000, 0.000000000000000000, 0.000000000000000000 ) ;
#96 = AXIS2_PLACEMENT_3D ( 'NONE', #180, #207, #306 ) ;
#97 = LINE ( 'NONE', #142, #204 ) ;
#98 = PRESENTATION_STYLE_ASSIGNMENT (( #261 ) ) ;
#99 = DIRECTION ( 'NONE',  ( 0.000000000000000000, -0.000000000000000000, 1.000000000000000000 ) ) ;
#100 = EDGE_CURVE ( 'NONE', #218, #153, #280, .T. ) ;
#101 =( LENGTH_UNIT ( ) NAMED_UNIT ( * ) SI_UNIT ( $, .METRE. ) );
#102 = PRESENTATION_LAYER_ASSIGNMENT (  '', '', ( #134 ) ) ;
#103 = SURFACE_SIDE_STYLE ('',( #237 ) ) ;
#104 =( NAMED_UNIT ( * ) PLANE_ANGLE_UNIT ( ) SI_UNIT ( $, .RADIAN. ) );
#105 = AXIS2_PLACEMENT_3D ( 'NONE', #242, #126, #83 ) ;
#106 = CARTESIAN_POINT ( 'NONE',  ( 0.000000000000000000, 0.000000000000000000, 0.000000000000000000 ) ) ;
#107 = FILL_AREA_STYLE_COLOUR ( '', #176 ) ;
#108 = PRESENTATION_STYLE_ASSIGNMENT (( #5 ) ) ;
#109 = CARTESIAN_POINT ( 'NONE',  ( 3.061616997868383018E-17, 0.000000000000000000, 0.2500000000000000000 ) ) ;
#110 = UNCERTAINTY_MEASURE_WITH_UNIT (LENGTH_MEASURE( 1.000000000000000082E-05 ), #172, 'distance_accuracy_value', 'NONE');
#111 = SURFACE_STYLE_FILL_AREA ( #84 ) ;
#112 = DIRECTION ( 'NONE',  ( 1.000000000000000000, 3.498990854706726443E-17, 0.000000000000000000 ) ) ;
#113 = CARTESIAN_POINT ( 'NONE',  ( 0.000000000000000000, 1.250000000000000000, -0.2500000000000000000 ) ) ;
#114 = LENGTH_MEASURE_WITH_UNIT ( LENGTH_MEASURE( 0.02539999999999999897 ), #101 );
#115 = ORIENTED_EDGE ( 'NONE', *, *, #100, .F. ) ;
#116 = AXIS2_PLACEMENT_3D ( 'NONE', #258, #226, #16 ) ;
#117 =( LENGTH_UNIT ( ) NAMED_UNIT ( * ) SI_UNIT ( $, .METRE. ) );
#118 = CARTESIAN_POINT ( 'NONE',  ( 1.530367125165163595E-34, 1.250000000000000000, 0.000000000000000000 ) ) ;
#119 = AXIS2_PLACEMENT_3D ( 'NONE', #183, #279, #66 ) ;
#120 = CARTESIAN_POINT ( 'NONE',  ( 0.000000000000000000, 1.250000000000000000, 0.000000000000000000 ) ) ;
#121 = DIRECTION ( 'NONE',  ( -0.000000000000000000, -1.000000000000000000, -0.000000000000000000 ) ) ;
#122 = FILL_AREA_STYLE ('',( #282 ) ) ;
#123 =( NAMED_UNIT ( * ) SI_UNIT ( $, .STERADIAN. ) SOLID_ANGLE_UNIT ( ) );
#124 = AXIS2_PLACEMENT_3D ( 'NONE', #42, #239, #99 ) ;
#125 =( CONVERSION_BASED_UNIT ( 'INCH', #285 ) LENGTH_UNIT ( ) NAMED_UNIT ( #133 ) );
#126 = DIRECTION ( 'NONE',  ( -3.498990854706726443E-17, 1.000000000000000000, -0.000000000000000000 ) ) ;
#127 = ORIENTED_EDGE ( 'NONE', *, *, #305, .F. ) ;
#128 = MECHANICAL_DESIGN_GEOMETRIC_PRESENTATION_REPRESENTATION (  '', ( #230 ), #236 ) ;
#129 = VECTOR ( 'NONE', #224, 39.37007874015748143 ) ;
#130 =( NAMED_UNIT ( * ) SI_UNIT ( $, .STERADIAN. ) SOLID_ANGLE_UNIT ( ) );
#131 = EDGE_LOOP ( 'NONE', ( #291, #223 ) ) ;
#132 = PRESENTATION_STYLE_ASSIGNMENT (( #49 ) ) ;
#133 = DIMENSIONAL_EXPONENTS ( 1.000000000000000000, 0.000000000000000000, 0.000000000000000000, 0.000000000000000000, 0.000000000000000000, 0.000000000000000000, 0.000000000000000000 ) ;
#134 = STYLED_ITEM ( 'NONE', ( #297 ), #245 ) ;
#135 = DIRECTION ( 'NONE',  ( -3.498990854706726443E-17, 1.000000000000000000, -0.000000000000000000 ) ) ;
#136 = CARTESIAN_POINT ( 'NONE',  ( 0.2500000000000000000, 3.000000000000000444, 3.061616997868383634E-17 ) ) ;
#137 = VERTEX_POINT ( 'NONE', #167 ) ;
#138 = PLANE ( 'NONE',  #185 ) ;
#139 = LINE ( 'NONE', #94, #129 ) ;
#140 = DIRECTION ( 'NONE',  ( 0.000000000000000000, 0.000000000000000000, -1.000000000000000000 ) ) ;
#141 =( LENGTH_UNIT ( ) NAMED_UNIT ( * ) SI_UNIT ( $, .METRE. ) );
#142 = CARTESIAN_POINT ( 'NONE',  ( 0.000000000000000000, 0.000000000000000000, -0.2500000000000000000 ) ) ;
#143 = CIRCLE ( 'NONE', #238, 0.2500000000000000000 ) ;
#144 = ADVANCED_FACE ( 'NONE', ( #155 ), #243, .T. ) ;
#145 = PRESENTATION_LAYER_ASSIGNMENT (  '', '', ( #304 ) ) ;
#146 = LENGTH_MEASURE_WITH_UNIT ( LENGTH_MEASURE( 0.02539999999999999897 ), #270 );
#147 =( NAMED_UNIT ( * ) SI_UNIT ( $, .STERADIAN. ) SOLID_ANGLE_UNIT ( ) );
#148 = PRESENTATION_STYLE_ASSIGNMENT (( #171 ) ) ;
#149 = DIRECTION ( 'NONE',  ( -1.000000000000000000, 0.000000000000000000, 0.000000000000000000 ) ) ;
#150 = UNCERTAINTY_MEASURE_WITH_UNIT (LENGTH_MEASURE( 1.000000000000000082E-05 ), #56, 'distance_accuracy_value', 'NONE');
#151 = CIRCLE ( 'NONE', #119, 0.2500000000000000000 ) ;
#152 = DIMENSIONAL_EXPONENTS ( 1.000000000000000000, 0.000000000000000000, 0.000000000000000000, 0.000000000000000000, 0.000000000000000000, 0.000000000000000000, 0.000000000000000000 ) ;
#153 = VERTEX_POINT ( 'NONE', #136 ) ;
#154 = CYLINDRICAL_SURFACE ( 'NONE', #211, 0.2500000000000000000 ) ;
#155 = FACE_OUTER_BOUND ( 'NONE', #244, .T. ) ;
#156 = CIRCLE ( 'NONE', #273, 0.2500000000000000555 ) ;
#157 = DIRECTION ( 'NONE',  ( -0.000000000000000000, -1.000000000000000000, -0.000000000000000000 ) ) ;
#158 = DIRECTION ( 'NONE',  ( -3.498990854706726443E-17, 1.000000000000000000, -0.000000000000000000 ) ) ;
#159 = DIMENSIONAL_EXPONENTS ( 1.000000000000000000, 0.000000000000000000, 0.000000000000000000, 0.000000000000000000, 0.000000000000000000, 0.000000000000000000, 0.000000000000000000 ) ;
#160 = CARTESIAN_POINT ( 'NONE',  ( 0.000000000000000000, 0.000000000000000000, 0.000000000000000000 ) ) ;
#161 = CIRCLE ( 'NONE', #221, 0.2500000000000000000 ) ;
#162 = CIRCLE ( 'NONE', #262, 0.2500000000000000000 ) ;
#163 =( CONVERSION_BASED_UNIT ( 'INCH', #26 ) LENGTH_UNIT ( ) NAMED_UNIT ( #159 ) );
#164 = FILL_AREA_STYLE_COLOUR ( '', #95 ) ;
#165 = ADVANCED_FACE ( 'NONE', ( #264 ), #298, .T. ) ;
#166 = DIRECTION ( 'NONE',  ( -1.000000000000000000, 0.000000000000000000, 0.000000000000000000 ) ) ;
#167 = CARTESIAN_POINT ( 'NONE',  ( -0.2500000000000000000, 1.250000000000000000, 0.000000000000000000 ) ) ;
#168 = DIMENSIONAL_EXPONENTS ( 1.000000000000000000, 0.000000000000000000, 0.000000000000000000, 0.000000000000000000, 0.000000000000000000, 0.000000000000000000, 0.000000000000000000 ) ;
#169 = MECHANICAL_DESIGN_GEOMETRIC_PRESENTATION_REPRESENTATION (  '', ( #89 ), #23 ) ;
#170 = ADVANCED_FACE ( 'NONE', ( #212 ), #3, .T. ) ;
#171 = SURFACE_STYLE_USAGE ( .BOTH. , #79 ) ;
#172 =( CONVERSION_BASED_UNIT ( 'INCH', #114 ) LENGTH_UNIT ( ) NAMED_UNIT ( #232 ) );
#173 = SURFACE_SIDE_STYLE ('',( #12 ) ) ;
#174 = ORIENTED_EDGE ( 'NONE', *, *, #305, .T. ) ;
#175 = COLOUR_RGB ( '',1.000000000000000000, 0.000000000000000000, 0.000000000000000000 ) ;
#176 = COLOUR_RGB ( '',1.000000000000000000, 0.000000000000000000, 0.000000000000000000 ) ;
#177 = DIRECTION ( 'NONE',  ( 0.000000000000000000, -1.000000000000000000, -0.000000000000000000 ) ) ;
#178 =( NAMED_UNIT ( * ) PLANE_ANGLE_UNIT ( ) SI_UNIT ( $, .RADIAN. ) );
#179 = DIRECTION ( 'NONE',  ( 0.000000000000000000, 0.000000000000000000, -1.000000000000000000 ) ) ;
#180 = CARTESIAN_POINT ( 'NONE',  ( 0.000000000000000000, 1.250000000000000000, 0.000000000000000000 ) ) ;
#181 = DIMENSIONAL_EXPONENTS ( 1.000000000000000000, 0.000000000000000000, 0.000000000000000000, 0.000000000000000000, 0.000000000000000000, 0.000000000000000000, 0.000000000000000000 ) ;
#182 = ORIENTED_EDGE ( 'NONE', *, *, #4, .F. ) ;
#183 = CARTESIAN_POINT ( 'NONE',  ( 0.000000000000000000, 0.000000000000000000, 0.000000000000000000 ) ) ;
#184 = EDGE_LOOP ( 'NONE', ( #29, #45, #64, #48 ) ) ;
#185 = AXIS2_PLACEMENT_3D ( 'NONE', #87, #177, #299 ) ;
#186 = LENGTH_MEASURE_WITH_UNIT ( LENGTH_MEASURE( 0.02539999999999999897 ), #141 );
#187 =( CONVERSION_BASED_UNIT ( 'INCH', #186 ) LENGTH_UNIT ( ) NAMED_UNIT ( #152 ) );
#188 = FILL_AREA_STYLE ('',( #222 ) ) ;
#189 = ORIENTED_EDGE ( 'NONE', *, *, #249, .F. ) ;
#190 = AXIS2_PLACEMENT_3D ( 'NONE', #38, #302, #140 ) ;
#191 = FILL_AREA_STYLE ('',( #107 ) ) ;
#192 = SURFACE_SIDE_STYLE ('',( #111 ) ) ;
#193 = EDGE_CURVE ( 'NONE', #74, #268, #143, .T. ) ;
#194 = UNCERTAINTY_MEASURE_WITH_UNIT (LENGTH_MEASURE( 1.000000000000000082E-05 ), #125, 'distance_accuracy_value', 'NONE');
#195 = DIRECTION ( 'NONE',  ( -0.000000000000000000, -1.000000000000000000, -0.000000000000000000 ) ) ;
#196 = SURFACE_STYLE_USAGE ( .BOTH. , #173 ) ;
#197 = VERTEX_POINT ( 'NONE', #68 ) ;
#198 = APPLICATION_PROTOCOL_DEFINITION ( 'draft international standard', 'automotive_design', 1998, #37 ) ;
#199 = ADVANCED_FACE ( 'NONE', ( #41 ), #276, .F. ) ;
#200 =( GEOMETRIC_REPRESENTATION_CONTEXT ( 3 ) GLOBAL_UNCERTAINTY_ASSIGNED_CONTEXT ( ( #194 ) ) GLOBAL_UNIT_ASSIGNED_CONTEXT ( ( #125, #22, #123 ) ) REPRESENTATION_CONTEXT ( 'NONE', 'WORKASPACE' ) );
#201 = DIRECTION ( 'NONE',  ( -0.000000000000000000, -1.000000000000000000, -0.000000000000000000 ) ) ;
#202 = ORIENTED_EDGE ( 'NONE', *, *, #58, .F. ) ;
#203 = CARTESIAN_POINT ( 'NONE',  ( 0.000000000000000000, 1.250000000000000000, 0.000000000000000000 ) ) ;
#204 = VECTOR ( 'NONE', #121, 39.37007874015748143 ) ;
#205 = DIRECTION ( 'NONE',  ( -3.498990854706726443E-17, 1.000000000000000000, 0.000000000000000000 ) ) ;
#206 = DIRECTION ( 'NONE',  ( -1.000000000000000000, 0.000000000000000000, 0.000000000000000000 ) ) ;
#207 = DIRECTION ( 'NONE',  ( -3.498990854706726443E-17, 1.000000000000000000, -0.000000000000000000 ) ) ;
#208 = VECTOR ( 'NONE', #296, 39.37007874015748143 ) ;
#209 = SURFACE_STYLE_FILL_AREA ( #290 ) ;
#210 = FACE_OUTER_BOUND ( 'NONE', #229, .T. ) ;
#211 = AXIS2_PLACEMENT_3D ( 'NONE', #106, #195, #309 ) ;
#212 = FACE_OUTER_BOUND ( 'NONE', #184, .T. ) ;
#213 =( GEOMETRIC_REPRESENTATION_CONTEXT ( 3 ) GLOBAL_UNCERTAINTY_ASSIGNED_CONTEXT ( ( #265 ) ) GLOBAL_UNIT_ASSIGNED_CONTEXT ( ( #7, #241, #130 ) ) REPRESENTATION_CONTEXT ( 'NONE', 'WORKASPACE' ) );
#214 = ORIENTED_EDGE ( 'NONE', *, *, #283, .F. ) ;
#215 = CIRCLE ( 'NONE', #246, 0.2500000000000000000 ) ;
#216 = ORIENTED_EDGE ( 'NONE', *, *, #287, .T. ) ;
#217 = UNCERTAINTY_MEASURE_WITH_UNIT (LENGTH_MEASURE( 1.000000000000000082E-05 ), #187, 'distance_accuracy_value', 'NONE');
#218 = VERTEX_POINT ( 'NONE', #15 ) ;
#219 = CARTESIAN_POINT ( 'NONE',  ( 0.2499999999999999722, 3.000000000000000444, 3.061616997868383634E-17 ) ) ;
#220 = CLOSED_SHELL ( 'NONE', ( #30, #44, #170, #240 ) ) ;
#221 = AXIS2_PLACEMENT_3D ( 'NONE', #62, #157, #250 ) ;
#222 = FILL_AREA_STYLE_COLOUR ( '', #175 ) ;
#223 = ORIENTED_EDGE ( 'NONE', *, *, #254, .F. ) ;
#224 = DIRECTION ( 'NONE',  ( -0.000000000000000000, -1.000000000000000000, -0.000000000000000000 ) ) ;
#225 = EDGE_CURVE ( 'NONE', #268, #74, #161, .T. ) ;
#226 = DIRECTION ( 'NONE',  ( 0.000000000000000000, 0.000000000000000000, 1.000000000000000000 ) ) ;
#227 =( CONVERSION_BASED_UNIT ( 'INCH', #85 ) LENGTH_UNIT ( ) NAMED_UNIT ( #181 ) );
#228 = DIRECTION ( 'NONE',  ( -0.000000000000000000, -1.000000000000000000, -0.000000000000000000 ) ) ;
#229 = EDGE_LOOP ( 'NONE', ( #278, #286, #127, #214 ) ) ;
#230 = STYLED_ITEM ( 'NONE', ( #108 ), #44 ) ;
#231 =( GEOMETRIC_REPRESENTATION_CONTEXT ( 3 ) GLOBAL_UNCERTAINTY_ASSIGNED_CONTEXT ( ( #255 ) ) GLOBAL_UNIT_ASSIGNED_CONTEXT ( ( #227, #271, #55 ) ) REPRESENTATION_CONTEXT ( 'NONE', 'WORKASPACE' ) );
#232 = DIMENSIONAL_EXPONENTS ( 1.000000000000000000, 0.000000000000000000, 0.000000000000000000, 0.000000000000000000, 0.000000000000000000, 0.000000000000000000, 0.000000000000000000 ) ;
#233 = DIRECTION ( 'NONE',  ( 0.000000000000000000, 0.000000000000000000, -1.000000000000000000 ) ) ;
#234 = EDGE_CURVE ( 'NONE', #268, #76, #139, .T. ) ;
#235 =( LENGTH_UNIT ( ) NAMED_UNIT ( * ) SI_UNIT ( $, .METRE. ) );
#236 =( GEOMETRIC_REPRESENTATION_CONTEXT ( 3 ) GLOBAL_UNCERTAINTY_ASSIGNED_CONTEXT ( ( #60 ) ) GLOBAL_UNIT_ASSIGNED_CONTEXT ( ( #163, #47, #147 ) ) REPRESENTATION_CONTEXT ( 'NONE', 'WORKASPACE' ) );
#237 = SURFACE_STYLE_FILL_AREA ( #122 ) ;
#238 = AXIS2_PLACEMENT_3D ( 'NONE', #203, #228, #179 ) ;
#239 = DIRECTION ( 'NONE',  ( 0.000000000000000000, 1.000000000000000000, 0.000000000000000000 ) ) ;
#240 = ADVANCED_FACE ( 'NONE', ( #253 ), #138, .T. ) ;
#241 =( NAMED_UNIT ( * ) PLANE_ANGLE_UNIT ( ) SI_UNIT ( $, .RADIAN. ) );
#242 = CARTESIAN_POINT ( 'NONE',  ( -6.123233995736772199E-17, 3.000000000000000444, 0.000000000000000000 ) ) ;
#243 = CYLINDRICAL_SURFACE ( 'NONE', #19, 0.2500000000000000555 ) ;
#244 = EDGE_LOOP ( 'NONE', ( #202, #14, #256, #182 ) ) ;
#245 = MANIFOLD_SOLID_BREP ( 'Revolve - Tool Body (Straight Shanked)', #1 ) ;
#246 = AXIS2_PLACEMENT_3D ( 'NONE', #120, #277, #206 ) ;
#247 = ORIENTED_EDGE ( 'NONE', *, *, #100, .T. ) ;
#248 = PRODUCT_CONTEXT ( 'NONE', #37, 'mechanical' ) ;
#249 = EDGE_CURVE ( 'NONE', #137, #218, #275, .T. ) ;
#250 = DIRECTION ( 'NONE',  ( 0.000000000000000000, 0.000000000000000000, -1.000000000000000000 ) ) ;
#251 = FILL_AREA_STYLE_COLOUR ( '', #46 ) ;
#252 = FILL_AREA_STYLE ('',( #251 ) ) ;
#253 = FACE_OUTER_BOUND ( 'NONE', #53, .T. ) ;
#254 = EDGE_CURVE ( 'NONE', #197, #137, #215, .T. ) ;
#255 = UNCERTAINTY_MEASURE_WITH_UNIT (LENGTH_MEASURE( 1.000000000000000082E-05 ), #227, 'distance_accuracy_value', 'NONE');
#256 = ORIENTED_EDGE ( 'NONE', *, *, #249, .T. ) ;
#257 = MECHANICAL_DESIGN_GEOMETRIC_PRESENTATION_REPRESENTATION (  '', ( #134 ), #43 ) ;
#258 = CARTESIAN_POINT ( 'NONE',  ( 0.000000000000000000, 0.000000000000000000, 0.000000000000000000 ) ) ;
#259 = ORIENTED_EDGE ( 'NONE', *, *, #193, .F. ) ;
#260 = PRODUCT_RELATED_PRODUCT_CATEGORY ( 'part', '', ( #86 ) ) ;
#261 = SURFACE_STYLE_USAGE ( .BOTH. , #103 ) ;
#262 = AXIS2_PLACEMENT_3D ( 'NONE', #160, #201, #233 ) ;
#263 = PLANE ( 'NONE',  #124 ) ;
#264 = FACE_OUTER_BOUND ( 'NONE', #21, .T. ) ;
#265 = UNCERTAINTY_MEASURE_WITH_UNIT (LENGTH_MEASURE( 1.000000000000000082E-05 ), #7, 'distance_accuracy_value', 'NONE');
#266 = AXIS2_PLACEMENT_3D ( 'NONE', #27, #32, #149 ) ;
#267 = VERTEX_POINT ( 'NONE', #93 ) ;
#268 = VERTEX_POINT ( 'NONE', #20 ) ;
#269 =( LENGTH_UNIT ( ) NAMED_UNIT ( * ) SI_UNIT ( $, .METRE. ) );
#270 =( LENGTH_UNIT ( ) NAMED_UNIT ( * ) SI_UNIT ( $, .METRE. ) );
#271 =( NAMED_UNIT ( * ) PLANE_ANGLE_UNIT ( ) SI_UNIT ( $, .RADIAN. ) );
#272 = DIRECTION ( 'NONE',  ( -1.000000000000000000, -3.498990854706726443E-17, 0.000000000000000000 ) ) ;
#273 = AXIS2_PLACEMENT_3D ( 'NONE', #73, #135, #166 ) ;
#274 = AXIS2_PLACEMENT_3D ( 'NONE', #80, #13, #112 ) ;
#275 = LINE ( 'NONE', #59, #33 ) ;
#276 = PLANE ( 'NONE',  #71 ) ;
#277 = DIRECTION ( 'NONE',  ( -3.498990854706726443E-17, 1.000000000000000000, -0.000000000000000000 ) ) ;
#278 = ORIENTED_EDGE ( 'NONE', *, *, #193, .T. ) ;
#279 = DIRECTION ( 'NONE',  ( -0.000000000000000000, -1.000000000000000000, -0.000000000000000000 ) ) ;
#280 = CIRCLE ( 'NONE', #266, 0.2500000000000000555 ) ;
#281 = PRODUCT_DEFINITION_CONTEXT ( 'detailed design', #69, 'design' ) ;
#282 = FILL_AREA_STYLE_COLOUR ( '', #39 ) ;
#283 = EDGE_CURVE ( 'NONE', #74, #267, #97, .T. ) ;
#284 = PRODUCT_DEFINITION_FORMATION_WITH_SPECIFIED_SOURCE ( 'ANY', '', #86, .NOT_KNOWN. ) ;
#285 = LENGTH_MEASURE_WITH_UNIT ( LENGTH_MEASURE( 0.02539999999999999897 ), #235 );
#286 = ORIENTED_EDGE ( 'NONE', *, *, #234, .T. ) ;
#287 = EDGE_CURVE ( 'NONE', #137, #197, #75, .T. ) ;
#288 =( LENGTH_UNIT ( ) NAMED_UNIT ( * ) SI_UNIT ( $, .METRE. ) );
#289 = SURFACE_STYLE_FILL_AREA ( #191 ) ;
#290 = FILL_AREA_STYLE ('',( #164 ) ) ;
#291 = ORIENTED_EDGE ( 'NONE', *, *, #287, .F. ) ;
#292 = CARTESIAN_POINT ( 'NONE',  ( -6.123233995736772199E-17, 3.000000000000000444, 0.000000000000000000 ) ) ;
#293 = DIRECTION ( 'NONE',  ( -1.000000000000000000, 0.000000000000000000, 0.000000000000000000 ) ) ;
#294 =( NAMED_UNIT ( * ) PLANE_ANGLE_UNIT ( ) SI_UNIT ( $, .RADIAN. ) );
#295 = EDGE_CURVE ( 'NONE', #76, #267, #162, .T. ) ;
#296 = DIRECTION ( 'NONE',  ( -3.498990854706726443E-17, 1.000000000000000000, -0.000000000000000000 ) ) ;
#297 = PRESENTATION_STYLE_ASSIGNMENT (( #196 ) ) ;
#298 = CYLINDRICAL_SURFACE ( 'NONE', #105, 0.2500000000000000555 ) ;
#299 = DIRECTION ( 'NONE',  ( 0.000000000000000000, 0.000000000000000000, -1.000000000000000000 ) ) ;
#300 = EDGE_LOOP ( 'NONE', ( #259, #72 ) ) ;
#301 = LENGTH_MEASURE_WITH_UNIT ( LENGTH_MEASURE( 0.02539999999999999897 ), #269 );
#302 = DIRECTION ( 'NONE',  ( -0.000000000000000000, -1.000000000000000000, -0.000000000000000000 ) ) ;
#303 = ORIENTED_EDGE ( 'NONE', *, *, #295, .T. ) ;
#304 = STYLED_ITEM ( 'NONE', ( #132 ), #170 ) ;
#305 = EDGE_CURVE ( 'NONE', #267, #76, #151, .T. ) ;
#306 = DIRECTION ( 'NONE',  ( -1.000000000000000000, 0.000000000000000000, 0.000000000000000000 ) ) ;
#307 = PRODUCT_DEFINITION_SHAPE ( 'NONE', 'NONE',  #10 ) ;
#308 = ORIENTED_EDGE ( 'NONE', *, *, #4, .T. ) ;
#309 = DIRECTION ( 'NONE',  ( 0.000000000000000000, 0.000000000000000000, -1.000000000000000000 ) ) ;
ENDSEC;
END-ISO-10303-21;
