ISO-10303-21;
HEADER;
FILE_DESCRIPTION (( 'STEP AP214' ),
    '1' );
FILE_NAME ('Micro_SBMM-100-472X.STEP',
    '2021-09-02T17:24:18',
    ( '' ),
    ( '' ),
    'SwSTEP 2.0',
    'SolidWorks 2020',
    '' );
FILE_SCHEMA (( 'AUTOMOTIVE_DESIGN' ));
ENDSEC;

DATA;
#1 = SURFACE_STYLE_FILL_AREA ( #237 ) ;
#2 = CARTESIAN_POINT ( 'NONE',  ( 0.0000000000000000000, 0.0000000000000000000, 2.165353999999999779 ) ) ;
#3 = ORIENTED_EDGE ( 'NONE', *, *, #145, .T. ) ;
#4 = DIRECTION ( 'NONE',  ( 1.000000000000000000, 1.224646799147353207E-16, -0.0000000000000000000 ) ) ;
#5 = CONICAL_SURFACE ( 'NONE', #277, 0.2165355499999996880, 0.1262477912956223025 ) ;
#6 = SPHERICAL_SURFACE ( 'NONE', #327, 0.1968500000000000250 ) ;
#7 = ORIENTED_EDGE ( 'NONE', *, *, #9, .T. ) ;
#8 = APPLICATION_CONTEXT ( 'automotive_design' ) ;
#9 = EDGE_CURVE ( 'NONE', #266, #245, #153, .T. ) ;
#10 = ADVANCED_FACE ( 'NONE', ( #133 ), #5, .T. ) ;
#11 = CARTESIAN_POINT ( 'NONE',  ( 0.0000000000000000000, 0.0000000000000000000, 0.0000000000000000000 ) ) ;
#12 = ORIENTED_EDGE ( 'NONE', *, *, #215, .T. ) ;
#13 = AXIS2_PLACEMENT_3D ( 'NONE', #322, #59, #216 ) ;
#14 = ORIENTED_EDGE ( 'NONE', *, *, #25, .F. ) ;
#15 = CARTESIAN_POINT ( 'NONE',  ( 0.1968504999999999838, 2.410723347355560646E-17, 2.677165000000000017 ) ) ;
#16 = ORIENTED_EDGE ( 'NONE', *, *, #204, .F. ) ;
#17 = DIRECTION ( 'NONE',  ( 0.7071067811865419106, 8.659560562354863833E-17, -0.7071067811865531239 ) ) ;
#18 = SURFACE_STYLE_USAGE ( .BOTH. , #75 ) ;
#19 = CARTESIAN_POINT ( 'NONE',  ( 0.1318899999999997574, 0.0000000000000000000, 2.165353999999999779 ) ) ;
#20 = SHAPE_DEFINITION_REPRESENTATION ( #100, #76 ) ;
#21 = CIRCLE ( 'NONE', #182, 0.1318899999999999517 ) ;
#22 = UNCERTAINTY_MEASURE_WITH_UNIT (LENGTH_MEASURE( 1.000000000000000082E-05 ), #127, 'distance_accuracy_value', 'NONE');
#23 = ADVANCED_FACE ( 'NONE', ( #158 ), #57, .T. ) ;
#24 = DIRECTION ( 'NONE',  ( 1.000000000000000000, 0.0000000000000000000, 0.0000000000000000000 ) ) ;
#25 = EDGE_CURVE ( 'NONE', #172, #61, #184, .T. ) ;
#26 = CARTESIAN_POINT ( 'NONE',  ( 0.0000000000000000000, 0.0000000000000000000, 2.677165000000000017 ) ) ;
#27 = APPLICATION_CONTEXT ( 'automotive_design' ) ;
#28 = CARTESIAN_POINT ( 'NONE',  ( 0.0000000000000000000, 0.0000000000000000000, 3.937007999999999619 ) ) ;
#29 = CIRCLE ( 'NONE', #37, 0.1968500000000000250 ) ;
#30 = SURFACE_STYLE_USAGE ( .BOTH. , #162 ) ;
#31 = PRODUCT_RELATED_PRODUCT_CATEGORY ( 'part', '', ( #152 ) ) ;
#32 = DIRECTION ( 'NONE',  ( 0.0000000000000000000, 0.0000000000000000000, 1.000000000000000000 ) ) ;
#33 = VERTEX_POINT ( 'NONE', #110 ) ;
#34 = CYLINDRICAL_SURFACE ( 'NONE', #185, 0.1318899999999998407 ) ;
#35 = CIRCLE ( 'NONE', #249, 0.1968504999999999838 ) ;
#36 = ORIENTED_EDGE ( 'NONE', *, *, #236, .F. ) ;
#37 = AXIS2_PLACEMENT_3D ( 'NONE', #117, #326, #275 ) ;
#38 = ADVANCED_FACE ( 'NONE', ( #310 ), #161, .T. ) ;
#39 = ADVANCED_FACE ( 'NONE', ( #138 ), #235, .T. ) ;
#40 = ORIENTED_EDGE ( 'NONE', *, *, #151, .T. ) ;
#41 = DIRECTION ( 'NONE',  ( -0.0000000000000000000, -0.0000000000000000000, -1.000000000000000000 ) ) ;
#42 = ORIENTED_EDGE ( 'NONE', *, *, #334, .F. ) ;
#43 = DIRECTION ( 'NONE',  ( 0.0000000000000000000, 0.0000000000000000000, -1.000000000000000000 ) ) ;
#44 = EDGE_LOOP ( 'NONE', ( #147, #94, #219, #171 ) ) ;
#45 = DIRECTION ( 'NONE',  ( -0.0000000000000000000, -0.0000000000000000000, -1.000000000000000000 ) ) ;
#46 = LENGTH_MEASURE_WITH_UNIT ( LENGTH_MEASURE( 0.02539999999999999897 ), #282 );
#47 = UNCERTAINTY_MEASURE_WITH_UNIT (LENGTH_MEASURE( 1.000000000000000082E-05 ), #66, 'distance_accuracy_value', 'NONE');
#48 = DIRECTION ( 'NONE',  ( 0.0000000000000000000, 0.0000000000000000000, 1.000000000000000000 ) ) ;
#49 = AXIS2_PLACEMENT_3D ( 'NONE', #26, #345, #207 ) ;
#50 = EDGE_CURVE ( 'NONE', #120, #144, #35, .T. ) ;
#51 = LINE ( 'NONE', #260, #194 ) ;
#52 = DIRECTION ( 'NONE',  ( 1.000000000000000000, 0.0000000000000000000, 0.0000000000000000000 ) ) ;
#53 = EDGE_CURVE ( 'NONE', #266, #61, #51, .T. ) ;
#54 = FILL_AREA_STYLE_COLOUR ( '', #118 ) ;
#55 = CARTESIAN_POINT ( 'NONE',  ( -0.1968504999999999838, 0.0000000000000000000, 3.922007999999999051 ) ) ;
#56 = VERTEX_POINT ( 'NONE', #109 ) ;
#57 = CONICAL_SURFACE ( 'NONE', #336, 0.1818504999999994431, 0.7853981633974403964 ) ;
#58 = DIRECTION ( 'NONE',  ( 0.1259126916184463429, 0.0000000000000000000, 0.9920413268051881950 ) ) ;
#59 = DIRECTION ( 'NONE',  ( 0.0000000000000000000, 0.0000000000000000000, 1.000000000000000000 ) ) ;
#60 = EDGE_CURVE ( 'NONE', #245, #298, #292, .T. ) ;
#61 = VERTEX_POINT ( 'NONE', #259 ) ;
#62 =( GEOMETRIC_REPRESENTATION_CONTEXT ( 3 ) GLOBAL_UNCERTAINTY_ASSIGNED_CONTEXT ( ( #22 ) ) GLOBAL_UNIT_ASSIGNED_CONTEXT ( ( #127, #73, #253 ) ) REPRESENTATION_CONTEXT ( 'NONE', 'WORKASPACE' ) );
#63 = DIRECTION ( 'NONE',  ( -0.0000000000000000000, -0.0000000000000000000, -1.000000000000000000 ) ) ;
#64 = ORIENTED_EDGE ( 'NONE', *, *, #98, .F. ) ;
#65 = VECTOR ( 'NONE', #244, 39.37007874015748143 ) ;
#66 =( CONVERSION_BASED_UNIT ( 'INCH', #83 ) LENGTH_UNIT ( ) NAMED_UNIT ( #128 ) );
#67 = ORIENTED_EDGE ( 'NONE', *, *, #306, .T. ) ;
#68 = DIRECTION ( 'NONE',  ( -1.000000000000000000, 0.0000000000000000000, 0.0000000000000000000 ) ) ;
#69 = VERTEX_POINT ( 'NONE', #186 ) ;
#70 = CARTESIAN_POINT ( 'NONE',  ( 0.0000000000000000000, 0.0000000000000000000, 0.3429833309002433550 ) ) ;
#71 = CARTESIAN_POINT ( 'NONE',  ( 0.1318899999999999240, 1.615186663395443317E-17, 0.3429833309002433550 ) ) ;
#72 = EDGE_CURVE ( 'NONE', #33, #86, #201, .T. ) ;
#73 =( NAMED_UNIT ( * ) PLANE_ANGLE_UNIT ( ) SI_UNIT ( $, .RADIAN. ) );
#74 = AXIS2_PLACEMENT_3D ( 'NONE', #129, #155, #177 ) ;
#75 = SURFACE_SIDE_STYLE ('',( #229 ) ) ;
#76 = ADVANCED_BREP_SHAPE_REPRESENTATION ( 'Micro_SBMM-100-472X', ( #126, #74 ), #314 ) ;
#77 = DIRECTION ( 'NONE',  ( 1.000000000000000000, 0.0000000000000000000, 0.0000000000000000000 ) ) ;
#78 = CARTESIAN_POINT ( 'NONE',  ( 0.0000000000000000000, 0.0000000000000000000, 3.922007999999999051 ) ) ;
#79 = CIRCLE ( 'NONE', #13, 0.1818504999999994431 ) ;
#80 = DIRECTION ( 'NONE',  ( -1.000000000000000000, 0.0000000000000000000, 0.0000000000000000000 ) ) ;
#81 = DIRECTION ( 'NONE',  ( 0.0000000000000000000, 0.0000000000000000000, -1.000000000000000000 ) ) ;
#82 = DIRECTION ( 'NONE',  ( 0.0000000000000000000, 0.0000000000000000000, -1.000000000000000000 ) ) ;
#83 = LENGTH_MEASURE_WITH_UNIT ( LENGTH_MEASURE( 0.02539999999999999897 ), #246 );
#84 = ORIENTED_EDGE ( 'NONE', *, *, #192, .F. ) ;
#85 = DIRECTION ( 'NONE',  ( 0.0000000000000000000, 0.0000000000000000000, -1.000000000000000000 ) ) ;
#86 = VERTEX_POINT ( 'NONE', #289 ) ;
#87 = CIRCLE ( 'NONE', #105, 0.1968504999999999838 ) ;
#88 = FACE_OUTER_BOUND ( 'NONE', #44, .T. ) ;
#89 = ORIENTED_EDGE ( 'NONE', *, *, #160, .F. ) ;
#90 = VECTOR ( 'NONE', #165, 39.37007874015748143 ) ;
#91 = FACE_OUTER_BOUND ( 'NONE', #167, .T. ) ;
#92 = ORIENTED_EDGE ( 'NONE', *, *, #98, .T. ) ;
#93 = CARTESIAN_POINT ( 'NONE',  ( -0.1318899999999997574, 2.012955005375500749E-17, 2.165353999999999779 ) ) ;
#94 = ORIENTED_EDGE ( 'NONE', *, *, #50, .T. ) ;
#95 = LINE ( 'NONE', #176, #297 ) ;
#96 = AXIS2_PLACEMENT_3D ( 'NONE', #317, #163, #238 ) ;
#97 =( CONVERSION_BASED_UNIT ( 'INCH', #338 ) LENGTH_UNIT ( ) NAMED_UNIT ( #286 ) );
#98 = EDGE_CURVE ( 'NONE', #245, #172, #210, .T. ) ;
#99 = APPLICATION_PROTOCOL_DEFINITION ( 'draft international standard', 'automotive_design', 1998, #8 ) ;
#100 = PRODUCT_DEFINITION_SHAPE ( 'NONE', 'NONE',  #119 ) ;
#101 = CIRCLE ( 'NONE', #193, 0.1318899999999999517 ) ;
#102 = DIRECTION ( 'NONE',  ( -1.000000000000000000, 0.0000000000000000000, 0.0000000000000000000 ) ) ;
#103 = CARTESIAN_POINT ( 'NONE',  ( 0.0000000000000000000, 0.0000000000000000000, 0.0000000000000000000 ) ) ;
#104 = AXIS2_PLACEMENT_3D ( 'NONE', #148, #308, #174 ) ;
#105 = AXIS2_PLACEMENT_3D ( 'NONE', #240, #85, #115 ) ;
#106 = ADVANCED_FACE ( 'NONE', ( #188 ), #319, .T. ) ;
#107 = ADVANCED_FACE ( 'NONE', ( #108 ), #232, .T. ) ;
#108 = FACE_OUTER_BOUND ( 'NONE', #274, .T. ) ;
#109 = CARTESIAN_POINT ( 'NONE',  ( -0.1318899999999999240, 0.0000000000000000000, 0.3429833309002433550 ) ) ;
#110 = CARTESIAN_POINT ( 'NONE',  ( 0.1818504999999994431, 2.318874837419505661E-17, 3.937007999999999619 ) ) ;
#111 = AXIS2_PLACEMENT_3D ( 'NONE', #291, #156, #80 ) ;
#112 = EDGE_LOOP ( 'NONE', ( #276, #36, #92, #272 ) ) ;
#113 = DIRECTION ( 'NONE',  ( 1.000000000000000000, 0.0000000000000000000, 0.0000000000000000000 ) ) ;
#114 = ORIENTED_EDGE ( 'NONE', *, *, #9, .F. ) ;
#115 = DIRECTION ( 'NONE',  ( 1.000000000000000000, 0.0000000000000000000, 0.0000000000000000000 ) ) ;
#116 = ORIENTED_EDGE ( 'NONE', *, *, #265, .F. ) ;
#117 = CARTESIAN_POINT ( 'NONE',  ( 0.0000000000000000000, 0.0000000000000000000, 0.1968500000000000250 ) ) ;
#118 = COLOUR_RGB ( '',0.7921568627450980005, 0.8196078431372548767, 0.9333333333333333481 ) ;
#119 = PRODUCT_DEFINITION ( 'UNKNOWN', '', #337, #254 ) ;
#120 = VERTEX_POINT ( 'NONE', #209 ) ;
#121 =( LENGTH_UNIT ( ) NAMED_UNIT ( * ) SI_UNIT ( $, .METRE. ) );
#122 = EDGE_LOOP ( 'NONE', ( #114, #311, #14, #64 ) ) ;
#123 = CARTESIAN_POINT ( 'NONE',  ( 0.0000000000000000000, 0.0000000000000000000, 0.3429833309002433550 ) ) ;
#124 = LINE ( 'NONE', #332, #248 ) ;
#125 = VECTOR ( 'NONE', #58, 39.37007874015748854 ) ;
#126 = MANIFOLD_SOLID_BREP ( 'Cut-Revolve3', #258 ) ;
#127 =( CONVERSION_BASED_UNIT ( 'INCH', #46 ) LENGTH_UNIT ( ) NAMED_UNIT ( #340 ) );
#128 = DIMENSIONAL_EXPONENTS ( 1.000000000000000000, 0.0000000000000000000, 0.0000000000000000000, 0.0000000000000000000, 0.0000000000000000000, 0.0000000000000000000, 0.0000000000000000000 ) ;
#129 = CARTESIAN_POINT ( 'NONE',  ( 0.0000000000000000000, 0.0000000000000000000, 0.0000000000000000000 ) ) ;
#130 = DIRECTION ( 'NONE',  ( 1.000000000000000000, 0.0000000000000000000, -0.0000000000000000000 ) ) ;
#131 = DIRECTION ( 'NONE',  ( -0.1259126916184463429, 1.541985747625580814E-17, 0.9920413268051881950 ) ) ;
#132 = EDGE_CURVE ( 'NONE', #120, #172, #324, .T. ) ;
#133 = FACE_OUTER_BOUND ( 'NONE', #122, .T. ) ;
#134 = ORIENTED_EDGE ( 'NONE', *, *, #25, .T. ) ;
#135 = AXIS2_PLACEMENT_3D ( 'NONE', #278, #173, #225 ) ;
#136 = CONICAL_SURFACE ( 'NONE', #268, 0.1818504999999994431, 0.7853981633974403964 ) ;
#137 = PRESENTATION_STYLE_ASSIGNMENT (( #30 ) ) ;
#138 = FACE_OUTER_BOUND ( 'NONE', #290, .T. ) ;
#139 = DIRECTION ( 'NONE',  ( 1.000000000000000000, 0.0000000000000000000, 0.0000000000000000000 ) ) ;
#140 = EDGE_LOOP ( 'NONE', ( #331, #67, #328, #142 ) ) ;
#141 =( NAMED_UNIT ( * ) SI_UNIT ( $, .STERADIAN. ) SOLID_ANGLE_UNIT ( ) );
#142 = ORIENTED_EDGE ( 'NONE', *, *, #160, .T. ) ;
#143 = LINE ( 'NONE', #271, #65 ) ;
#144 = VERTEX_POINT ( 'NONE', #55 ) ;
#145 = EDGE_CURVE ( 'NONE', #86, #33, #79, .T. ) ;
#146 = VERTEX_POINT ( 'NONE', #330 ) ;
#147 = ORIENTED_EDGE ( 'NONE', *, *, #132, .F. ) ;
#148 = CARTESIAN_POINT ( 'NONE',  ( 0.0000000000000000000, 0.0000000000000000000, 2.165353999999999779 ) ) ;
#149 = EDGE_CURVE ( 'NONE', #86, #144, #189, .T. ) ;
#150 = DIRECTION ( 'NONE',  ( -1.000000000000000000, 0.0000000000000000000, 0.0000000000000000000 ) ) ;
#151 = EDGE_CURVE ( 'NONE', #298, #305, #101, .T. ) ;
#152 = PRODUCT ( 'Micro_SBMM-100-472X', 'Micro_SBMM-100-472X', '', ( #226 ) ) ;
#153 = CIRCLE ( 'NONE', #343, 0.1318899999999997574 ) ;
#154 = APPLICATION_PROTOCOL_DEFINITION ( 'draft international standard', 'automotive_design', 1998, #27 ) ;
#155 = DIRECTION ( 'NONE',  ( 0.0000000000000000000, 0.0000000000000000000, 1.000000000000000000 ) ) ;
#156 = DIRECTION ( 'NONE',  ( -0.0000000000000000000, -0.0000000000000000000, -1.000000000000000000 ) ) ;
#157 = AXIS2_PLACEMENT_3D ( 'NONE', #315, #187, #130 ) ;
#158 = FACE_OUTER_BOUND ( 'NONE', #198, .T. ) ;
#159 = ADVANCED_FACE ( 'NONE', ( #267 ), #34, .T. ) ;
#160 = EDGE_CURVE ( 'NONE', #69, #146, #29, .T. ) ;
#161 = CYLINDRICAL_SURFACE ( 'NONE', #111, 0.1968504999999999838 ) ;
#162 = SURFACE_SIDE_STYLE ('',( #1 ) ) ;
#163 = DIRECTION ( 'NONE',  ( 1.000000000000000000, 0.0000000000000000000, 0.0000000000000000000 ) ) ;
#164 = FACE_OUTER_BOUND ( 'NONE', #140, .T. ) ;
#165 = DIRECTION ( 'NONE',  ( -0.7071067811865419106, 0.0000000000000000000, -0.7071067811865531239 ) ) ;
#166 = CIRCLE ( 'NONE', #227, 0.1968500000000000250 ) ;
#167 = EDGE_LOOP ( 'NONE', ( #217, #197, #84, #222 ) ) ;
#168 = EDGE_CURVE ( 'NONE', #61, #172, #299, .T. ) ;
#169 = ADVANCED_FACE ( 'NONE', ( #164 ), #6, .T. ) ;
#170 = CARTESIAN_POINT ( 'NONE',  ( 0.0000000000000000000, 0.0000000000000000000, 2.677165000000000017 ) ) ;
#171 = ORIENTED_EDGE ( 'NONE', *, *, #168, .T. ) ;
#172 = VERTEX_POINT ( 'NONE', #15 ) ;
#173 = DIRECTION ( 'NONE',  ( -0.0000000000000000000, -0.0000000000000000000, -1.000000000000000000 ) ) ;
#174 = DIRECTION ( 'NONE',  ( -1.000000000000000000, 0.0000000000000000000, 0.0000000000000000000 ) ) ;
#175 = FILL_AREA_STYLE ('',( #280 ) ) ;
#176 = CARTESIAN_POINT ( 'NONE',  ( -0.1968504999999999838, 0.0000000000000000000, 3.937007999999999619 ) ) ;
#177 = DIRECTION ( 'NONE',  ( 1.000000000000000000, 0.0000000000000000000, 0.0000000000000000000 ) ) ;
#178 = MECHANICAL_DESIGN_GEOMETRIC_PRESENTATION_REPRESENTATION (  '', ( #195 ), #62 ) ;
#179 = MECHANICAL_DESIGN_GEOMETRIC_PRESENTATION_REPRESENTATION (  '', ( #293 ), #285 ) ;
#180 = PRESENTATION_STYLE_ASSIGNMENT (( #18 ) ) ;
#181 = DIRECTION ( 'NONE',  ( -0.0000000000000000000, -0.0000000000000000000, -1.000000000000000000 ) ) ;
#182 = AXIS2_PLACEMENT_3D ( 'NONE', #123, #202, #307 ) ;
#183 = DIRECTION ( 'NONE',  ( 0.0000000000000000000, 0.0000000000000000000, 1.000000000000000000 ) ) ;
#184 = CIRCLE ( 'NONE', #49, 0.1968504999999999838 ) ;
#185 = AXIS2_PLACEMENT_3D ( 'NONE', #11, #63, #242 ) ;
#186 = CARTESIAN_POINT ( 'NONE',  ( 0.0000000000000000000, 0.1318899999999999795, 0.3429833309002433550 ) ) ;
#187 = DIRECTION ( 'NONE',  ( 0.0000000000000000000, 0.0000000000000000000, 1.000000000000000000 ) ) ;
#188 = FACE_OUTER_BOUND ( 'NONE', #321, .T. ) ;
#189 = LINE ( 'NONE', #295, #90 ) ;
#190 = CARTESIAN_POINT ( 'NONE',  ( 0.0000000000000000000, 0.0000000000000000000, 3.937007999999999619 ) ) ;
#191 = ORIENTED_EDGE ( 'NONE', *, *, #192, .T. ) ;
#192 = EDGE_CURVE ( 'NONE', #144, #120, #87, .T. ) ;
#193 = AXIS2_PLACEMENT_3D ( 'NONE', #211, #296, #68 ) ;
#194 = VECTOR ( 'NONE', #131, 39.37007874015748854 ) ;
#195 = STYLED_ITEM ( 'NONE', ( #180 ), #76 ) ;
#196 = CYLINDRICAL_SURFACE ( 'NONE', #329, 0.1968504999999999838 ) ;
#197 = ORIENTED_EDGE ( 'NONE', *, *, #256, .T. ) ;
#198 = EDGE_LOOP ( 'NONE', ( #325, #301, #269, #212 ) ) ;
#199 = DIRECTION ( 'NONE',  ( -0.0000000000000000000, -0.0000000000000000000, -1.000000000000000000 ) ) ;
#200 = ORIENTED_EDGE ( 'NONE', *, *, #204, .T. ) ;
#201 = CIRCLE ( 'NONE', #270, 0.1818504999999994431 ) ;
#202 = DIRECTION ( 'NONE',  ( -0.0000000000000000000, -0.0000000000000000000, -1.000000000000000000 ) ) ;
#203 = ADVANCED_FACE ( 'NONE', ( #91 ), #136, .T. ) ;
#204 = EDGE_CURVE ( 'NONE', #266, #56, #143, .T. ) ;
#205 = CARTESIAN_POINT ( 'NONE',  ( 0.2165355499999996880, 0.0000000000000000000, 2.832259636364403033 ) ) ;
#206 = CONICAL_SURFACE ( 'NONE', #208, 0.2165355499999996880, 0.1262477912956223025 ) ;
#207 = DIRECTION ( 'NONE',  ( 1.000000000000000000, 0.0000000000000000000, 0.0000000000000000000 ) ) ;
#208 = AXIS2_PLACEMENT_3D ( 'NONE', #252, #48, #223 ) ;
#209 = CARTESIAN_POINT ( 'NONE',  ( 0.1968504999999999838, 2.410723347355560646E-17, 3.922007999999999051 ) ) ;
#210 = LINE ( 'NONE', #205, #125 ) ;
#211 = CARTESIAN_POINT ( 'NONE',  ( 0.0000000000000000000, 0.0000000000000000000, 0.3429833309002433550 ) ) ;
#212 = ORIENTED_EDGE ( 'NONE', *, *, #50, .F. ) ;
#213 = DIRECTION ( 'NONE',  ( 0.0000000000000000000, 0.0000000000000000000, 1.000000000000000000 ) ) ;
#214 = EDGE_LOOP ( 'NONE', ( #191, #247, #134, #303 ) ) ;
#215 = EDGE_CURVE ( 'NONE', #305, #146, #166, .T. ) ;
#216 = DIRECTION ( 'NONE',  ( 1.000000000000000000, 0.0000000000000000000, 0.0000000000000000000 ) ) ;
#217 = ORIENTED_EDGE ( 'NONE', *, *, #72, .F. ) ;
#218 = DIRECTION ( 'NONE',  ( -1.224646799147353207E-16, 1.000000000000000000, 0.0000000000000000000 ) ) ;
#219 = ORIENTED_EDGE ( 'NONE', *, *, #316, .T. ) ;
#220 = PRESENTATION_LAYER_ASSIGNMENT (  '', '', ( #195 ) ) ;
#221 = DIRECTION ( 'NONE',  ( 0.0000000000000000000, 1.000000000000000000, 0.0000000000000000000 ) ) ;
#222 = ORIENTED_EDGE ( 'NONE', *, *, #149, .F. ) ;
#223 = DIRECTION ( 'NONE',  ( 1.000000000000000000, 0.0000000000000000000, 0.0000000000000000000 ) ) ;
#224 = ORIENTED_EDGE ( 'NONE', *, *, #72, .T. ) ;
#225 = DIRECTION ( 'NONE',  ( -1.000000000000000000, 0.0000000000000000000, 0.0000000000000000000 ) ) ;
#226 = PRODUCT_CONTEXT ( 'NONE', #8, 'mechanical' ) ;
#227 = AXIS2_PLACEMENT_3D ( 'NONE', #250, #4, #218 ) ;
#228 = AXIS2_PLACEMENT_3D ( 'NONE', #170, #213, #139 ) ;
#229 = SURFACE_STYLE_FILL_AREA ( #175 ) ;
#230 = ADVANCED_FACE ( 'NONE', ( #88 ), #196, .T. ) ;
#231 = VECTOR ( 'NONE', #181, 39.37007874015748143 ) ;
#232 = CYLINDRICAL_SURFACE ( 'NONE', #284, 0.1318899999999998407 ) ;
#233 = CARTESIAN_POINT ( 'NONE',  ( 0.1318899999999998407, 1.615186663395442393E-17, 0.0000000000000000000 ) ) ;
#234 = ORIENTED_EDGE ( 'NONE', *, *, #151, .F. ) ;
#235 = SPHERICAL_SURFACE ( 'NONE', #96, 0.1968500000000000250 ) ;
#236 = EDGE_CURVE ( 'NONE', #245, #266, #255, .T. ) ;
#237 = FILL_AREA_STYLE ('',( #54 ) ) ;
#238 = DIRECTION ( 'NONE',  ( 0.0000000000000000000, 1.000000000000000000, 0.0000000000000000000 ) ) ;
#239 = ORIENTED_EDGE ( 'NONE', *, *, #60, .F. ) ;
#240 = CARTESIAN_POINT ( 'NONE',  ( 0.0000000000000000000, 0.0000000000000000000, 3.922007999999999051 ) ) ;
#241 = ADVANCED_FACE ( 'NONE', ( #279 ), #206, .T. ) ;
#242 = DIRECTION ( 'NONE',  ( -1.000000000000000000, 0.0000000000000000000, 0.0000000000000000000 ) ) ;
#243 = ORIENTED_EDGE ( 'NONE', *, *, #236, .T. ) ;
#244 = DIRECTION ( 'NONE',  ( -0.0000000000000000000, -0.0000000000000000000, -1.000000000000000000 ) ) ;
#245 = VERTEX_POINT ( 'NONE', #19 ) ;
#246 =( LENGTH_UNIT ( ) NAMED_UNIT ( * ) SI_UNIT ( $, .METRE. ) );
#247 = ORIENTED_EDGE ( 'NONE', *, *, #132, .T. ) ;
#248 = VECTOR ( 'NONE', #17, 39.37007874015748143 ) ;
#249 = AXIS2_PLACEMENT_3D ( 'NONE', #78, #81, #77 ) ;
#250 = CARTESIAN_POINT ( 'NONE',  ( 0.0000000000000000000, 0.0000000000000000000, 0.1968500000000000250 ) ) ;
#251 = ORIENTED_EDGE ( 'NONE', *, *, #334, .T. ) ;
#252 = CARTESIAN_POINT ( 'NONE',  ( 0.0000000000000000000, 0.0000000000000000000, 2.832259636364403033 ) ) ;
#253 =( NAMED_UNIT ( * ) SI_UNIT ( $, .STERADIAN. ) SOLID_ANGLE_UNIT ( ) );
#254 = PRODUCT_DEFINITION_CONTEXT ( 'detailed design', #27, 'design' ) ;
#255 = CIRCLE ( 'NONE', #104, 0.1318899999999997574 ) ;
#256 = EDGE_CURVE ( 'NONE', #33, #120, #124, .T. ) ;
#257 = VECTOR ( 'NONE', #294, 39.37007874015748143 ) ;
#258 = CLOSED_SHELL ( 'NONE', ( #107, #39, #10, #203, #38, #230, #106, #23, #241, #169, #159 ) ) ;
#259 = CARTESIAN_POINT ( 'NONE',  ( -0.1968504999999999838, 0.0000000000000000000, 2.677165000000000017 ) ) ;
#260 = CARTESIAN_POINT ( 'NONE',  ( -0.2165355499999996880, 2.651795682091112828E-17, 2.832259636364403033 ) ) ;
#261 = DIRECTION ( 'NONE',  ( -1.000000000000000000, 0.0000000000000000000, 0.0000000000000000000 ) ) ;
#262 = CIRCLE ( 'NONE', #135, 0.1318899999999999517 ) ;
#263 = DIRECTION ( 'NONE',  ( -1.000000000000000000, 0.0000000000000000000, 0.0000000000000000000 ) ) ;
#264 = CARTESIAN_POINT ( 'NONE',  ( 0.0000000000000000000, 0.0000000000000000000, 0.1968500000000000250 ) ) ;
#265 = EDGE_CURVE ( 'NONE', #56, #69, #283, .T. ) ;
#266 = VERTEX_POINT ( 'NONE', #93 ) ;
#267 = FACE_OUTER_BOUND ( 'NONE', #323, .T. ) ;
#268 = AXIS2_PLACEMENT_3D ( 'NONE', #190, #43, #300 ) ;
#269 = ORIENTED_EDGE ( 'NONE', *, *, #149, .T. ) ;
#270 = AXIS2_PLACEMENT_3D ( 'NONE', #342, #183, #24 ) ;
#271 = CARTESIAN_POINT ( 'NONE',  ( -0.1318899999999998407, 0.0000000000000000000, 0.0000000000000000000 ) ) ;
#272 = ORIENTED_EDGE ( 'NONE', *, *, #168, .F. ) ;
#273 = CARTESIAN_POINT ( 'NONE',  ( 0.0000000000000000000, 0.0000000000000000000, 3.937007999999999619 ) ) ;
#274 = EDGE_LOOP ( 'NONE', ( #7, #318, #42, #116, #16 ) ) ;
#275 = DIRECTION ( 'NONE',  ( 0.0000000000000000000, 0.0000000000000000000, 1.000000000000000000 ) ) ;
#276 = ORIENTED_EDGE ( 'NONE', *, *, #53, .F. ) ;
#277 = AXIS2_PLACEMENT_3D ( 'NONE', #287, #32, #52 ) ;
#278 = CARTESIAN_POINT ( 'NONE',  ( 0.0000000000000000000, 0.0000000000000000000, 0.3429833309002433550 ) ) ;
#279 = FACE_OUTER_BOUND ( 'NONE', #112, .T. ) ;
#280 = FILL_AREA_STYLE_COLOUR ( '', #344 ) ;
#281 = UNCERTAINTY_MEASURE_WITH_UNIT (LENGTH_MEASURE( 1.000000000000000082E-05 ), #97, 'distance_accuracy_value', 'NONE');
#282 =( LENGTH_UNIT ( ) NAMED_UNIT ( * ) SI_UNIT ( $, .METRE. ) );
#283 = CIRCLE ( 'NONE', #312, 0.1318899999999999517 ) ;
#284 = AXIS2_PLACEMENT_3D ( 'NONE', #103, #341, #263 ) ;
#285 =( GEOMETRIC_REPRESENTATION_CONTEXT ( 3 ) GLOBAL_UNCERTAINTY_ASSIGNED_CONTEXT ( ( #47 ) ) GLOBAL_UNIT_ASSIGNED_CONTEXT ( ( #66, #320, #141 ) ) REPRESENTATION_CONTEXT ( 'NONE', 'WORKASPACE' ) );
#286 = DIMENSIONAL_EXPONENTS ( 1.000000000000000000, 0.0000000000000000000, 0.0000000000000000000, 0.0000000000000000000, 0.0000000000000000000, 0.0000000000000000000, 0.0000000000000000000 ) ;
#287 = CARTESIAN_POINT ( 'NONE',  ( 0.0000000000000000000, 0.0000000000000000000, 2.832259636364403033 ) ) ;
#288 = DIRECTION ( 'NONE',  ( -0.0000000000000000000, -0.0000000000000000000, -1.000000000000000000 ) ) ;
#289 = CARTESIAN_POINT ( 'NONE',  ( -0.1818504999999994431, 0.0000000000000000000, 3.937007999999999619 ) ) ;
#290 = EDGE_LOOP ( 'NONE', ( #251, #40, #12, #89 ) ) ;
#291 = CARTESIAN_POINT ( 'NONE',  ( 0.0000000000000000000, 0.0000000000000000000, 3.937007999999999619 ) ) ;
#292 = LINE ( 'NONE', #233, #231 ) ;
#293 = STYLED_ITEM ( 'NONE', ( #137 ), #126 ) ;
#294 = DIRECTION ( 'NONE',  ( -0.0000000000000000000, -0.0000000000000000000, -1.000000000000000000 ) ) ;
#295 = CARTESIAN_POINT ( 'NONE',  ( -0.1818504999999994431, 0.0000000000000000000, 3.937007999999999619 ) ) ;
#296 = DIRECTION ( 'NONE',  ( -0.0000000000000000000, -0.0000000000000000000, -1.000000000000000000 ) ) ;
#297 = VECTOR ( 'NONE', #199, 39.37007874015748143 ) ;
#298 = VERTEX_POINT ( 'NONE', #71 ) ;
#299 = CIRCLE ( 'NONE', #228, 0.1968504999999999838 ) ;
#300 = DIRECTION ( 'NONE',  ( -1.000000000000000000, 0.0000000000000000000, 0.0000000000000000000 ) ) ;
#301 = ORIENTED_EDGE ( 'NONE', *, *, #145, .F. ) ;
#302 = CARTESIAN_POINT ( 'NONE',  ( 0.1968504999999999838, 2.410723347355560646E-17, 3.937007999999999619 ) ) ;
#303 = ORIENTED_EDGE ( 'NONE', *, *, #316, .F. ) ;
#304 = CARTESIAN_POINT ( 'NONE',  ( 1.615186663395443625E-17, -0.1318899999999999795, 0.3429833309002433550 ) ) ;
#305 = VERTEX_POINT ( 'NONE', #304 ) ;
#306 = EDGE_CURVE ( 'NONE', #305, #56, #262, .T. ) ;
#307 = DIRECTION ( 'NONE',  ( -1.000000000000000000, 0.0000000000000000000, 0.0000000000000000000 ) ) ;
#308 = DIRECTION ( 'NONE',  ( -0.0000000000000000000, -0.0000000000000000000, -1.000000000000000000 ) ) ;
#309 =( NAMED_UNIT ( * ) PLANE_ANGLE_UNIT ( ) SI_UNIT ( $, .RADIAN. ) );
#310 = FACE_OUTER_BOUND ( 'NONE', #214, .T. ) ;
#311 = ORIENTED_EDGE ( 'NONE', *, *, #53, .T. ) ;
#312 = AXIS2_PLACEMENT_3D ( 'NONE', #70, #45, #150 ) ;
#313 = PRESENTATION_LAYER_ASSIGNMENT (  '', '', ( #293 ) ) ;
#314 =( GEOMETRIC_REPRESENTATION_CONTEXT ( 3 ) GLOBAL_UNCERTAINTY_ASSIGNED_CONTEXT ( ( #281 ) ) GLOBAL_UNIT_ASSIGNED_CONTEXT ( ( #97, #309, #339 ) ) REPRESENTATION_CONTEXT ( 'NONE', 'WORKASPACE' ) );
#315 = CARTESIAN_POINT ( 'NONE',  ( 0.0000000000000000000, 0.0000000000000000000, 3.937007999999999619 ) ) ;
#316 = EDGE_CURVE ( 'NONE', #144, #61, #95, .T. ) ;
#317 = CARTESIAN_POINT ( 'NONE',  ( 0.0000000000000000000, 0.0000000000000000000, 0.1968500000000000250 ) ) ;
#318 = ORIENTED_EDGE ( 'NONE', *, *, #60, .T. ) ;
#319 = PLANE ( 'NONE',  #157 ) ;
#320 =( NAMED_UNIT ( * ) PLANE_ANGLE_UNIT ( ) SI_UNIT ( $, .RADIAN. ) );
#321 = EDGE_LOOP ( 'NONE', ( #3, #224 ) ) ;
#322 = CARTESIAN_POINT ( 'NONE',  ( 0.0000000000000000000, 0.0000000000000000000, 3.937007999999999619 ) ) ;
#323 = EDGE_LOOP ( 'NONE', ( #239, #243, #200, #333, #234 ) ) ;
#324 = LINE ( 'NONE', #302, #257 ) ;
#325 = ORIENTED_EDGE ( 'NONE', *, *, #256, .F. ) ;
#326 = DIRECTION ( 'NONE',  ( -1.000000000000000000, 0.0000000000000000000, 0.0000000000000000000 ) ) ;
#327 = AXIS2_PLACEMENT_3D ( 'NONE', #264, #113, #221 ) ;
#328 = ORIENTED_EDGE ( 'NONE', *, *, #265, .T. ) ;
#329 = AXIS2_PLACEMENT_3D ( 'NONE', #273, #41, #335 ) ;
#330 = CARTESIAN_POINT ( 'NONE',  ( 0.0000000000000000000, 1.205358612060782468E-17, 0.0000000000000000000 ) ) ;
#331 = ORIENTED_EDGE ( 'NONE', *, *, #215, .F. ) ;
#332 = CARTESIAN_POINT ( 'NONE',  ( 0.1818504999999994431, 2.227026327483450676E-17, 3.937007999999999619 ) ) ;
#333 = ORIENTED_EDGE ( 'NONE', *, *, #306, .F. ) ;
#334 = EDGE_CURVE ( 'NONE', #69, #298, #21, .T. ) ;
#335 = DIRECTION ( 'NONE',  ( -1.000000000000000000, 0.0000000000000000000, 0.0000000000000000000 ) ) ;
#336 = AXIS2_PLACEMENT_3D ( 'NONE', #28, #82, #261 ) ;
#337 = PRODUCT_DEFINITION_FORMATION_WITH_SPECIFIED_SOURCE ( 'ANY', '', #152, .NOT_KNOWN. ) ;
#338 = LENGTH_MEASURE_WITH_UNIT ( LENGTH_MEASURE( 0.02539999999999999897 ), #121 );
#339 =( NAMED_UNIT ( * ) SI_UNIT ( $, .STERADIAN. ) SOLID_ANGLE_UNIT ( ) );
#340 = DIMENSIONAL_EXPONENTS ( 1.000000000000000000, 0.0000000000000000000, 0.0000000000000000000, 0.0000000000000000000, 0.0000000000000000000, 0.0000000000000000000, 0.0000000000000000000 ) ;
#341 = DIRECTION ( 'NONE',  ( -0.0000000000000000000, -0.0000000000000000000, -1.000000000000000000 ) ) ;
#342 = CARTESIAN_POINT ( 'NONE',  ( 0.0000000000000000000, 0.0000000000000000000, 3.937007999999999619 ) ) ;
#343 = AXIS2_PLACEMENT_3D ( 'NONE', #2, #288, #102 ) ;
#344 = COLOUR_RGB ( '',0.7921568627450980005, 0.8196078431372548767, 0.9333333333333333481 ) ;
#345 = DIRECTION ( 'NONE',  ( 0.0000000000000000000, 0.0000000000000000000, 1.000000000000000000 ) ) ;
ENDSEC;
END-ISO-10303-21;
