ISO-10303-21;
HEADER;
FILE_DESCRIPTION (( 'STEP AP214' ),
    '1' );
FILE_NAME ('01797.STEP',
    '2023-06-22T14:49:56',
    ( '' ),
    ( '' ),
    'SwSTEP 2.0',
    'SolidWorks 2023',
    '' );
FILE_SCHEMA (( 'AUTOMOTIVE_DESIGN' ));
ENDSEC;

DATA;
#1 = ADVANCED_FACE ( 'NONE', ( #46 ), #226, .T. ) ;
#2 = PLANE ( 'NONE',  #295 ) ;
#3 = FILL_AREA_STYLE_COLOUR ( '', #142 ) ;
#4 = PRESENTATION_LAYER_ASSIGNMENT (  '', '', ( #101 ) ) ;
#5 = ORIENTED_EDGE ( 'NONE', *, *, #55, .T. ) ;
#6 = EDGE_CURVE ( 'NONE', #80, #132, #138, .T. ) ;
#7 =( LENGTH_UNIT ( ) NAMED_UNIT ( * ) SI_UNIT ( $, .METRE. ) );
#8 = AXIS2_PLACEMENT_3D ( 'NONE', #139, #13, #246 ) ;
#9 = CIRCLE ( 'NONE', #54, 0.5000000000000000000 ) ;
#10 = ORIENTED_EDGE ( 'NONE', *, *, #103, .T. ) ;
#11 = CARTESIAN_POINT ( 'NONE',  ( -0.5000000000000000000, 4.250000000000000000, 0.000000000000000000 ) ) ;
#12 = MECHANICAL_DESIGN_GEOMETRIC_PRESENTATION_REPRESENTATION (  '', ( #283 ), #218 ) ;
#13 = DIRECTION ( 'NONE',  ( -4.453261087808552747E-17, 1.000000000000000000, -0.000000000000000000 ) ) ;
#14 = MANIFOLD_SOLID_BREP ( 'Revolve - Cutting Edge', #145 ) ;
#15 =( NAMED_UNIT ( * ) SI_UNIT ( $, .STERADIAN. ) SOLID_ANGLE_UNIT ( ) );
#16 = DIRECTION ( 'NONE',  ( 0.000000000000000000, -0.000000000000000000, 1.000000000000000000 ) ) ;
#17 = DIRECTION ( 'NONE',  ( 0.000000000000000000, 0.000000000000000000, -1.000000000000000000 ) ) ;
#18 =( NAMED_UNIT ( * ) SI_UNIT ( $, .STERADIAN. ) SOLID_ANGLE_UNIT ( ) );
#19 =( LENGTH_UNIT ( ) NAMED_UNIT ( * ) SI_UNIT ( $, .METRE. ) );
#20 = LINE ( 'NONE', #25, #303 ) ;
#21 = SURFACE_STYLE_FILL_AREA ( #70 ) ;
#22 =( CONVERSION_BASED_UNIT ( 'INCH', #257 ) LENGTH_UNIT ( ) NAMED_UNIT ( #124 ) );
#23 = FACE_OUTER_BOUND ( 'NONE', #242, .T. ) ;
#24 = EDGE_CURVE ( 'NONE', #144, #214, #52, .T. ) ;
#25 = CARTESIAN_POINT ( 'NONE',  ( -0.5000000000000002220, 7.000000000000000000, 0.000000000000000000 ) ) ;
#26 =( NAMED_UNIT ( * ) PLANE_ANGLE_UNIT ( ) SI_UNIT ( $, .RADIAN. ) );
#27 =( GEOMETRIC_REPRESENTATION_CONTEXT ( 3 ) GLOBAL_UNCERTAINTY_ASSIGNED_CONTEXT ( ( #44 ) ) GLOBAL_UNIT_ASSIGNED_CONTEXT ( ( #60, #156, #136 ) ) REPRESENTATION_CONTEXT ( 'NONE', 'WORKASPACE' ) );
#28 = LENGTH_MEASURE_WITH_UNIT ( LENGTH_MEASURE( 0.02539999999999999897 ), #237 );
#29 = DIRECTION ( 'NONE',  ( -1.000000000000000000, 0.000000000000000000, 0.000000000000000000 ) ) ;
#30 = SURFACE_SIDE_STYLE ('',( #77 ) ) ;
#31 = ADVANCED_FACE ( 'NONE', ( #72 ), #161, .F. ) ;
#32 = ORIENTED_EDGE ( 'NONE', *, *, #261, .F. ) ;
#33 = MECHANICAL_DESIGN_GEOMETRIC_PRESENTATION_REPRESENTATION (  '', ( #207 ), #155 ) ;
#34 = PRESENTATION_LAYER_ASSIGNMENT (  '', '', ( #206 ) ) ;
#35 = UNCERTAINTY_MEASURE_WITH_UNIT (LENGTH_MEASURE( 1.000000000000000082E-05 ), #298, 'distance_accuracy_value', 'NONE');
#36 = CYLINDRICAL_SURFACE ( 'NONE', #99, 0.5000000000000000000 ) ;
#37 = DIRECTION ( 'NONE',  ( 0.000000000000000000, 0.000000000000000000, -1.000000000000000000 ) ) ;
#38 = SURFACE_STYLE_USAGE ( .BOTH. , #85 ) ;
#39 = CARTESIAN_POINT ( 'NONE',  ( -1.224646799147351975E-16, 7.000000000000000000, 0.000000000000000000 ) ) ;
#40 = CARTESIAN_POINT ( 'NONE',  ( 0.000000000000000000, 0.000000000000000000, 0.000000000000000000 ) ) ;
#41 = CIRCLE ( 'NONE', #185, 0.5000000000000000000 ) ;
#42 = PRODUCT_CONTEXT ( 'NONE', #260, 'mechanical' ) ;
#43 = CARTESIAN_POINT ( 'NONE',  ( -0.5000000000000002220, 7.000000000000000000, 0.000000000000000000 ) ) ;
#44 = UNCERTAINTY_MEASURE_WITH_UNIT (LENGTH_MEASURE( 1.000000000000000082E-05 ), #60, 'distance_accuracy_value', 'NONE');
#45 = CARTESIAN_POINT ( 'NONE',  ( 0.000000000000000000, 0.000000000000000000, 0.000000000000000000 ) ) ;
#46 = FACE_OUTER_BOUND ( 'NONE', #168, .T. ) ;
#47 = CARTESIAN_POINT ( 'NONE',  ( 0.000000000000000000, 0.000000000000000000, 0.000000000000000000 ) ) ;
#48 = DIRECTION ( 'NONE',  ( -4.453261087808552747E-17, 1.000000000000000000, -0.000000000000000000 ) ) ;
#49 = DIRECTION ( 'NONE',  ( -0.000000000000000000, -1.000000000000000000, -0.000000000000000000 ) ) ;
#50 = DIRECTION ( 'NONE',  ( -4.453261087808552747E-17, 1.000000000000000000, -0.000000000000000000 ) ) ;
#51 = DIRECTION ( 'NONE',  ( -4.453261087808552747E-17, 1.000000000000000000, -0.000000000000000000 ) ) ;
#52 = CIRCLE ( 'NONE', #216, 0.5000000000000000000 ) ;
#53 = COLOUR_RGB ( '',1.000000000000000000, 0.000000000000000000, 0.000000000000000000 ) ;
#54 = AXIS2_PLACEMENT_3D ( 'NONE', #40, #133, #225 ) ;
#55 = EDGE_CURVE ( 'NONE', #277, #192, #134, .T. ) ;
#56 = ORIENTED_EDGE ( 'NONE', *, *, #59, .F. ) ;
#57 = AXIS2_PLACEMENT_3D ( 'NONE', #116, #258, #198 ) ;
#58 = ORIENTED_EDGE ( 'NONE', *, *, #75, .F. ) ;
#59 = EDGE_CURVE ( 'NONE', #80, #171, #117, .T. ) ;
#60 =( CONVERSION_BASED_UNIT ( 'INCH', #301 ) LENGTH_UNIT ( ) NAMED_UNIT ( #286 ) );
#61 = DIRECTION ( 'NONE',  ( -0.000000000000000000, -1.000000000000000000, -0.000000000000000000 ) ) ;
#62 = ORIENTED_EDGE ( 'NONE', *, *, #6, .F. ) ;
#63 = DIRECTION ( 'NONE',  ( 1.000000000000000000, 4.453261087808552747E-17, 0.000000000000000000 ) ) ;
#64 = COLOUR_RGB ( '',1.000000000000000000, 0.000000000000000000, 0.000000000000000000 ) ;
#65 = MECHANICAL_DESIGN_GEOMETRIC_PRESENTATION_REPRESENTATION (  '', ( #176 ), #268 ) ;
#66 = ORIENTED_EDGE ( 'NONE', *, *, #24, .T. ) ;
#67 = CARTESIAN_POINT ( 'NONE',  ( 0.000000000000000000, 0.000000000000000000, -0.5000000000000000000 ) ) ;
#68 = DIRECTION ( 'NONE',  ( -0.000000000000000000, -1.000000000000000000, -0.000000000000000000 ) ) ;
#69 =( CONVERSION_BASED_UNIT ( 'INCH', #71 ) LENGTH_UNIT ( ) NAMED_UNIT ( #220 ) );
#70 = FILL_AREA_STYLE ('',( #140 ) ) ;
#71 = LENGTH_MEASURE_WITH_UNIT ( LENGTH_MEASURE( 0.02539999999999999897 ), #235 );
#72 = FACE_OUTER_BOUND ( 'NONE', #81, .T. ) ;
#73 = PRODUCT_RELATED_PRODUCT_CATEGORY ( 'part', '', ( #122 ) ) ;
#74 = DIRECTION ( 'NONE',  ( -4.453261087808552747E-17, 1.000000000000000000, -0.000000000000000000 ) ) ;
#75 = EDGE_CURVE ( 'NONE', #144, #192, #20, .T. ) ;
#76 = VECTOR ( 'NONE', #49, 39.37007874015748143 ) ;
#77 = SURFACE_STYLE_FILL_AREA ( #287 ) ;
#78 = ORIENTED_EDGE ( 'NONE', *, *, #59, .T. ) ;
#79 = ADVANCED_FACE ( 'NONE', ( #189 ), #36, .T. ) ;
#80 = VERTEX_POINT ( 'NONE', #84 ) ;
#81 = EDGE_LOOP ( 'NONE', ( #83, #195 ) ) ;
#82 = UNCERTAINTY_MEASURE_WITH_UNIT (LENGTH_MEASURE( 1.000000000000000082E-05 ), #22, 'distance_accuracy_value', 'NONE');
#83 = ORIENTED_EDGE ( 'NONE', *, *, #24, .F. ) ;
#84 = CARTESIAN_POINT ( 'NONE',  ( 6.123233995736766036E-17, 4.250000000000000000, 0.5000000000000000000 ) ) ;
#85 = SURFACE_SIDE_STYLE ('',( #181 ) ) ;
#86 = FACE_OUTER_BOUND ( 'NONE', #240, .T. ) ;
#87 =( CONVERSION_BASED_UNIT ( 'INCH', #173 ) LENGTH_UNIT ( ) NAMED_UNIT ( #266 ) );
#88 = SURFACE_STYLE_FILL_AREA ( #112 ) ;
#89 = CARTESIAN_POINT ( 'NONE',  ( 0.000000000000000000, 0.000000000000000000, 0.000000000000000000 ) ) ;
#90 = ADVANCED_FACE ( 'NONE', ( #92 ), #256, .T. ) ;
#91 = ORIENTED_EDGE ( 'NONE', *, *, #261, .T. ) ;
#92 = FACE_OUTER_BOUND ( 'NONE', #102, .T. ) ;
#93 = AXIS2_PLACEMENT_3D ( 'NONE', #236, #239, #265 ) ;
#94 = DIRECTION ( 'NONE',  ( -4.453261087808552747E-17, 1.000000000000000000, -0.000000000000000000 ) ) ;
#95 = AXIS2_PLACEMENT_3D ( 'NONE', #245, #61, #37 ) ;
#96 = SURFACE_STYLE_USAGE ( .BOTH. , #270 ) ;
#97 = UNCERTAINTY_MEASURE_WITH_UNIT (LENGTH_MEASURE( 1.000000000000000082E-05 ), #121, 'distance_accuracy_value', 'NONE');
#98 = FILL_AREA_STYLE ('',( #3 ) ) ;
#99 = AXIS2_PLACEMENT_3D ( 'NONE', #45, #149, #273 ) ;
#100 = DIRECTION ( 'NONE',  ( -0.000000000000000000, -1.000000000000000000, -0.000000000000000000 ) ) ;
#101 = STYLED_ITEM ( 'NONE', ( #183 ), #238 ) ;
#102 = EDGE_LOOP ( 'NONE', ( #62, #78, #255, #32 ) ) ;
#103 = EDGE_CURVE ( 'NONE', #192, #277, #169, .T. ) ;
#104 = VERTEX_POINT ( 'NONE', #251 ) ;
#105 =( NAMED_UNIT ( * ) PLANE_ANGLE_UNIT ( ) SI_UNIT ( $, .RADIAN. ) );
#106 = ORIENTED_EDGE ( 'NONE', *, *, #166, .F. ) ;
#107 =( NAMED_UNIT ( * ) SI_UNIT ( $, .STERADIAN. ) SOLID_ANGLE_UNIT ( ) );
#108 = VECTOR ( 'NONE', #68, 39.37007874015748143 ) ;
#109 =( NAMED_UNIT ( * ) PLANE_ANGLE_UNIT ( ) SI_UNIT ( $, .RADIAN. ) );
#110 =( CONVERSION_BASED_UNIT ( 'INCH', #249 ) LENGTH_UNIT ( ) NAMED_UNIT ( #115 ) );
#111 = CARTESIAN_POINT ( 'NONE',  ( 0.000000000000000000, 4.250000000000000000, -0.5000000000000000000 ) ) ;
#112 = FILL_AREA_STYLE ('',( #305 ) ) ;
#113 = DIRECTION ( 'NONE',  ( -1.000000000000000000, 0.000000000000000000, 0.000000000000000000 ) ) ;
#114 = DIRECTION ( 'NONE',  ( -0.000000000000000000, -1.000000000000000000, -0.000000000000000000 ) ) ;
#115 = DIMENSIONAL_EXPONENTS ( 1.000000000000000000, 0.000000000000000000, 0.000000000000000000, 0.000000000000000000, 0.000000000000000000, 0.000000000000000000, 0.000000000000000000 ) ;
#116 = CARTESIAN_POINT ( 'NONE',  ( 0.000000000000000000, 0.000000000000000000, 0.000000000000000000 ) ) ;
#117 = CIRCLE ( 'NONE', #224, 0.5000000000000000000 ) ;
#118 = PRESENTATION_STYLE_ASSIGNMENT (( #38 ) ) ;
#119 = DIRECTION ( 'NONE',  ( -1.000000000000000000, 0.000000000000000000, 0.000000000000000000 ) ) ;
#120 = CIRCLE ( 'NONE', #8, 0.5000000000000000000 ) ;
#121 =( CONVERSION_BASED_UNIT ( 'INCH', #28 ) LENGTH_UNIT ( ) NAMED_UNIT ( #147 ) );
#122 = PRODUCT ( '01797', '01797', '', ( #42 ) ) ;
#123 = DIRECTION ( 'NONE',  ( -1.000000000000000000, 0.000000000000000000, 0.000000000000000000 ) ) ;
#124 = DIMENSIONAL_EXPONENTS ( 1.000000000000000000, 0.000000000000000000, 0.000000000000000000, 0.000000000000000000, 0.000000000000000000, 0.000000000000000000, 0.000000000000000000 ) ;
#125 = PRESENTATION_LAYER_ASSIGNMENT (  '', '', ( #176 ) ) ;
#126 = ORIENTED_EDGE ( 'NONE', *, *, #6, .T. ) ;
#127 = SURFACE_STYLE_USAGE ( .BOTH. , #30 ) ;
#128 = ORIENTED_EDGE ( 'NONE', *, *, #103, .F. ) ;
#129 = CLOSED_SHELL ( 'NONE', ( #248, #31, #213, #184 ) ) ;
#130 = FILL_AREA_STYLE_COLOUR ( '', #153 ) ;
#131 = CARTESIAN_POINT ( 'NONE',  ( -1.224646799147351975E-16, 7.000000000000000000, 0.000000000000000000 ) ) ;
#132 = VERTEX_POINT ( 'NONE', #150 ) ;
#133 = DIRECTION ( 'NONE',  ( -0.000000000000000000, -1.000000000000000000, -0.000000000000000000 ) ) ;
#134 = CIRCLE ( 'NONE', #262, 0.5000000000000001110 ) ;
#135 = FILL_AREA_STYLE ('',( #228 ) ) ;
#136 =( NAMED_UNIT ( * ) SI_UNIT ( $, .STERADIAN. ) SOLID_ANGLE_UNIT ( ) );
#137 = CARTESIAN_POINT ( 'NONE',  ( 0.4999999999999999445, 7.000000000000000000, 6.123233995736767268E-17 ) ) ;
#138 = LINE ( 'NONE', #299, #76 ) ;
#139 = CARTESIAN_POINT ( 'NONE',  ( 0.000000000000000000, 4.250000000000000000, 0.000000000000000000 ) ) ;
#140 = FILL_AREA_STYLE_COLOUR ( '', #191 ) ;
#141 = CYLINDRICAL_SURFACE ( 'NONE', #187, 0.5000000000000001110 ) ;
#142 = COLOUR_RGB ( '',0.7921568627450980005, 0.8196078431372548767, 0.9333333333333333481 ) ;
#143 = AXIS2_PLACEMENT_3D ( 'NONE', #131, #48, #221 ) ;
#144 = VERTEX_POINT ( 'NONE', #11 ) ;
#145 = CLOSED_SHELL ( 'NONE', ( #79, #1, #90, #238 ) ) ;
#146 = STYLED_ITEM ( 'NONE', ( #118 ), #1 ) ;
#147 = DIMENSIONAL_EXPONENTS ( 1.000000000000000000, 0.000000000000000000, 0.000000000000000000, 0.000000000000000000, 0.000000000000000000, 0.000000000000000000, 0.000000000000000000 ) ;
#148 = ORIENTED_EDGE ( 'NONE', *, *, #157, .T. ) ;
#149 = DIRECTION ( 'NONE',  ( -0.000000000000000000, -1.000000000000000000, -0.000000000000000000 ) ) ;
#150 = CARTESIAN_POINT ( 'NONE',  ( 6.123233995736766036E-17, 0.000000000000000000, 0.5000000000000000000 ) ) ;
#151 = ORIENTED_EDGE ( 'NONE', *, *, #202, .F. ) ;
#152 =( NAMED_UNIT ( * ) SI_UNIT ( $, .STERADIAN. ) SOLID_ANGLE_UNIT ( ) );
#153 = COLOUR_RGB ( '',1.000000000000000000, 0.000000000000000000, 0.000000000000000000 ) ;
#154 = AXIS2_PLACEMENT_3D ( 'NONE', #39, #50, #113 ) ;
#155 =( GEOMETRIC_REPRESENTATION_CONTEXT ( 3 ) GLOBAL_UNCERTAINTY_ASSIGNED_CONTEXT ( ( #194 ) ) GLOBAL_UNIT_ASSIGNED_CONTEXT ( ( #87, #105, #15 ) ) REPRESENTATION_CONTEXT ( 'NONE', 'WORKASPACE' ) );
#156 =( NAMED_UNIT ( * ) PLANE_ANGLE_UNIT ( ) SI_UNIT ( $, .RADIAN. ) );
#157 = EDGE_CURVE ( 'NONE', #171, #80, #41, .T. ) ;
#158 =( NAMED_UNIT ( * ) PLANE_ANGLE_UNIT ( ) SI_UNIT ( $, .RADIAN. ) );
#159 =( NAMED_UNIT ( * ) PLANE_ANGLE_UNIT ( ) SI_UNIT ( $, .RADIAN. ) );
#160 = PRODUCT_DEFINITION_FORMATION_WITH_SPECIFIED_SOURCE ( 'ANY', '', #122, .NOT_KNOWN. ) ;
#161 = PLANE ( 'NONE',  #93 ) ;
#162 = SURFACE_SIDE_STYLE ('',( #21 ) ) ;
#163 = PRESENTATION_LAYER_ASSIGNMENT (  '', '', ( #207 ) ) ;
#164 = ADVANCED_BREP_SHAPE_REPRESENTATION ( '01797', ( #14, #219, #291 ), #263 ) ;
#165 = COLOUR_RGB ( '',0.7921568627450980005, 0.8196078431372548767, 0.9333333333333333481 ) ;
#166 = EDGE_CURVE ( 'NONE', #104, #132, #9, .T. ) ;
#167 = ORIENTED_EDGE ( 'NONE', *, *, #272, .T. ) ;
#168 = EDGE_LOOP ( 'NONE', ( #267, #56 ) ) ;
#169 = CIRCLE ( 'NONE', #143, 0.5000000000000001110 ) ;
#170 = PRESENTATION_STYLE_ASSIGNMENT (( #127 ) ) ;
#171 = VERTEX_POINT ( 'NONE', #111 ) ;
#172 = EDGE_LOOP ( 'NONE', ( #148, #126, #106, #244 ) ) ;
#173 = LENGTH_MEASURE_WITH_UNIT ( LENGTH_MEASURE( 0.02539999999999999897 ), #7 );
#174 = FILL_AREA_STYLE_COLOUR ( '', #64 ) ;
#175 = CARTESIAN_POINT ( 'NONE',  ( 0.5000000000000000000, 7.000000000000000000, 0.000000000000000000 ) ) ;
#176 = STYLED_ITEM ( 'NONE', ( #282 ), #219 ) ;
#177 = AXIS2_PLACEMENT_3D ( 'NONE', #175, #275, #63 ) ;
#178 = FILL_AREA_STYLE ('',( #174 ) ) ;
#179 =( NAMED_UNIT ( * ) PLANE_ANGLE_UNIT ( ) SI_UNIT ( $, .RADIAN. ) );
#180 = PRESENTATION_STYLE_ASSIGNMENT (( #279 ) ) ;
#181 = SURFACE_STYLE_FILL_AREA ( #178 ) ;
#182 = APPLICATION_PROTOCOL_DEFINITION ( 'draft international standard', 'automotive_design', 1998, #294 ) ;
#183 = PRESENTATION_STYLE_ASSIGNMENT (( #309 ) ) ;
#184 = ADVANCED_FACE ( 'NONE', ( #199 ), #300, .F. ) ;
#185 = AXIS2_PLACEMENT_3D ( 'NONE', #292, #114, #197 ) ;
#186 = CARTESIAN_POINT ( 'NONE',  ( 0.5000000000000000000, 4.250000000000000000, 6.123233995736767268E-17 ) ) ;
#187 = AXIS2_PLACEMENT_3D ( 'NONE', #307, #232, #119 ) ;
#188 = CIRCLE ( 'NONE', #57, 0.5000000000000000000 ) ;
#189 = FACE_OUTER_BOUND ( 'NONE', #172, .T. ) ;
#190 = AXIS2_PLACEMENT_3D ( 'NONE', #296, #208, #16 ) ;
#191 = COLOUR_RGB ( '',1.000000000000000000, 0.000000000000000000, 0.000000000000000000 ) ;
#192 = VERTEX_POINT ( 'NONE', #43 ) ;
#193 = EDGE_LOOP ( 'NONE', ( #229, #91 ) ) ;
#194 = UNCERTAINTY_MEASURE_WITH_UNIT (LENGTH_MEASURE( 1.000000000000000082E-05 ), #87, 'distance_accuracy_value', 'NONE');
#195 = ORIENTED_EDGE ( 'NONE', *, *, #272, .F. ) ;
#196 = MECHANICAL_DESIGN_GEOMETRIC_PRESENTATION_REPRESENTATION (  '', ( #101 ), #276 ) ;
#197 = DIRECTION ( 'NONE',  ( 0.000000000000000000, 0.000000000000000000, -1.000000000000000000 ) ) ;
#198 = DIRECTION ( 'NONE',  ( 0.000000000000000000, 0.000000000000000000, -1.000000000000000000 ) ) ;
#199 = FACE_OUTER_BOUND ( 'NONE', #289, .T. ) ;
#200 =( LENGTH_UNIT ( ) NAMED_UNIT ( * ) SI_UNIT ( $, .METRE. ) );
#201 = DIRECTION ( 'NONE',  ( 0.000000000000000000, 0.000000000000000000, 1.000000000000000000 ) ) ;
#202 = EDGE_CURVE ( 'NONE', #214, #277, #203, .T. ) ;
#203 = LINE ( 'NONE', #137, #264 ) ;
#204 = CARTESIAN_POINT ( 'NONE',  ( 0.000000000000000000, 4.250000000000000000, 0.000000000000000000 ) ) ;
#205 = SHAPE_DEFINITION_REPRESENTATION ( #234, #164 ) ;
#206 = STYLED_ITEM ( 'NONE', ( #280 ), #14 ) ;
#207 = STYLED_ITEM ( 'NONE', ( #170 ), #79 ) ;
#208 = DIRECTION ( 'NONE',  ( 0.000000000000000000, 1.000000000000000000, 0.000000000000000000 ) ) ;
#209 =( NAMED_UNIT ( * ) SI_UNIT ( $, .STERADIAN. ) SOLID_ANGLE_UNIT ( ) );
#210 = PRESENTATION_LAYER_ASSIGNMENT (  '', '', ( #283 ) ) ;
#211 = SURFACE_STYLE_USAGE ( .BOTH. , #259 ) ;
#212 = CARTESIAN_POINT ( 'NONE',  ( 0.000000000000000000, 4.250000000000000000, 0.000000000000000000 ) ) ;
#213 = ADVANCED_FACE ( 'NONE', ( #23 ), #141, .T. ) ;
#214 = VERTEX_POINT ( 'NONE', #186 ) ;
#215 = UNCERTAINTY_MEASURE_WITH_UNIT (LENGTH_MEASURE( 1.000000000000000082E-05 ), #69, 'distance_accuracy_value', 'NONE');
#216 = AXIS2_PLACEMENT_3D ( 'NONE', #204, #94, #29 ) ;
#217 = ORIENTED_EDGE ( 'NONE', *, *, #75, .T. ) ;
#218 =( GEOMETRIC_REPRESENTATION_CONTEXT ( 3 ) GLOBAL_UNCERTAINTY_ASSIGNED_CONTEXT ( ( #35 ) ) GLOBAL_UNIT_ASSIGNED_CONTEXT ( ( #298, #158, #18 ) ) REPRESENTATION_CONTEXT ( 'NONE', 'WORKASPACE' ) );
#219 = MANIFOLD_SOLID_BREP ( 'Revolve - Tool Body (Straight Shanked)', #129 ) ;
#220 = DIMENSIONAL_EXPONENTS ( 1.000000000000000000, 0.000000000000000000, 0.000000000000000000, 0.000000000000000000, 0.000000000000000000, 0.000000000000000000, 0.000000000000000000 ) ;
#221 = DIRECTION ( 'NONE',  ( -1.000000000000000000, 0.000000000000000000, 0.000000000000000000 ) ) ;
#222 = ORIENTED_EDGE ( 'NONE', *, *, #55, .F. ) ;
#223 =( LENGTH_UNIT ( ) NAMED_UNIT ( * ) SI_UNIT ( $, .METRE. ) );
#224 = AXIS2_PLACEMENT_3D ( 'NONE', #212, #100, #231 ) ;
#225 = DIRECTION ( 'NONE',  ( 0.000000000000000000, 0.000000000000000000, -1.000000000000000000 ) ) ;
#226 = PLANE ( 'NONE',  #190 ) ;
#227 = PRODUCT_DEFINITION_CONTEXT ( 'detailed design', #294, 'design' ) ;
#228 = FILL_AREA_STYLE_COLOUR ( '', #53 ) ;
#229 = ORIENTED_EDGE ( 'NONE', *, *, #166, .T. ) ;
#230 =( LENGTH_UNIT ( ) NAMED_UNIT ( * ) SI_UNIT ( $, .METRE. ) );
#231 = DIRECTION ( 'NONE',  ( 0.000000000000000000, 0.000000000000000000, -1.000000000000000000 ) ) ;
#232 = DIRECTION ( 'NONE',  ( -4.453261087808552747E-17, 1.000000000000000000, -0.000000000000000000 ) ) ;
#233 = FACE_OUTER_BOUND ( 'NONE', #193, .T. ) ;
#234 = PRODUCT_DEFINITION_SHAPE ( 'NONE', 'NONE',  #293 ) ;
#235 =( LENGTH_UNIT ( ) NAMED_UNIT ( * ) SI_UNIT ( $, .METRE. ) );
#236 = CARTESIAN_POINT ( 'NONE',  ( 4.957883579047453271E-34, 4.250000000000000000, 0.000000000000000000 ) ) ;
#237 =( LENGTH_UNIT ( ) NAMED_UNIT ( * ) SI_UNIT ( $, .METRE. ) );
#238 = ADVANCED_FACE ( 'NONE', ( #233 ), #2, .T. ) ;
#239 = DIRECTION ( 'NONE',  ( -4.453261087808552747E-17, 1.000000000000000000, 0.000000000000000000 ) ) ;
#240 = EDGE_LOOP ( 'NONE', ( #66, #243, #128, #58 ) ) ;
#241 = DIRECTION ( 'NONE',  ( -4.453261087808552747E-17, 1.000000000000000000, -0.000000000000000000 ) ) ;
#242 = EDGE_LOOP ( 'NONE', ( #151, #167, #217, #222 ) ) ;
#243 = ORIENTED_EDGE ( 'NONE', *, *, #202, .T. ) ;
#244 = ORIENTED_EDGE ( 'NONE', *, *, #281, .F. ) ;
#245 = CARTESIAN_POINT ( 'NONE',  ( 0.000000000000000000, 0.000000000000000000, 0.000000000000000000 ) ) ;
#246 = DIRECTION ( 'NONE',  ( -1.000000000000000000, 0.000000000000000000, 0.000000000000000000 ) ) ;
#247 = SURFACE_STYLE_FILL_AREA ( #135 ) ;
#248 = ADVANCED_FACE ( 'NONE', ( #86 ), #271, .T. ) ;
#249 = LENGTH_MEASURE_WITH_UNIT ( LENGTH_MEASURE( 0.02539999999999999897 ), #230 );
#250 = MECHANICAL_DESIGN_GEOMETRIC_PRESENTATION_REPRESENTATION (  '', ( #146 ), #304 ) ;
#251 = CARTESIAN_POINT ( 'NONE',  ( 0.000000000000000000, 0.000000000000000000, -0.5000000000000000000 ) ) ;
#252 =( NAMED_UNIT ( * ) SI_UNIT ( $, .STERADIAN. ) SOLID_ANGLE_UNIT ( ) );
#253 = CARTESIAN_POINT ( 'NONE',  ( 0.5000000000000000000, 7.000000000000000000, 6.123233995736767268E-17 ) ) ;
#254 = DIMENSIONAL_EXPONENTS ( 1.000000000000000000, 0.000000000000000000, 0.000000000000000000, 0.000000000000000000, 0.000000000000000000, 0.000000000000000000, 0.000000000000000000 ) ;
#255 = ORIENTED_EDGE ( 'NONE', *, *, #281, .T. ) ;
#256 = CYLINDRICAL_SURFACE ( 'NONE', #95, 0.5000000000000000000 ) ;
#257 = LENGTH_MEASURE_WITH_UNIT ( LENGTH_MEASURE( 0.02539999999999999897 ), #223 );
#258 = DIRECTION ( 'NONE',  ( -0.000000000000000000, -1.000000000000000000, -0.000000000000000000 ) ) ;
#259 = SURFACE_SIDE_STYLE ('',( #284 ) ) ;
#260 = APPLICATION_CONTEXT ( 'automotive_design' ) ;
#261 = EDGE_CURVE ( 'NONE', #132, #104, #188, .T. ) ;
#262 = AXIS2_PLACEMENT_3D ( 'NONE', #288, #241, #123 ) ;
#263 =( GEOMETRIC_REPRESENTATION_CONTEXT ( 3 ) GLOBAL_UNCERTAINTY_ASSIGNED_CONTEXT ( ( #308 ) ) GLOBAL_UNIT_ASSIGNED_CONTEXT ( ( #110, #159, #107 ) ) REPRESENTATION_CONTEXT ( 'NONE', 'WORKASPACE' ) );
#264 = VECTOR ( 'NONE', #51, 39.37007874015748143 ) ;
#265 = DIRECTION ( 'NONE',  ( -1.000000000000000000, -4.453261087808552747E-17, 0.000000000000000000 ) ) ;
#266 = DIMENSIONAL_EXPONENTS ( 1.000000000000000000, 0.000000000000000000, 0.000000000000000000, 0.000000000000000000, 0.000000000000000000, 0.000000000000000000, 0.000000000000000000 ) ;
#267 = ORIENTED_EDGE ( 'NONE', *, *, #157, .F. ) ;
#268 =( GEOMETRIC_REPRESENTATION_CONTEXT ( 3 ) GLOBAL_UNCERTAINTY_ASSIGNED_CONTEXT ( ( #215 ) ) GLOBAL_UNIT_ASSIGNED_CONTEXT ( ( #69, #26, #209 ) ) REPRESENTATION_CONTEXT ( 'NONE', 'WORKASPACE' ) );
#269 = SURFACE_SIDE_STYLE ('',( #247 ) ) ;
#270 = SURFACE_SIDE_STYLE ('',( #88 ) ) ;
#271 = CYLINDRICAL_SURFACE ( 'NONE', #154, 0.5000000000000001110 ) ;
#272 = EDGE_CURVE ( 'NONE', #214, #144, #120, .T. ) ;
#273 = DIRECTION ( 'NONE',  ( 0.000000000000000000, 0.000000000000000000, -1.000000000000000000 ) ) ;
#274 = APPLICATION_PROTOCOL_DEFINITION ( 'draft international standard', 'automotive_design', 1998, #260 ) ;
#275 = DIRECTION ( 'NONE',  ( 4.453261087808552747E-17, -1.000000000000000000, 0.000000000000000000 ) ) ;
#276 =( GEOMETRIC_REPRESENTATION_CONTEXT ( 3 ) GLOBAL_UNCERTAINTY_ASSIGNED_CONTEXT ( ( #97 ) ) GLOBAL_UNIT_ASSIGNED_CONTEXT ( ( #121, #179, #152 ) ) REPRESENTATION_CONTEXT ( 'NONE', 'WORKASPACE' ) );
#277 = VERTEX_POINT ( 'NONE', #253 ) ;
#278 = DIRECTION ( 'NONE',  ( 0.000000000000000000, -1.000000000000000000, -0.000000000000000000 ) ) ;
#279 = SURFACE_STYLE_USAGE ( .BOTH. , #269 ) ;
#280 = PRESENTATION_STYLE_ASSIGNMENT (( #96 ) ) ;
#281 = EDGE_CURVE ( 'NONE', #171, #104, #297, .T. ) ;
#282 = PRESENTATION_STYLE_ASSIGNMENT (( #211 ) ) ;
#283 = STYLED_ITEM ( 'NONE', ( #180 ), #90 ) ;
#284 = SURFACE_STYLE_FILL_AREA ( #98 ) ;
#285 = MECHANICAL_DESIGN_GEOMETRIC_PRESENTATION_REPRESENTATION (  '', ( #206 ), #27 ) ;
#286 = DIMENSIONAL_EXPONENTS ( 1.000000000000000000, 0.000000000000000000, 0.000000000000000000, 0.000000000000000000, 0.000000000000000000, 0.000000000000000000, 0.000000000000000000 ) ;
#287 = FILL_AREA_STYLE ('',( #130 ) ) ;
#288 = CARTESIAN_POINT ( 'NONE',  ( -1.224646799147351975E-16, 7.000000000000000000, 0.000000000000000000 ) ) ;
#289 = EDGE_LOOP ( 'NONE', ( #10, #5 ) ) ;
#290 = PRESENTATION_LAYER_ASSIGNMENT (  '', '', ( #146 ) ) ;
#291 = AXIS2_PLACEMENT_3D ( 'NONE', #89, #201, #306 ) ;
#292 = CARTESIAN_POINT ( 'NONE',  ( 0.000000000000000000, 4.250000000000000000, 0.000000000000000000 ) ) ;
#293 = PRODUCT_DEFINITION ( 'UNKNOWN', '', #160, #227 ) ;
#294 = APPLICATION_CONTEXT ( 'automotive_design' ) ;
#295 = AXIS2_PLACEMENT_3D ( 'NONE', #47, #278, #17 ) ;
#296 = CARTESIAN_POINT ( 'NONE',  ( 0.000000000000000000, 4.250000000000000000, 0.000000000000000000 ) ) ;
#297 = LINE ( 'NONE', #67, #108 ) ;
#298 =( CONVERSION_BASED_UNIT ( 'INCH', #302 ) LENGTH_UNIT ( ) NAMED_UNIT ( #254 ) );
#299 = CARTESIAN_POINT ( 'NONE',  ( 6.123233995736766036E-17, 0.000000000000000000, 0.5000000000000000000 ) ) ;
#300 = PLANE ( 'NONE',  #177 ) ;
#301 = LENGTH_MEASURE_WITH_UNIT ( LENGTH_MEASURE( 0.02539999999999999897 ), #200 );
#302 = LENGTH_MEASURE_WITH_UNIT ( LENGTH_MEASURE( 0.02539999999999999897 ), #19 );
#303 = VECTOR ( 'NONE', #74, 39.37007874015748143 ) ;
#304 =( GEOMETRIC_REPRESENTATION_CONTEXT ( 3 ) GLOBAL_UNCERTAINTY_ASSIGNED_CONTEXT ( ( #82 ) ) GLOBAL_UNIT_ASSIGNED_CONTEXT ( ( #22, #109, #252 ) ) REPRESENTATION_CONTEXT ( 'NONE', 'WORKASPACE' ) );
#305 = FILL_AREA_STYLE_COLOUR ( '', #165 ) ;
#306 = DIRECTION ( 'NONE',  ( 1.000000000000000000, 0.000000000000000000, 0.000000000000000000 ) ) ;
#307 = CARTESIAN_POINT ( 'NONE',  ( -1.224646799147351975E-16, 7.000000000000000000, 0.000000000000000000 ) ) ;
#308 = UNCERTAINTY_MEASURE_WITH_UNIT (LENGTH_MEASURE( 1.000000000000000082E-05 ), #110, 'distance_accuracy_value', 'NONE');
#309 = SURFACE_STYLE_USAGE ( .BOTH. , #162 ) ;
ENDSEC;
END-ISO-10303-21;
