ISO-10303-21;
HEADER;
FILE_DESCRIPTION (( 'STEP AP214' ),
    '1' );
FILE_NAME ('Micro_GEM-625-4.STEP',
    '2021-09-01T20:59:37',
    ( '' ),
    ( '' ),
    'SwSTEP 2.0',
    'SolidWorks 2020',
    '' );
FILE_SCHEMA (( 'AUTOMOTIVE_DESIGN' ));
ENDSEC;

DATA;
#1 = EDGE_CURVE ( 'NONE', #228, #293, #50, .T. ) ;
#2 = DIRECTION ( 'NONE',  ( -1.000000000000000000, 0.0000000000000000000, 1.224646799147353207E-16 ) ) ;
#3 = LENGTH_MEASURE_WITH_UNIT ( LENGTH_MEASURE( 0.02539999999999999897 ), #129 );
#4 = UNCERTAINTY_MEASURE_WITH_UNIT (LENGTH_MEASURE( 1.000000000000000082E-05 ), #210, 'distance_accuracy_value', 'NONE');
#5 = LINE ( 'NONE', #199, #145 ) ;
#6 = VECTOR ( 'NONE', #176, 39.37007874015748143 ) ;
#7 = CONICAL_SURFACE ( 'NONE', #185, 0.3121874999999999512, 0.1745329251994338915 ) ;
#8 = CYLINDRICAL_SURFACE ( 'NONE', #160, 0.3121874999999998956 ) ;
#9 = LINE ( 'NONE', #59, #243 ) ;
#10 = DIRECTION ( 'NONE',  ( -1.224646799147353207E-16, -0.0000000000000000000, -1.000000000000000000 ) ) ;
#11 = CARTESIAN_POINT ( 'NONE',  ( 1.530808498934191571E-16, 0.0000000000000000000, 1.250000000000000000 ) ) ;
#12 =( NAMED_UNIT ( * ) SI_UNIT ( $, .STERADIAN. ) SOLID_ANGLE_UNIT ( ) );
#13 = PRESENTATION_STYLE_ASSIGNMENT (( #137 ) ) ;
#14 = ORIENTED_EDGE ( 'NONE', *, *, #244, .F. ) ;
#15 = EDGE_CURVE ( 'NONE', #293, #205, #71, .T. ) ;
#16 = CARTESIAN_POINT ( 'NONE',  ( 0.0000000000000000000, 0.0000000000000000000, 0.0000000000000000000 ) ) ;
#17 = ORIENTED_EDGE ( 'NONE', *, *, #15, .T. ) ;
#18 = CARTESIAN_POINT ( 'NONE',  ( 1.530808498934191571E-16, 0.0000000000000000000, 1.250000000000000000 ) ) ;
#19 = ORIENTED_EDGE ( 'NONE', *, *, #254, .T. ) ;
#20 = AXIS2_PLACEMENT_3D ( 'NONE', #152, #25, #194 ) ;
#21 = CIRCLE ( 'NONE', #170, 0.2975000000000003197 ) ;
#22 =( NAMED_UNIT ( * ) SI_UNIT ( $, .STERADIAN. ) SOLID_ANGLE_UNIT ( ) );
#23 = FILL_AREA_STYLE ('',( #78 ) ) ;
#24 = EDGE_CURVE ( 'NONE', #293, #69, #161, .T. ) ;
#25 = DIRECTION ( 'NONE',  ( 1.224646799147353207E-16, 0.0000000000000000000, 1.000000000000000000 ) ) ;
#26 = CIRCLE ( 'NONE', #96, 0.3125000000000000000 ) ;
#27 = DIRECTION ( 'NONE',  ( -0.1736481776669311916, 2.126576849575783316E-17, 0.9848077530122080203 ) ) ;
#28 = FACE_OUTER_BOUND ( 'NONE', #143, .T. ) ;
#29 = AXIS2_PLACEMENT_3D ( 'NONE', #102, #232, #276 ) ;
#30 = DIRECTION ( 'NONE',  ( -1.000000000000000000, 0.0000000000000000000, 0.0000000000000000000 ) ) ;
#31 = DIRECTION ( 'NONE',  ( -1.000000000000000000, 0.0000000000000000000, 0.0000000000000000000 ) ) ;
#32 = EDGE_CURVE ( 'NONE', #69, #167, #101, .T. ) ;
#33 = DIRECTION ( 'NONE',  ( 1.000000000000000000, 0.0000000000000000000, 0.0000000000000000000 ) ) ;
#34 = MECHANICAL_DESIGN_GEOMETRIC_PRESENTATION_REPRESENTATION (  '', ( #273 ), #135 ) ;
#35 = EDGE_CURVE ( 'NONE', #267, #136, #218, .T. ) ;
#36 = ORIENTED_EDGE ( 'NONE', *, *, #215, .F. ) ;
#37 = SURFACE_STYLE_FILL_AREA ( #159 ) ;
#38 = ORIENTED_EDGE ( 'NONE', *, *, #32, .F. ) ;
#39 = LENGTH_MEASURE_WITH_UNIT ( LENGTH_MEASURE( 0.02539999999999999897 ), #295 );
#40 =( GEOMETRIC_REPRESENTATION_CONTEXT ( 3 ) GLOBAL_UNCERTAINTY_ASSIGNED_CONTEXT ( ( #4 ) ) GLOBAL_UNIT_ASSIGNED_CONTEXT ( ( #210, #191, #241 ) ) REPRESENTATION_CONTEXT ( 'NONE', 'WORKASPACE' ) );
#41 = EDGE_LOOP ( 'NONE', ( #36, #290, #229, #44 ) ) ;
#42 = VERTEX_POINT ( 'NONE', #55 ) ;
#43 = EDGE_CURVE ( 'NONE', #167, #69, #288, .T. ) ;
#44 = ORIENTED_EDGE ( 'NONE', *, *, #257, .F. ) ;
#45 = AXIS2_PLACEMENT_3D ( 'NONE', #147, #100, #48 ) ;
#46 = PRESENTATION_STYLE_ASSIGNMENT (( #151 ) ) ;
#47 = VECTOR ( 'NONE', #113, 39.37007874015748143 ) ;
#48 = DIRECTION ( 'NONE',  ( 1.000000000000000000, 0.0000000000000000000, 0.0000000000000000000 ) ) ;
#49 = ADVANCED_FACE ( 'NONE', ( #271 ), #99, .T. ) ;
#50 = CIRCLE ( 'NONE', #63, 0.3121874999999999512 ) ;
#51 = CARTESIAN_POINT ( 'NONE',  ( 0.0000000000000000000, 0.0000000000000000000, 3.500000000000000000 ) ) ;
#52 = CARTESIAN_POINT ( 'NONE',  ( 0.3121874999999998956, 3.823194226088142147E-17, 0.0000000000000000000 ) ) ;
#53 = VECTOR ( 'NONE', #66, 39.37007874015748143 ) ;
#54 =( GEOMETRIC_REPRESENTATION_CONTEXT ( 3 ) GLOBAL_UNCERTAINTY_ASSIGNED_CONTEXT ( ( #173 ) ) GLOBAL_UNIT_ASSIGNED_CONTEXT ( ( #207, #292, #12 ) ) REPRESENTATION_CONTEXT ( 'NONE', 'WORKASPACE' ) );
#55 = CARTESIAN_POINT ( 'NONE',  ( -0.3125000000000000000, 0.0000000000000000000, 3.484999999999999432 ) ) ;
#56 = EDGE_CURVE ( 'NONE', #136, #42, #95, .T. ) ;
#57 = DIRECTION ( 'NONE',  ( -1.224646799147353207E-16, -0.0000000000000000000, -1.000000000000000000 ) ) ;
#58 = DIRECTION ( 'NONE',  ( 1.224646799147353207E-16, 0.0000000000000000000, 1.000000000000000000 ) ) ;
#59 = CARTESIAN_POINT ( 'NONE',  ( 0.3125000000000000000, 3.827021247335478926E-17, 3.500000000000000000 ) ) ;
#60 = ADVANCED_FACE ( 'NONE', ( #148 ), #122, .T. ) ;
#61 = DIRECTION ( 'NONE',  ( 1.000000000000000000, 0.0000000000000000000, -0.0000000000000000000 ) ) ;
#62 = CARTESIAN_POINT ( 'NONE',  ( 1.532978910536522064E-16, 0.0000000000000000000, 1.251772275568630910 ) ) ;
#63 = AXIS2_PLACEMENT_3D ( 'NONE', #18, #187, #118 ) ;
#64 = ADVANCED_FACE ( 'NONE', ( #146 ), #214, .T. ) ;
#65 = AXIS2_PLACEMENT_3D ( 'NONE', #272, #76, #171 ) ;
#66 = DIRECTION ( 'NONE',  ( 0.1736481776669313859, 0.0000000000000000000, 0.9848077530122077983 ) ) ;
#67 = EDGE_LOOP ( 'NONE', ( #142, #138, #163, #209 ) ) ;
#68 = PRODUCT_CONTEXT ( 'NONE', #172, 'mechanical' ) ;
#69 = VERTEX_POINT ( 'NONE', #52 ) ;
#70 = FILL_AREA_STYLE_COLOUR ( '', #155 ) ;
#71 = LINE ( 'NONE', #88, #53 ) ;
#72 = ADVANCED_FACE ( 'NONE', ( #252 ), #128, .T. ) ;
#73 = ORIENTED_EDGE ( 'NONE', *, *, #32, .T. ) ;
#74 = MANIFOLD_SOLID_BREP ( 'Cut-Revolve1', #183 ) ;
#75 = EDGE_CURVE ( 'NONE', #42, #136, #107, .T. ) ;
#76 = DIRECTION ( 'NONE',  ( 0.0000000000000000000, 0.0000000000000000000, -1.000000000000000000 ) ) ;
#77 = AXIS2_PLACEMENT_3D ( 'NONE', #286, #10, #259 ) ;
#78 = FILL_AREA_STYLE_COLOUR ( '', #177 ) ;
#79 = SURFACE_STYLE_FILL_AREA ( #23 ) ;
#80 = DIRECTION ( 'NONE',  ( 0.0000000000000000000, 0.0000000000000000000, 1.000000000000000000 ) ) ;
#81 = CARTESIAN_POINT ( 'NONE',  ( 0.0000000000000000000, 0.0000000000000000000, 3.500000000000000000 ) ) ;
#82 = DIRECTION ( 'NONE',  ( -1.000000000000000000, 0.0000000000000000000, 1.224646799147353207E-16 ) ) ;
#83 = AXIS2_PLACEMENT_3D ( 'NONE', #233, #217, #2 ) ;
#84 = MECHANICAL_DESIGN_GEOMETRIC_PRESENTATION_REPRESENTATION (  '', ( #150 ), #54 ) ;
#85 = CIRCLE ( 'NONE', #289, 0.3121874999999999512 ) ;
#86 = CARTESIAN_POINT ( 'NONE',  ( -0.2975000000000003197, 0.0000000000000000000, 3.500000000000000000 ) ) ;
#87 = DIRECTION ( 'NONE',  ( -1.224646799147353207E-16, -0.0000000000000000000, -1.000000000000000000 ) ) ;
#88 = CARTESIAN_POINT ( 'NONE',  ( 0.3121875000000001177, 0.0000000000000000000, 1.250000000000000000 ) ) ;
#89 = AXIS2_PLACEMENT_3D ( 'NONE', #204, #80, #61 ) ;
#90 = DIRECTION ( 'NONE',  ( 0.0000000000000000000, 0.0000000000000000000, 1.000000000000000000 ) ) ;
#91 = ORIENTED_EDGE ( 'NONE', *, *, #24, .T. ) ;
#92 = VERTEX_POINT ( 'NONE', #168 ) ;
#93 = ADVANCED_FACE ( 'NONE', ( #213 ), #269, .T. ) ;
#94 = ORIENTED_EDGE ( 'NONE', *, *, #56, .T. ) ;
#95 = CIRCLE ( 'NONE', #45, 0.3125000000000000000 ) ;
#96 = AXIS2_PLACEMENT_3D ( 'NONE', #62, #260, #180 ) ;
#97 = ORIENTED_EDGE ( 'NONE', *, *, #75, .T. ) ;
#98 = PRODUCT_DEFINITION_CONTEXT ( 'detailed design', #144, 'design' ) ;
#99 = PLANE ( 'NONE',  #283 ) ;
#100 = DIRECTION ( 'NONE',  ( 0.0000000000000000000, 0.0000000000000000000, -1.000000000000000000 ) ) ;
#101 = CIRCLE ( 'NONE', #83, 0.3121874999999998956 ) ;
#102 = CARTESIAN_POINT ( 'NONE',  ( 0.0000000000000000000, 0.0000000000000000000, 3.500000000000000000 ) ) ;
#103 = AXIS2_PLACEMENT_3D ( 'NONE', #174, #274, #197 ) ;
#104 = DIRECTION ( 'NONE',  ( 0.0000000000000000000, 0.0000000000000000000, 1.000000000000000000 ) ) ;
#105 = EDGE_CURVE ( 'NONE', #228, #92, #235, .T. ) ;
#106 = PLANE ( 'NONE',  #89 ) ;
#107 = CIRCLE ( 'NONE', #212, 0.3125000000000000000 ) ;
#108 = CARTESIAN_POINT ( 'NONE',  ( -0.3121874999999998956, 0.0000000000000000000, 7.646388452176284293E-17 ) ) ;
#109 = EDGE_CURVE ( 'NONE', #42, #92, #181, .T. ) ;
#110 = DIRECTION ( 'NONE',  ( 1.000000000000000000, 0.0000000000000000000, 0.0000000000000000000 ) ) ;
#111 = PRODUCT ( 'Micro_GEM-625-4', 'Micro_GEM-625-4', '', ( #68 ) ) ;
#112 = DIRECTION ( 'NONE',  ( 0.0000000000000000000, 0.0000000000000000000, 1.000000000000000000 ) ) ;
#113 = DIRECTION ( 'NONE',  ( -0.0000000000000000000, -0.0000000000000000000, -1.000000000000000000 ) ) ;
#114 = APPLICATION_PROTOCOL_DEFINITION ( 'draft international standard', 'automotive_design', 1998, #144 ) ;
#115 = ORIENTED_EDGE ( 'NONE', *, *, #175, .F. ) ;
#116 = ADVANCED_FACE ( 'NONE', ( #28 ), #279, .T. ) ;
#117 = ORIENTED_EDGE ( 'NONE', *, *, #56, .F. ) ;
#118 = DIRECTION ( 'NONE',  ( -1.000000000000000000, 0.0000000000000000000, 0.0000000000000000000 ) ) ;
#119 = DIRECTION ( 'NONE',  ( 1.000000000000000000, 0.0000000000000000000, 0.0000000000000000000 ) ) ;
#120 = ORIENTED_EDGE ( 'NONE', *, *, #1, .T. ) ;
#121 = EDGE_LOOP ( 'NONE', ( #242, #206, #192, #38 ) ) ;
#122 = CONICAL_SURFACE ( 'NONE', #20, 0.3121874999999999512, 0.1745329251994338915 ) ;
#123 = AXIS2_PLACEMENT_3D ( 'NONE', #234, #57, #82 ) ;
#124 = DIRECTION ( 'NONE',  ( 1.000000000000000000, 0.0000000000000000000, 0.0000000000000000000 ) ) ;
#125 = CARTESIAN_POINT ( 'NONE',  ( 4.682062571497486343E-33, 0.0000000000000000000, 3.823194226088142147E-17 ) ) ;
#126 =( NAMED_UNIT ( * ) PLANE_ANGLE_UNIT ( ) SI_UNIT ( $, .RADIAN. ) );
#127 = AXIS2_PLACEMENT_3D ( 'NONE', #16, #90, #119 ) ;
#128 = CYLINDRICAL_SURFACE ( 'NONE', #29, 0.3125000000000000000 ) ;
#129 =( LENGTH_UNIT ( ) NAMED_UNIT ( * ) SI_UNIT ( $, .METRE. ) );
#130 = CARTESIAN_POINT ( 'NONE',  ( -0.3121874999999998956, 0.0000000000000000000, 3.823194226088142147E-17 ) ) ;
#131 = FACE_OUTER_BOUND ( 'NONE', #121, .T. ) ;
#132 = AXIS2_PLACEMENT_3D ( 'NONE', #156, #256, #31 ) ;
#133 = DIRECTION ( 'NONE',  ( -1.224646799147353207E-16, -0.0000000000000000000, -1.000000000000000000 ) ) ;
#134 = DIRECTION ( 'NONE',  ( -0.7071067811865346942, 0.0000000000000000000, -0.7071067811865603403 ) ) ;
#135 =( GEOMETRIC_REPRESENTATION_CONTEXT ( 3 ) GLOBAL_UNCERTAINTY_ASSIGNED_CONTEXT ( ( #262 ) ) GLOBAL_UNIT_ASSIGNED_CONTEXT ( ( #198, #126, #22 ) ) REPRESENTATION_CONTEXT ( 'NONE', 'WORKASPACE' ) );
#136 = VERTEX_POINT ( 'NONE', #282 ) ;
#137 = SURFACE_STYLE_USAGE ( .BOTH. , #164 ) ;
#138 = ORIENTED_EDGE ( 'NONE', *, *, #105, .T. ) ;
#139 = ADVANCED_FACE ( 'NONE', ( #131 ), #203, .T. ) ;
#140 = LENGTH_MEASURE_WITH_UNIT ( LENGTH_MEASURE( 0.02539999999999999897 ), #154 );
#141 = VERTEX_POINT ( 'NONE', #86 ) ;
#142 = ORIENTED_EDGE ( 'NONE', *, *, #1, .F. ) ;
#143 = EDGE_LOOP ( 'NONE', ( #165, #248, #287, #117 ) ) ;
#144 = APPLICATION_CONTEXT ( 'automotive_design' ) ;
#145 = VECTOR ( 'NONE', #134, 39.37007874015748143 ) ;
#146 = FACE_OUTER_BOUND ( 'NONE', #294, .T. ) ;
#147 = CARTESIAN_POINT ( 'NONE',  ( 0.0000000000000000000, 0.0000000000000000000, 3.484999999999999432 ) ) ;
#148 = FACE_OUTER_BOUND ( 'NONE', #67, .T. ) ;
#149 = ADVANCED_FACE ( 'NONE', ( #157 ), #8, .T. ) ;
#150 = STYLED_ITEM ( 'NONE', ( #13 ), #266 ) ;
#151 = SURFACE_STYLE_USAGE ( .BOTH. , #253 ) ;
#152 = CARTESIAN_POINT ( 'NONE',  ( 1.530808498934191571E-16, 0.0000000000000000000, 1.250000000000000000 ) ) ;
#153 = DIRECTION ( 'NONE',  ( 0.0000000000000000000, 0.0000000000000000000, 1.000000000000000000 ) ) ;
#154 =( LENGTH_UNIT ( ) NAMED_UNIT ( * ) SI_UNIT ( $, .METRE. ) );
#155 = COLOUR_RGB ( '',0.7921568627450980005, 0.8196078431372548767, 0.9333333333333333481 ) ;
#156 = CARTESIAN_POINT ( 'NONE',  ( 0.0000000000000000000, 0.0000000000000000000, 3.500000000000000000 ) ) ;
#157 = FACE_OUTER_BOUND ( 'NONE', #268, .T. ) ;
#158 = EDGE_CURVE ( 'NONE', #228, #167, #238, .T. ) ;
#159 = FILL_AREA_STYLE ('',( #70 ) ) ;
#160 = AXIS2_PLACEMENT_3D ( 'NONE', #220, #87, #219 ) ;
#161 = LINE ( 'NONE', #239, #6 ) ;
#162 = ORIENTED_EDGE ( 'NONE', *, *, #109, .F. ) ;
#163 = ORIENTED_EDGE ( 'NONE', *, *, #195, .T. ) ;
#164 = SURFACE_SIDE_STYLE ('',( #37 ) ) ;
#165 = ORIENTED_EDGE ( 'NONE', *, *, #35, .F. ) ;
#166 = DIMENSIONAL_EXPONENTS ( 1.000000000000000000, 0.0000000000000000000, 0.0000000000000000000, 0.0000000000000000000, 0.0000000000000000000, 0.0000000000000000000, 0.0000000000000000000 ) ;
#167 = VERTEX_POINT ( 'NONE', #108 ) ;
#168 = CARTESIAN_POINT ( 'NONE',  ( -0.3124999999999998890, 0.0000000000000000000, 1.251772275568630910 ) ) ;
#169 = VECTOR ( 'NONE', #251, 39.37007874015748143 ) ;
#170 = AXIS2_PLACEMENT_3D ( 'NONE', #281, #153, #33 ) ;
#171 = DIRECTION ( 'NONE',  ( -1.000000000000000000, 0.0000000000000000000, 0.0000000000000000000 ) ) ;
#172 = APPLICATION_CONTEXT ( 'automotive_design' ) ;
#173 = UNCERTAINTY_MEASURE_WITH_UNIT (LENGTH_MEASURE( 1.000000000000000082E-05 ), #207, 'distance_accuracy_value', 'NONE');
#174 = CARTESIAN_POINT ( 'NONE',  ( 0.0000000000000000000, 0.0000000000000000000, 3.500000000000000000 ) ) ;
#175 = EDGE_CURVE ( 'NONE', #205, #92, #26, .T. ) ;
#176 = DIRECTION ( 'NONE',  ( -1.224646799147353207E-16, -0.0000000000000000000, -1.000000000000000000 ) ) ;
#177 = COLOUR_RGB ( '',0.7921568627450980005, 0.8196078431372548767, 0.9333333333333333481 ) ;
#178 = CARTESIAN_POINT ( 'NONE',  ( -0.3121874999999998401, 3.825107736711810845E-17, 1.250000000000000000 ) ) ;
#179 = DIRECTION ( 'NONE',  ( 1.000000000000000000, 0.0000000000000000000, 0.0000000000000000000 ) ) ;
#180 = DIRECTION ( 'NONE',  ( 1.000000000000000000, 0.0000000000000000000, 0.0000000000000000000 ) ) ;
#181 = LINE ( 'NONE', #261, #47 ) ;
#182 = CARTESIAN_POINT ( 'NONE',  ( 1.530808498934191571E-16, 0.0000000000000000000, 1.250000000000000000 ) ) ;
#183 = CLOSED_SHELL ( 'NONE', ( #149, #60, #93, #64, #72, #49, #116, #298, #139, #186 ) ) ;
#184 = ORIENTED_EDGE ( 'NONE', *, *, #158, .F. ) ;
#185 = AXIS2_PLACEMENT_3D ( 'NONE', #11, #58, #110 ) ;
#186 = ADVANCED_FACE ( 'NONE', ( #222 ), #106, .F. ) ;
#187 = DIRECTION ( 'NONE',  ( -1.224646799147353207E-16, -0.0000000000000000000, -1.000000000000000000 ) ) ;
#188 = APPLICATION_PROTOCOL_DEFINITION ( 'draft international standard', 'automotive_design', 1998, #172 ) ;
#189 = EDGE_LOOP ( 'NONE', ( #19, #230 ) ) ;
#190 = ORIENTED_EDGE ( 'NONE', *, *, #244, .T. ) ;
#191 =( NAMED_UNIT ( * ) PLANE_ANGLE_UNIT ( ) SI_UNIT ( $, .RADIAN. ) );
#192 = ORIENTED_EDGE ( 'NONE', *, *, #158, .T. ) ;
#193 = DIRECTION ( 'NONE',  ( -1.000000000000000000, 0.0000000000000000000, 1.224646799147353207E-16 ) ) ;
#194 = DIRECTION ( 'NONE',  ( 1.000000000000000000, 0.0000000000000000000, 0.0000000000000000000 ) ) ;
#195 = EDGE_CURVE ( 'NONE', #92, #205, #263, .T. ) ;
#196 = VECTOR ( 'NONE', #133, 39.37007874015748143 ) ;
#197 = DIRECTION ( 'NONE',  ( -1.000000000000000000, 0.0000000000000000000, 0.0000000000000000000 ) ) ;
#198 =( CONVERSION_BASED_UNIT ( 'INCH', #3 ) LENGTH_UNIT ( ) NAMED_UNIT ( #246 ) );
#199 = CARTESIAN_POINT ( 'NONE',  ( -0.2975000000000003197, 0.0000000000000000000, 3.500000000000000000 ) ) ;
#200 = CARTESIAN_POINT ( 'NONE',  ( 0.3125000000000001665, 3.827021247335480159E-17, 1.251772275568630910 ) ) ;
#201 = DIRECTION ( 'NONE',  ( -1.224646799147353207E-16, -0.0000000000000000000, -1.000000000000000000 ) ) ;
#202 = EDGE_CURVE ( 'NONE', #293, #228, #85, .T. ) ;
#203 = CYLINDRICAL_SURFACE ( 'NONE', #123, 0.3121874999999998956 ) ;
#204 = CARTESIAN_POINT ( 'NONE',  ( 0.0000000000000000000, 0.0000000000000000000, 0.0000000000000000000 ) ) ;
#205 = VERTEX_POINT ( 'NONE', #200 ) ;
#206 = ORIENTED_EDGE ( 'NONE', *, *, #202, .T. ) ;
#207 =( CONVERSION_BASED_UNIT ( 'INCH', #39 ) LENGTH_UNIT ( ) NAMED_UNIT ( #166 ) );
#208 = ORIENTED_EDGE ( 'NONE', *, *, #202, .F. ) ;
#209 = ORIENTED_EDGE ( 'NONE', *, *, #15, .F. ) ;
#210 =( CONVERSION_BASED_UNIT ( 'INCH', #140 ) LENGTH_UNIT ( ) NAMED_UNIT ( #291 ) );
#211 = ORIENTED_EDGE ( 'NONE', *, *, #195, .F. ) ;
#212 = AXIS2_PLACEMENT_3D ( 'NONE', #216, #255, #124 ) ;
#213 = FACE_OUTER_BOUND ( 'NONE', #41, .T. ) ;
#214 = CYLINDRICAL_SURFACE ( 'NONE', #103, 0.3125000000000000000 ) ;
#215 = EDGE_CURVE ( 'NONE', #267, #141, #21, .T. ) ;
#216 = CARTESIAN_POINT ( 'NONE',  ( 0.0000000000000000000, 0.0000000000000000000, 3.484999999999999432 ) ) ;
#217 = DIRECTION ( 'NONE',  ( -1.224646799147353207E-16, -0.0000000000000000000, -1.000000000000000000 ) ) ;
#218 = LINE ( 'NONE', #249, #169 ) ;
#219 = DIRECTION ( 'NONE',  ( -1.000000000000000000, 0.0000000000000000000, 1.224646799147353207E-16 ) ) ;
#220 = CARTESIAN_POINT ( 'NONE',  ( 0.0000000000000000000, 0.0000000000000000000, 0.0000000000000000000 ) ) ;
#221 = DIRECTION ( 'NONE',  ( -0.0000000000000000000, -0.0000000000000000000, -1.000000000000000000 ) ) ;
#222 = FACE_OUTER_BOUND ( 'NONE', #270, .T. ) ;
#223 = CARTESIAN_POINT ( 'NONE',  ( 0.2975000000000003197, 3.735172737399428256E-17, 3.500000000000000000 ) ) ;
#224 = AXIS2_PLACEMENT_3D ( 'NONE', #125, #299, #193 ) ;
#225 = SHAPE_DEFINITION_REPRESENTATION ( #275, #266 ) ;
#226 = EDGE_LOOP ( 'NONE', ( #247, #208, #17, #264 ) ) ;
#227 = ORIENTED_EDGE ( 'NONE', *, *, #43, .F. ) ;
#228 = VERTEX_POINT ( 'NONE', #178 ) ;
#229 = ORIENTED_EDGE ( 'NONE', *, *, #75, .F. ) ;
#230 = ORIENTED_EDGE ( 'NONE', *, *, #215, .T. ) ;
#231 = CIRCLE ( 'NONE', #236, 0.2975000000000003197 ) ;
#232 = DIRECTION ( 'NONE',  ( -0.0000000000000000000, -0.0000000000000000000, -1.000000000000000000 ) ) ;
#233 = CARTESIAN_POINT ( 'NONE',  ( 4.682062571497486343E-33, 0.0000000000000000000, 3.823194226088142147E-17 ) ) ;
#234 = CARTESIAN_POINT ( 'NONE',  ( 0.0000000000000000000, 0.0000000000000000000, 0.0000000000000000000 ) ) ;
#235 = LINE ( 'NONE', #237, #245 ) ;
#236 = AXIS2_PLACEMENT_3D ( 'NONE', #81, #112, #179 ) ;
#237 = CARTESIAN_POINT ( 'NONE',  ( -0.3121874999999998401, 3.823194226088143379E-17, 1.250000000000000000 ) ) ;
#238 = LINE ( 'NONE', #130, #196 ) ;
#239 = CARTESIAN_POINT ( 'NONE',  ( 0.3121874999999998956, 3.823194226088142147E-17, -3.823194226088142147E-17 ) ) ;
#240 = ORIENTED_EDGE ( 'NONE', *, *, #109, .T. ) ;
#241 =( NAMED_UNIT ( * ) SI_UNIT ( $, .STERADIAN. ) SOLID_ANGLE_UNIT ( ) );
#242 = ORIENTED_EDGE ( 'NONE', *, *, #24, .F. ) ;
#243 = VECTOR ( 'NONE', #221, 39.37007874015748143 ) ;
#244 = EDGE_CURVE ( 'NONE', #136, #205, #9, .T. ) ;
#245 = VECTOR ( 'NONE', #27, 39.37007874015747433 ) ;
#246 = DIMENSIONAL_EXPONENTS ( 1.000000000000000000, 0.0000000000000000000, 0.0000000000000000000, 0.0000000000000000000, 0.0000000000000000000, 0.0000000000000000000, 0.0000000000000000000 ) ;
#247 = ORIENTED_EDGE ( 'NONE', *, *, #105, .F. ) ;
#248 = ORIENTED_EDGE ( 'NONE', *, *, #254, .F. ) ;
#249 = CARTESIAN_POINT ( 'NONE',  ( 0.2975000000000003197, 3.643324227463378817E-17, 3.500000000000000000 ) ) ;
#250 = PRESENTATION_LAYER_ASSIGNMENT (  '', '', ( #273 ) ) ;
#251 = DIRECTION ( 'NONE',  ( 0.7071067811865346942, 8.659560562354773853E-17, -0.7071067811865603403 ) ) ;
#252 = FACE_OUTER_BOUND ( 'NONE', #296, .T. ) ;
#253 = SURFACE_SIDE_STYLE ('',( #79 ) ) ;
#254 = EDGE_CURVE ( 'NONE', #141, #267, #231, .T. ) ;
#255 = DIRECTION ( 'NONE',  ( 0.0000000000000000000, 0.0000000000000000000, -1.000000000000000000 ) ) ;
#256 = DIRECTION ( 'NONE',  ( 0.0000000000000000000, 0.0000000000000000000, -1.000000000000000000 ) ) ;
#257 = EDGE_CURVE ( 'NONE', #141, #42, #5, .T. ) ;
#258 = CARTESIAN_POINT ( 'NONE',  ( 0.3121875000000001177, 0.0000000000000000000, 1.250000000000000000 ) ) ;
#259 = DIRECTION ( 'NONE',  ( 1.000000000000000000, 0.0000000000000000000, 0.0000000000000000000 ) ) ;
#260 = DIRECTION ( 'NONE',  ( -1.224646799147353207E-16, -0.0000000000000000000, -1.000000000000000000 ) ) ;
#261 = CARTESIAN_POINT ( 'NONE',  ( -0.3125000000000000000, 0.0000000000000000000, 3.500000000000000000 ) ) ;
#262 = UNCERTAINTY_MEASURE_WITH_UNIT (LENGTH_MEASURE( 1.000000000000000082E-05 ), #198, 'distance_accuracy_value', 'NONE');
#263 = CIRCLE ( 'NONE', #77, 0.3125000000000000000 ) ;
#264 = ORIENTED_EDGE ( 'NONE', *, *, #175, .T. ) ;
#265 = ORIENTED_EDGE ( 'NONE', *, *, #43, .T. ) ;
#266 = ADVANCED_BREP_SHAPE_REPRESENTATION ( 'Micro_GEM-625-4', ( #74, #127 ), #40 ) ;
#267 = VERTEX_POINT ( 'NONE', #223 ) ;
#268 = EDGE_LOOP ( 'NONE', ( #120, #91, #227, #184 ) ) ;
#269 = CONICAL_SURFACE ( 'NONE', #65, 0.2975000000000003197, 0.7853981633974300713 ) ;
#270 = EDGE_LOOP ( 'NONE', ( #265, #73 ) ) ;
#271 = FACE_OUTER_BOUND ( 'NONE', #189, .T. ) ;
#272 = CARTESIAN_POINT ( 'NONE',  ( 0.0000000000000000000, 0.0000000000000000000, 3.500000000000000000 ) ) ;
#273 = STYLED_ITEM ( 'NONE', ( #46 ), #74 ) ;
#274 = DIRECTION ( 'NONE',  ( -0.0000000000000000000, -0.0000000000000000000, -1.000000000000000000 ) ) ;
#275 = PRODUCT_DEFINITION_SHAPE ( 'NONE', 'NONE',  #280 ) ;
#276 = DIRECTION ( 'NONE',  ( -1.000000000000000000, 0.0000000000000000000, 0.0000000000000000000 ) ) ;
#277 = PRODUCT_RELATED_PRODUCT_CATEGORY ( 'part', '', ( #111 ) ) ;
#278 = DIRECTION ( 'NONE',  ( 1.000000000000000000, 0.0000000000000000000, -0.0000000000000000000 ) ) ;
#279 = CONICAL_SURFACE ( 'NONE', #132, 0.2975000000000003197, 0.7853981633974300713 ) ;
#280 = PRODUCT_DEFINITION ( 'UNKNOWN', '', #284, #98 ) ;
#281 = CARTESIAN_POINT ( 'NONE',  ( 0.0000000000000000000, 0.0000000000000000000, 3.500000000000000000 ) ) ;
#282 = CARTESIAN_POINT ( 'NONE',  ( 0.3125000000000000000, 3.827021247335478926E-17, 3.484999999999999432 ) ) ;
#283 = AXIS2_PLACEMENT_3D ( 'NONE', #51, #104, #278 ) ;
#284 = PRODUCT_DEFINITION_FORMATION_WITH_SPECIFIED_SOURCE ( 'ANY', '', #111, .NOT_KNOWN. ) ;
#285 = FACE_OUTER_BOUND ( 'NONE', #226, .T. ) ;
#286 = CARTESIAN_POINT ( 'NONE',  ( 1.532978910536522064E-16, 0.0000000000000000000, 1.251772275568630910 ) ) ;
#287 = ORIENTED_EDGE ( 'NONE', *, *, #257, .T. ) ;
#288 = CIRCLE ( 'NONE', #224, 0.3121874999999998956 ) ;
#289 = AXIS2_PLACEMENT_3D ( 'NONE', #182, #201, #30 ) ;
#290 = ORIENTED_EDGE ( 'NONE', *, *, #35, .T. ) ;
#291 = DIMENSIONAL_EXPONENTS ( 1.000000000000000000, 0.0000000000000000000, 0.0000000000000000000, 0.0000000000000000000, 0.0000000000000000000, 0.0000000000000000000, 0.0000000000000000000 ) ;
#292 =( NAMED_UNIT ( * ) PLANE_ANGLE_UNIT ( ) SI_UNIT ( $, .RADIAN. ) );
#293 = VERTEX_POINT ( 'NONE', #258 ) ;
#294 = EDGE_LOOP ( 'NONE', ( #97, #190, #211, #162 ) ) ;
#295 =( LENGTH_UNIT ( ) NAMED_UNIT ( * ) SI_UNIT ( $, .METRE. ) );
#296 = EDGE_LOOP ( 'NONE', ( #14, #94, #240, #115 ) ) ;
#297 = PRESENTATION_LAYER_ASSIGNMENT (  '', '', ( #150 ) ) ;
#298 = ADVANCED_FACE ( 'NONE', ( #285 ), #7, .T. ) ;
#299 = DIRECTION ( 'NONE',  ( -1.224646799147353207E-16, -0.0000000000000000000, -1.000000000000000000 ) ) ;
ENDSEC;
END-ISO-10303-21;
