ISO-10303-21;
HEADER;
FILE_DESCRIPTION (( 'STEP AP214' ),
    '1' );
FILE_NAME ('00212.STEP',
    '2023-06-22T14:04:31',
    ( '' ),
    ( '' ),
    'SwSTEP 2.0',
    'SolidWorks 2023',
    '' );
FILE_SCHEMA (( 'AUTOMOTIVE_DESIGN' ));
ENDSEC;

DATA;
#1 =( LENGTH_UNIT ( ) NAMED_UNIT ( * ) SI_UNIT ( $, .METRE. ) );
#2 = ADVANCED_FACE ( 'NONE', ( #292 ), #266, .T. ) ;
#3 = STYLED_ITEM ( 'NONE', ( #34 ), #205 ) ;
#4 = DIMENSIONAL_EXPONENTS ( 1.000000000000000000, 0.000000000000000000, 0.000000000000000000, 0.000000000000000000, 0.000000000000000000, 0.000000000000000000, 0.000000000000000000 ) ;
#5 = CARTESIAN_POINT ( 'NONE',  ( -0.1250000000000000000, 1.750000000000000000, 0.000000000000000000 ) ) ;
#6 = AXIS2_PLACEMENT_3D ( 'NONE', #61, #128, #162 ) ;
#7 = FACE_OUTER_BOUND ( 'NONE', #198, .T. ) ;
#8 = FILL_AREA_STYLE ('',( #30 ) ) ;
#9 = PLANE ( 'NONE',  #126 ) ;
#10 = VERTEX_POINT ( 'NONE', #207 ) ;
#11 = CARTESIAN_POINT ( 'NONE',  ( 0.000000000000000000, 0.000000000000000000, 0.000000000000000000 ) ) ;
#12 =( LENGTH_UNIT ( ) NAMED_UNIT ( * ) SI_UNIT ( $, .METRE. ) );
#13 = ORIENTED_EDGE ( 'NONE', *, *, #60, .F. ) ;
#14 = EDGE_CURVE ( 'NONE', #249, #10, #186, .T. ) ;
#15 = UNCERTAINTY_MEASURE_WITH_UNIT (LENGTH_MEASURE( 1.000000000000000082E-05 ), #258, 'distance_accuracy_value', 'NONE');
#16 = ORIENTED_EDGE ( 'NONE', *, *, #39, .T. ) ;
#17 = LENGTH_MEASURE_WITH_UNIT ( LENGTH_MEASURE( 0.02539999999999999897 ), #155 );
#18 =( NAMED_UNIT ( * ) SI_UNIT ( $, .STERADIAN. ) SOLID_ANGLE_UNIT ( ) );
#19 = CIRCLE ( 'NONE', #6, 0.1250000000000000000 ) ;
#20 = CARTESIAN_POINT ( 'NONE',  ( -1.224646799147352714E-16, 4.000000000000000000, 0.000000000000000000 ) ) ;
#21 = CYLINDRICAL_SURFACE ( 'NONE', #239, 0.1250000000000000555 ) ;
#22 = STYLED_ITEM ( 'NONE', ( #108 ), #59 ) ;
#23 = FILL_AREA_STYLE_COLOUR ( '', #187 ) ;
#24 = VECTOR ( 'NONE', #228, 39.37007874015748143 ) ;
#25 = DIRECTION ( 'NONE',  ( -5.442874662877122010E-17, 1.000000000000000000, -0.000000000000000000 ) ) ;
#26 = DIMENSIONAL_EXPONENTS ( 1.000000000000000000, 0.000000000000000000, 0.000000000000000000, 0.000000000000000000, 0.000000000000000000, 0.000000000000000000, 0.000000000000000000 ) ;
#27 = CIRCLE ( 'NONE', #98, 0.1250000000000001110 ) ;
#28 = PRODUCT_DEFINITION_SHAPE ( 'NONE', 'NONE',  #277 ) ;
#29 = SURFACE_STYLE_FILL_AREA ( #8 ) ;
#30 = FILL_AREA_STYLE_COLOUR ( '', #84 ) ;
#31 = PRESENTATION_LAYER_ASSIGNMENT (  '', '', ( #229 ) ) ;
#32 = MECHANICAL_DESIGN_GEOMETRIC_PRESENTATION_REPRESENTATION (  '', ( #95 ), #146 ) ;
#33 = ORIENTED_EDGE ( 'NONE', *, *, #213, .T. ) ;
#34 = PRESENTATION_STYLE_ASSIGNMENT (( #168 ) ) ;
#35 = ORIENTED_EDGE ( 'NONE', *, *, #156, .T. ) ;
#36 = ORIENTED_EDGE ( 'NONE', *, *, #308, .T. ) ;
#37 = DIRECTION ( 'NONE',  ( -0.000000000000000000, -1.000000000000000000, -0.000000000000000000 ) ) ;
#38 = DIRECTION ( 'NONE',  ( -1.000000000000000000, 0.000000000000000000, 0.000000000000000000 ) ) ;
#39 = EDGE_CURVE ( 'NONE', #125, #249, #71, .T. ) ;
#40 = DIRECTION ( 'NONE',  ( 0.000000000000000000, -1.000000000000000000, -0.000000000000000000 ) ) ;
#41 = CARTESIAN_POINT ( 'NONE',  ( -1.224646799147352714E-16, 4.000000000000000000, 0.000000000000000000 ) ) ;
#42 = MECHANICAL_DESIGN_GEOMETRIC_PRESENTATION_REPRESENTATION (  '', ( #231 ), #184 ) ;
#43 = SURFACE_STYLE_USAGE ( .BOTH. , #261 ) ;
#44 = DIMENSIONAL_EXPONENTS ( 1.000000000000000000, 0.000000000000000000, 0.000000000000000000, 0.000000000000000000, 0.000000000000000000, 0.000000000000000000, 0.000000000000000000 ) ;
#45 = CARTESIAN_POINT ( 'NONE',  ( 0.000000000000000000, 1.750000000000000000, 0.000000000000000000 ) ) ;
#46 = DIRECTION ( 'NONE',  ( -1.000000000000000000, 0.000000000000000000, 0.000000000000000000 ) ) ;
#47 = UNCERTAINTY_MEASURE_WITH_UNIT (LENGTH_MEASURE( 1.000000000000000082E-05 ), #210, 'distance_accuracy_value', 'NONE');
#48 =( NAMED_UNIT ( * ) PLANE_ANGLE_UNIT ( ) SI_UNIT ( $, .RADIAN. ) );
#49 =( NAMED_UNIT ( * ) SI_UNIT ( $, .STERADIAN. ) SOLID_ANGLE_UNIT ( ) );
#50 = FILL_AREA_STYLE ('',( #170 ) ) ;
#51 = AXIS2_PLACEMENT_3D ( 'NONE', #175, #274, #103 ) ;
#52 = ORIENTED_EDGE ( 'NONE', *, *, #14, .T. ) ;
#53 = CARTESIAN_POINT ( 'NONE',  ( 0.000000000000000000, 0.000000000000000000, 0.000000000000000000 ) ) ;
#54 = ORIENTED_EDGE ( 'NONE', *, *, #177, .T. ) ;
#55 = MECHANICAL_DESIGN_GEOMETRIC_PRESENTATION_REPRESENTATION (  '', ( #229 ), #280 ) ;
#56 = PRODUCT_DEFINITION_CONTEXT ( 'detailed design', #158, 'design' ) ;
#57 = SHAPE_DEFINITION_REPRESENTATION ( #28, #137 ) ;
#58 = DIRECTION ( 'NONE',  ( -5.442874662877122626E-17, 1.000000000000000000, -0.000000000000000000 ) ) ;
#59 = MANIFOLD_SOLID_BREP ( 'Revolve - Cutting Edge', #209 ) ;
#60 = EDGE_CURVE ( 'NONE', #149, #10, #132, .T. ) ;
#61 = CARTESIAN_POINT ( 'NONE',  ( 0.000000000000000000, 1.750000000000000000, 0.000000000000000000 ) ) ;
#62 =( NAMED_UNIT ( * ) PLANE_ANGLE_UNIT ( ) SI_UNIT ( $, .RADIAN. ) );
#63 = LENGTH_MEASURE_WITH_UNIT ( LENGTH_MEASURE( 0.02539999999999999897 ), #1 );
#64 = EDGE_CURVE ( 'NONE', #249, #125, #19, .T. ) ;
#65 = DIRECTION ( 'NONE',  ( -5.442874662877122626E-17, 1.000000000000000000, -0.000000000000000000 ) ) ;
#66 = CIRCLE ( 'NONE', #224, 0.1250000000000001110 ) ;
#67 = CARTESIAN_POINT ( 'NONE',  ( 1.530808498934191509E-17, 0.000000000000000000, 0.1250000000000000000 ) ) ;
#68 = EDGE_LOOP ( 'NONE', ( #101, #123, #35, #195 ) ) ;
#69 = FILL_AREA_STYLE_COLOUR ( '', #165 ) ;
#70 = EDGE_LOOP ( 'NONE', ( #152, #33, #273, #90 ) ) ;
#71 = CIRCLE ( 'NONE', #256, 0.1250000000000000000 ) ;
#72 = EDGE_LOOP ( 'NONE', ( #76, #36, #144, #241 ) ) ;
#73 =( CONVERSION_BASED_UNIT ( 'INCH', #240 ) LENGTH_UNIT ( ) NAMED_UNIT ( #140 ) );
#74 =( LENGTH_UNIT ( ) NAMED_UNIT ( * ) SI_UNIT ( $, .METRE. ) );
#75 = DIRECTION ( 'NONE',  ( -1.000000000000000000, -5.442874662877122010E-17, 0.000000000000000000 ) ) ;
#76 = ORIENTED_EDGE ( 'NONE', *, *, #163, .T. ) ;
#77 = CARTESIAN_POINT ( 'NONE',  ( 0.000000000000000000, 0.000000000000000000, 0.000000000000000000 ) ) ;
#78 = FACE_OUTER_BOUND ( 'NONE', #68, .T. ) ;
#79 = APPLICATION_PROTOCOL_DEFINITION ( 'draft international standard', 'automotive_design', 1998, #158 ) ;
#80 = APPLICATION_CONTEXT ( 'automotive_design' ) ;
#81 = CIRCLE ( 'NONE', #117, 0.1250000000000000000 ) ;
#82 = DIRECTION ( 'NONE',  ( -0.000000000000000000, -1.000000000000000000, -0.000000000000000000 ) ) ;
#83 = DIRECTION ( 'NONE',  ( -1.000000000000000000, 0.000000000000000000, 0.000000000000000000 ) ) ;
#84 = COLOUR_RGB ( '',1.000000000000000000, 0.000000000000000000, 0.000000000000000000 ) ;
#85 = CYLINDRICAL_SURFACE ( 'NONE', #199, 0.1250000000000000000 ) ;
#86 = DIMENSIONAL_EXPONENTS ( 1.000000000000000000, 0.000000000000000000, 0.000000000000000000, 0.000000000000000000, 0.000000000000000000, 0.000000000000000000, 0.000000000000000000 ) ;
#87 = EDGE_CURVE ( 'NONE', #10, #149, #91, .T. ) ;
#88 = CARTESIAN_POINT ( 'NONE',  ( 1.530808498934191509E-17, 0.000000000000000000, 0.1250000000000000000 ) ) ;
#89 = PRESENTATION_STYLE_ASSIGNMENT (( #43 ) ) ;
#90 = ORIENTED_EDGE ( 'NONE', *, *, #14, .F. ) ;
#91 = CIRCLE ( 'NONE', #208, 0.1250000000000000000 ) ;
#92 = PRESENTATION_STYLE_ASSIGNMENT (( #218 ) ) ;
#93 = AXIS2_PLACEMENT_3D ( 'NONE', #254, #58, #203 ) ;
#94 = ORIENTED_EDGE ( 'NONE', *, *, #39, .F. ) ;
#95 = STYLED_ITEM ( 'NONE', ( #286 ), #161 ) ;
#96 = FILL_AREA_STYLE_COLOUR ( '', #130 ) ;
#97 = ORIENTED_EDGE ( 'NONE', *, *, #87, .T. ) ;
#98 = AXIS2_PLACEMENT_3D ( 'NONE', #271, #100, #297 ) ;
#99 = AXIS2_PLACEMENT_3D ( 'NONE', #53, #122, #197 ) ;
#100 = DIRECTION ( 'NONE',  ( -5.442874662877122626E-17, 1.000000000000000000, -0.000000000000000000 ) ) ;
#101 = ORIENTED_EDGE ( 'NONE', *, *, #308, .F. ) ;
#102 = ADVANCED_FACE ( 'NONE', ( #78 ), #21, .T. ) ;
#103 = DIRECTION ( 'NONE',  ( 1.000000000000000000, 5.442874662877122010E-17, 0.000000000000000000 ) ) ;
#104 = EDGE_LOOP ( 'NONE', ( #216, #54 ) ) ;
#105 = DIRECTION ( 'NONE',  ( 0.000000000000000000, 0.000000000000000000, -1.000000000000000000 ) ) ;
#106 = COLOUR_RGB ( '',0.7921568627450980005, 0.8196078431372548767, 0.9333333333333333481 ) ;
#107 =( CONVERSION_BASED_UNIT ( 'INCH', #259 ) LENGTH_UNIT ( ) NAMED_UNIT ( #26 ) );
#108 = PRESENTATION_STYLE_ASSIGNMENT (( #257 ) ) ;
#109 = DIRECTION ( 'NONE',  ( 1.000000000000000000, 0.000000000000000000, 0.000000000000000000 ) ) ;
#110 =( GEOMETRIC_REPRESENTATION_CONTEXT ( 3 ) GLOBAL_UNCERTAINTY_ASSIGNED_CONTEXT ( ( #264 ) ) GLOBAL_UNIT_ASSIGNED_CONTEXT ( ( #154, #304, #252 ) ) REPRESENTATION_CONTEXT ( 'NONE', 'WORKASPACE' ) );
#111 = DIRECTION ( 'NONE',  ( 0.000000000000000000, 0.000000000000000000, -1.000000000000000000 ) ) ;
#112 = DIMENSIONAL_EXPONENTS ( 1.000000000000000000, 0.000000000000000000, 0.000000000000000000, 0.000000000000000000, 0.000000000000000000, 0.000000000000000000, 0.000000000000000000 ) ;
#113 = DIRECTION ( 'NONE',  ( 0.000000000000000000, -0.000000000000000000, 1.000000000000000000 ) ) ;
#114 = DIMENSIONAL_EXPONENTS ( 1.000000000000000000, 0.000000000000000000, 0.000000000000000000, 0.000000000000000000, 0.000000000000000000, 0.000000000000000000, 0.000000000000000000 ) ;
#115 = CARTESIAN_POINT ( 'NONE',  ( -0.1250000000000002498, 4.000000000000000000, 0.000000000000000000 ) ) ;
#116 = EDGE_LOOP ( 'NONE', ( #97, #219 ) ) ;
#117 = AXIS2_PLACEMENT_3D ( 'NONE', #138, #233, #46 ) ;
#118 = FILL_AREA_STYLE ('',( #69 ) ) ;
#119 = UNCERTAINTY_MEASURE_WITH_UNIT (LENGTH_MEASURE( 1.000000000000000082E-05 ), #139, 'distance_accuracy_value', 'NONE');
#120 = SURFACE_STYLE_FILL_AREA ( #50 ) ;
#121 = CIRCLE ( 'NONE', #93, 0.1250000000000000000 ) ;
#122 = DIRECTION ( 'NONE',  ( -0.000000000000000000, -1.000000000000000000, -0.000000000000000000 ) ) ;
#123 = ORIENTED_EDGE ( 'NONE', *, *, #306, .T. ) ;
#124 = PRODUCT_RELATED_PRODUCT_CATEGORY ( 'part', '', ( #196 ) ) ;
#125 = VERTEX_POINT ( 'NONE', #131 ) ;
#126 = AXIS2_PLACEMENT_3D ( 'NONE', #291, #269, #75 ) ;
#127 = VERTEX_POINT ( 'NONE', #206 ) ;
#128 = DIRECTION ( 'NONE',  ( -0.000000000000000000, -1.000000000000000000, -0.000000000000000000 ) ) ;
#129 = CARTESIAN_POINT ( 'NONE',  ( 0.1249999999999999445, 4.000000000000000000, 1.530808498934192125E-17 ) ) ;
#130 = COLOUR_RGB ( '',1.000000000000000000, 0.000000000000000000, 0.000000000000000000 ) ;
#131 = CARTESIAN_POINT ( 'NONE',  ( 1.530808498934191509E-17, 1.750000000000000000, 0.1250000000000000000 ) ) ;
#132 = CIRCLE ( 'NONE', #287, 0.1250000000000000000 ) ;
#133 = CARTESIAN_POINT ( 'NONE',  ( 0.000000000000000000, 0.000000000000000000, 0.000000000000000000 ) ) ;
#134 = CARTESIAN_POINT ( 'NONE',  ( 0.1250000000000000000, 4.000000000000000000, 1.530808498934192742E-17 ) ) ;
#135 = SURFACE_STYLE_USAGE ( .BOTH. , #237 ) ;
#136 = CARTESIAN_POINT ( 'NONE',  ( -0.1250000000000001943, 4.000000000000000000, 0.000000000000000000 ) ) ;
#137 = ADVANCED_BREP_SHAPE_REPRESENTATION ( '00212', ( #59, #161, #253 ), #150 ) ;
#138 = CARTESIAN_POINT ( 'NONE',  ( 0.000000000000000000, 1.750000000000000000, 0.000000000000000000 ) ) ;
#139 =( CONVERSION_BASED_UNIT ( 'INCH', #63 ) LENGTH_UNIT ( ) NAMED_UNIT ( #114 ) );
#140 = DIMENSIONAL_EXPONENTS ( 1.000000000000000000, 0.000000000000000000, 0.000000000000000000, 0.000000000000000000, 0.000000000000000000, 0.000000000000000000, 0.000000000000000000 ) ;
#141 =( NAMED_UNIT ( * ) SI_UNIT ( $, .STERADIAN. ) SOLID_ANGLE_UNIT ( ) );
#142 = VERTEX_POINT ( 'NONE', #134 ) ;
#143 = SURFACE_SIDE_STYLE ('',( #245 ) ) ;
#144 = ORIENTED_EDGE ( 'NONE', *, *, #235, .F. ) ;
#145 = MECHANICAL_DESIGN_GEOMETRIC_PRESENTATION_REPRESENTATION (  '', ( #22 ), #110 ) ;
#146 =( GEOMETRIC_REPRESENTATION_CONTEXT ( 3 ) GLOBAL_UNCERTAINTY_ASSIGNED_CONTEXT ( ( #119 ) ) GLOBAL_UNIT_ASSIGNED_CONTEXT ( ( #139, #62, #164 ) ) REPRESENTATION_CONTEXT ( 'NONE', 'WORKASPACE' ) );
#147 =( NAMED_UNIT ( * ) PLANE_ANGLE_UNIT ( ) SI_UNIT ( $, .RADIAN. ) );
#148 = ADVANCED_FACE ( 'NONE', ( #157 ), #226, .T. ) ;
#149 = VERTEX_POINT ( 'NONE', #88 ) ;
#150 =( GEOMETRIC_REPRESENTATION_CONTEXT ( 3 ) GLOBAL_UNCERTAINTY_ASSIGNED_CONTEXT ( ( #15 ) ) GLOBAL_UNIT_ASSIGNED_CONTEXT ( ( #258, #302, #18 ) ) REPRESENTATION_CONTEXT ( 'NONE', 'WORKASPACE' ) );
#151 = FACE_OUTER_BOUND ( 'NONE', #70, .T. ) ;
#152 = ORIENTED_EDGE ( 'NONE', *, *, #64, .T. ) ;
#153 = PRESENTATION_LAYER_ASSIGNMENT (  '', '', ( #290 ) ) ;
#154 =( CONVERSION_BASED_UNIT ( 'INCH', #180 ) LENGTH_UNIT ( ) NAMED_UNIT ( #112 ) );
#155 =( LENGTH_UNIT ( ) NAMED_UNIT ( * ) SI_UNIT ( $, .METRE. ) );
#156 = EDGE_CURVE ( 'NONE', #201, #270, #288, .T. ) ;
#157 = FACE_OUTER_BOUND ( 'NONE', #72, .T. ) ;
#158 = APPLICATION_CONTEXT ( 'automotive_design' ) ;
#159 =( GEOMETRIC_REPRESENTATION_CONTEXT ( 3 ) GLOBAL_UNCERTAINTY_ASSIGNED_CONTEXT ( ( #47 ) ) GLOBAL_UNIT_ASSIGNED_CONTEXT ( ( #210, #232, #212 ) ) REPRESENTATION_CONTEXT ( 'NONE', 'WORKASPACE' ) );
#160 = DIRECTION ( 'NONE',  ( -0.000000000000000000, -1.000000000000000000, -0.000000000000000000 ) ) ;
#161 = MANIFOLD_SOLID_BREP ( 'Revolve - Tool Body (Straight Shanked)', #263 ) ;
#162 = DIRECTION ( 'NONE',  ( 0.000000000000000000, 0.000000000000000000, -1.000000000000000000 ) ) ;
#163 = EDGE_CURVE ( 'NONE', #201, #127, #81, .T. ) ;
#164 =( NAMED_UNIT ( * ) SI_UNIT ( $, .STERADIAN. ) SOLID_ANGLE_UNIT ( ) );
#165 = COLOUR_RGB ( '',1.000000000000000000, 0.000000000000000000, 0.000000000000000000 ) ;
#166 = DIRECTION ( 'NONE',  ( -5.442874662877122626E-17, 1.000000000000000000, -0.000000000000000000 ) ) ;
#167 = CYLINDRICAL_SURFACE ( 'NONE', #99, 0.1250000000000000000 ) ;
#168 = SURFACE_STYLE_USAGE ( .BOTH. , #143 ) ;
#169 = ORIENTED_EDGE ( 'NONE', *, *, #163, .F. ) ;
#170 = FILL_AREA_STYLE_COLOUR ( '', #293 ) ;
#171 = MECHANICAL_DESIGN_GEOMETRIC_PRESENTATION_REPRESENTATION (  '', ( #3 ), #255 ) ;
#172 = LINE ( 'NONE', #67, #281 ) ;
#173 = DIRECTION ( 'NONE',  ( 0.000000000000000000, 0.000000000000000000, -1.000000000000000000 ) ) ;
#174 = EDGE_LOOP ( 'NONE', ( #275, #94 ) ) ;
#175 = CARTESIAN_POINT ( 'NONE',  ( 0.1250000000000000000, 4.000000000000000000, 0.000000000000000000 ) ) ;
#176 = ORIENTED_EDGE ( 'NONE', *, *, #213, .F. ) ;
#177 = EDGE_CURVE ( 'NONE', #142, #270, #66, .T. ) ;
#178 = DIRECTION ( 'NONE',  ( 0.000000000000000000, 0.000000000000000000, 1.000000000000000000 ) ) ;
#179 = CARTESIAN_POINT ( 'NONE',  ( -1.224646799147352714E-16, 4.000000000000000000, 0.000000000000000000 ) ) ;
#180 = LENGTH_MEASURE_WITH_UNIT ( LENGTH_MEASURE( 0.02539999999999999897 ), #204 );
#181 = AXIS2_PLACEMENT_3D ( 'NONE', #20, #65, #83 ) ;
#182 = ADVANCED_FACE ( 'NONE', ( #214 ), #260, .T. ) ;
#183 = DIRECTION ( 'NONE',  ( -5.442874662877122626E-17, 1.000000000000000000, -0.000000000000000000 ) ) ;
#184 =( GEOMETRIC_REPRESENTATION_CONTEXT ( 3 ) GLOBAL_UNCERTAINTY_ASSIGNED_CONTEXT ( ( #243 ) ) GLOBAL_UNIT_ASSIGNED_CONTEXT ( ( #267, #48, #141 ) ) REPRESENTATION_CONTEXT ( 'NONE', 'WORKASPACE' ) );
#185 = FILL_AREA_STYLE ('',( #301 ) ) ;
#186 = LINE ( 'NONE', #202, #190 ) ;
#187 = COLOUR_RGB ( '',0.7921568627450980005, 0.8196078431372548767, 0.9333333333333333481 ) ;
#188 = PRODUCT_DEFINITION_FORMATION_WITH_SPECIFIED_SOURCE ( 'ANY', '', #196, .NOT_KNOWN. ) ;
#189 = SURFACE_STYLE_FILL_AREA ( #191 ) ;
#190 = VECTOR ( 'NONE', #282, 39.37007874015748143 ) ;
#191 = FILL_AREA_STYLE ('',( #23 ) ) ;
#192 = MECHANICAL_DESIGN_GEOMETRIC_PRESENTATION_REPRESENTATION (  '', ( #290 ), #159 ) ;
#193 = DIRECTION ( 'NONE',  ( -0.000000000000000000, -1.000000000000000000, -0.000000000000000000 ) ) ;
#194 = CARTESIAN_POINT ( 'NONE',  ( 0.000000000000000000, 1.750000000000000000, -0.1250000000000000000 ) ) ;
#195 = ORIENTED_EDGE ( 'NONE', *, *, #177, .F. ) ;
#196 = PRODUCT ( '00212', '00212', '', ( #279 ) ) ;
#197 = DIRECTION ( 'NONE',  ( 0.000000000000000000, 0.000000000000000000, -1.000000000000000000 ) ) ;
#198 = EDGE_LOOP ( 'NONE', ( #176, #16, #52, #13 ) ) ;
#199 = AXIS2_PLACEMENT_3D ( 'NONE', #11, #193, #173 ) ;
#200 = PLANE ( 'NONE',  #51 ) ;
#201 = VERTEX_POINT ( 'NONE', #5 ) ;
#202 = CARTESIAN_POINT ( 'NONE',  ( 0.000000000000000000, 0.000000000000000000, -0.1250000000000000000 ) ) ;
#203 = DIRECTION ( 'NONE',  ( -1.000000000000000000, 0.000000000000000000, 0.000000000000000000 ) ) ;
#204 =( LENGTH_UNIT ( ) NAMED_UNIT ( * ) SI_UNIT ( $, .METRE. ) );
#205 = ADVANCED_FACE ( 'NONE', ( #7 ), #85, .T. ) ;
#206 = CARTESIAN_POINT ( 'NONE',  ( 0.1250000000000000000, 1.750000000000000000, 1.530808498934192742E-17 ) ) ;
#207 = CARTESIAN_POINT ( 'NONE',  ( 0.000000000000000000, 0.000000000000000000, -0.1250000000000000000 ) ) ;
#208 = AXIS2_PLACEMENT_3D ( 'NONE', #222, #160, #105 ) ;
#209 = CLOSED_SHELL ( 'NONE', ( #250, #182, #205, #2 ) ) ;
#210 =( CONVERSION_BASED_UNIT ( 'INCH', #283 ) LENGTH_UNIT ( ) NAMED_UNIT ( #86 ) );
#211 =( LENGTH_UNIT ( ) NAMED_UNIT ( * ) SI_UNIT ( $, .METRE. ) );
#212 =( NAMED_UNIT ( * ) SI_UNIT ( $, .STERADIAN. ) SOLID_ANGLE_UNIT ( ) );
#213 = EDGE_CURVE ( 'NONE', #125, #149, #172, .T. ) ;
#214 = FACE_OUTER_BOUND ( 'NONE', #174, .T. ) ;
#215 = FACE_OUTER_BOUND ( 'NONE', #247, .T. ) ;
#216 = ORIENTED_EDGE ( 'NONE', *, *, #235, .T. ) ;
#217 = SURFACE_SIDE_STYLE ('',( #242 ) ) ;
#218 = SURFACE_STYLE_USAGE ( .BOTH. , #217 ) ;
#219 = ORIENTED_EDGE ( 'NONE', *, *, #60, .T. ) ;
#220 = FILL_AREA_STYLE ('',( #96 ) ) ;
#221 = LENGTH_MEASURE_WITH_UNIT ( LENGTH_MEASURE( 0.02539999999999999897 ), #12 );
#222 = CARTESIAN_POINT ( 'NONE',  ( 0.000000000000000000, 0.000000000000000000, 0.000000000000000000 ) ) ;
#223 = CARTESIAN_POINT ( 'NONE',  ( 0.000000000000000000, 1.750000000000000000, 0.000000000000000000 ) ) ;
#224 = AXIS2_PLACEMENT_3D ( 'NONE', #41, #166, #236 ) ;
#225 = AXIS2_PLACEMENT_3D ( 'NONE', #278, #40, #111 ) ;
#226 = CYLINDRICAL_SURFACE ( 'NONE', #181, 0.1250000000000000555 ) ;
#227 = DIRECTION ( 'NONE',  ( 0.000000000000000000, 0.000000000000000000, -1.000000000000000000 ) ) ;
#228 = DIRECTION ( 'NONE',  ( -5.442874662877122010E-17, 1.000000000000000000, -0.000000000000000000 ) ) ;
#229 = STYLED_ITEM ( 'NONE', ( #295 ), #2 ) ;
#230 =( NAMED_UNIT ( * ) PLANE_ANGLE_UNIT ( ) SI_UNIT ( $, .RADIAN. ) );
#231 = STYLED_ITEM ( 'NONE', ( #92 ), #250 ) ;
#232 =( NAMED_UNIT ( * ) PLANE_ANGLE_UNIT ( ) SI_UNIT ( $, .RADIAN. ) );
#233 = DIRECTION ( 'NONE',  ( -5.442874662877122626E-17, 1.000000000000000000, -0.000000000000000000 ) ) ;
#234 = DIRECTION ( 'NONE',  ( 0.000000000000000000, 1.000000000000000000, 0.000000000000000000 ) ) ;
#235 = EDGE_CURVE ( 'NONE', #270, #142, #27, .T. ) ;
#236 = DIRECTION ( 'NONE',  ( -1.000000000000000000, 0.000000000000000000, 0.000000000000000000 ) ) ;
#237 = SURFACE_SIDE_STYLE ('',( #189 ) ) ;
#238 = UNCERTAINTY_MEASURE_WITH_UNIT (LENGTH_MEASURE( 1.000000000000000082E-05 ), #73, 'distance_accuracy_value', 'NONE');
#239 = AXIS2_PLACEMENT_3D ( 'NONE', #179, #183, #38 ) ;
#240 = LENGTH_MEASURE_WITH_UNIT ( LENGTH_MEASURE( 0.02539999999999999897 ), #248 );
#241 = ORIENTED_EDGE ( 'NONE', *, *, #156, .F. ) ;
#242 = SURFACE_STYLE_FILL_AREA ( #118 ) ;
#243 = UNCERTAINTY_MEASURE_WITH_UNIT (LENGTH_MEASURE( 1.000000000000000082E-05 ), #267, 'distance_accuracy_value', 'NONE');
#244 = SURFACE_STYLE_USAGE ( .BOTH. , #298 ) ;
#245 = SURFACE_STYLE_FILL_AREA ( #220 ) ;
#246 = ORIENTED_EDGE ( 'NONE', *, *, #306, .F. ) ;
#247 = EDGE_LOOP ( 'NONE', ( #169, #246 ) ) ;
#248 =( LENGTH_UNIT ( ) NAMED_UNIT ( * ) SI_UNIT ( $, .METRE. ) );
#249 = VERTEX_POINT ( 'NONE', #194 ) ;
#250 = ADVANCED_FACE ( 'NONE', ( #151 ), #167, .T. ) ;
#251 = DIRECTION ( 'NONE',  ( 0.000000000000000000, 0.000000000000000000, -1.000000000000000000 ) ) ;
#252 =( NAMED_UNIT ( * ) SI_UNIT ( $, .STERADIAN. ) SOLID_ANGLE_UNIT ( ) );
#253 = AXIS2_PLACEMENT_3D ( 'NONE', #77, #178, #109 ) ;
#254 = CARTESIAN_POINT ( 'NONE',  ( 0.000000000000000000, 1.750000000000000000, 0.000000000000000000 ) ) ;
#255 =( GEOMETRIC_REPRESENTATION_CONTEXT ( 3 ) GLOBAL_UNCERTAINTY_ASSIGNED_CONTEXT ( ( #238 ) ) GLOBAL_UNIT_ASSIGNED_CONTEXT ( ( #73, #147, #49 ) ) REPRESENTATION_CONTEXT ( 'NONE', 'WORKASPACE' ) );
#256 = AXIS2_PLACEMENT_3D ( 'NONE', #223, #82, #251 ) ;
#257 = SURFACE_STYLE_USAGE ( .BOTH. , #307 ) ;
#258 =( CONVERSION_BASED_UNIT ( 'INCH', #17 ) LENGTH_UNIT ( ) NAMED_UNIT ( #4 ) );
#259 = LENGTH_MEASURE_WITH_UNIT ( LENGTH_MEASURE( 0.02539999999999999897 ), #74 );
#260 = PLANE ( 'NONE',  #268 ) ;
#261 = SURFACE_SIDE_STYLE ('',( #29 ) ) ;
#262 = PRESENTATION_LAYER_ASSIGNMENT (  '', '', ( #95 ) ) ;
#263 = CLOSED_SHELL ( 'NONE', ( #148, #272, #102, #296 ) ) ;
#264 = UNCERTAINTY_MEASURE_WITH_UNIT (LENGTH_MEASURE( 1.000000000000000082E-05 ), #154, 'distance_accuracy_value', 'NONE');
#265 = DIRECTION ( 'NONE',  ( -0.000000000000000000, -1.000000000000000000, -0.000000000000000000 ) ) ;
#266 = PLANE ( 'NONE',  #225 ) ;
#267 =( CONVERSION_BASED_UNIT ( 'INCH', #221 ) LENGTH_UNIT ( ) NAMED_UNIT ( #44 ) );
#268 = AXIS2_PLACEMENT_3D ( 'NONE', #45, #234, #113 ) ;
#269 = DIRECTION ( 'NONE',  ( -5.442874662877122010E-17, 1.000000000000000000, 0.000000000000000000 ) ) ;
#270 = VERTEX_POINT ( 'NONE', #115 ) ;
#271 = CARTESIAN_POINT ( 'NONE',  ( -1.224646799147352714E-16, 4.000000000000000000, 0.000000000000000000 ) ) ;
#272 = ADVANCED_FACE ( 'NONE', ( #215 ), #9, .F. ) ;
#273 = ORIENTED_EDGE ( 'NONE', *, *, #87, .F. ) ;
#274 = DIRECTION ( 'NONE',  ( 5.442874662877122010E-17, -1.000000000000000000, 0.000000000000000000 ) ) ;
#275 = ORIENTED_EDGE ( 'NONE', *, *, #64, .F. ) ;
#276 = PRESENTATION_LAYER_ASSIGNMENT (  '', '', ( #231 ) ) ;
#277 = PRODUCT_DEFINITION ( 'UNKNOWN', '', #188, #56 ) ;
#278 = CARTESIAN_POINT ( 'NONE',  ( 0.000000000000000000, 0.000000000000000000, 0.000000000000000000 ) ) ;
#279 = PRODUCT_CONTEXT ( 'NONE', #80, 'mechanical' ) ;
#280 =( GEOMETRIC_REPRESENTATION_CONTEXT ( 3 ) GLOBAL_UNCERTAINTY_ASSIGNED_CONTEXT ( ( #289 ) ) GLOBAL_UNIT_ASSIGNED_CONTEXT ( ( #107, #230, #309 ) ) REPRESENTATION_CONTEXT ( 'NONE', 'WORKASPACE' ) );
#281 = VECTOR ( 'NONE', #265, 39.37007874015748143 ) ;
#282 = DIRECTION ( 'NONE',  ( -0.000000000000000000, -1.000000000000000000, -0.000000000000000000 ) ) ;
#283 = LENGTH_MEASURE_WITH_UNIT ( LENGTH_MEASURE( 0.02539999999999999897 ), #211 );
#284 = VECTOR ( 'NONE', #25, 39.37007874015748143 ) ;
#285 = PRESENTATION_LAYER_ASSIGNMENT (  '', '', ( #22 ) ) ;
#286 = PRESENTATION_STYLE_ASSIGNMENT (( #135 ) ) ;
#287 = AXIS2_PLACEMENT_3D ( 'NONE', #133, #37, #227 ) ;
#288 = LINE ( 'NONE', #136, #284 ) ;
#289 = UNCERTAINTY_MEASURE_WITH_UNIT (LENGTH_MEASURE( 1.000000000000000082E-05 ), #107, 'distance_accuracy_value', 'NONE');
#290 = STYLED_ITEM ( 'NONE', ( #89 ), #182 ) ;
#291 = CARTESIAN_POINT ( 'NONE',  ( 1.851555287236859431E-34, 1.750000000000000000, 0.000000000000000000 ) ) ;
#292 = FACE_OUTER_BOUND ( 'NONE', #116, .T. ) ;
#293 = COLOUR_RGB ( '',1.000000000000000000, 0.000000000000000000, 0.000000000000000000 ) ;
#294 = PRESENTATION_LAYER_ASSIGNMENT (  '', '', ( #3 ) ) ;
#295 = PRESENTATION_STYLE_ASSIGNMENT (( #244 ) ) ;
#296 = ADVANCED_FACE ( 'NONE', ( #299 ), #200, .F. ) ;
#297 = DIRECTION ( 'NONE',  ( -1.000000000000000000, 0.000000000000000000, 0.000000000000000000 ) ) ;
#298 = SURFACE_SIDE_STYLE ('',( #120 ) ) ;
#299 = FACE_OUTER_BOUND ( 'NONE', #104, .T. ) ;
#300 = LINE ( 'NONE', #129, #24 ) ;
#301 = FILL_AREA_STYLE_COLOUR ( '', #106 ) ;
#302 =( NAMED_UNIT ( * ) PLANE_ANGLE_UNIT ( ) SI_UNIT ( $, .RADIAN. ) );
#303 = SURFACE_STYLE_FILL_AREA ( #185 ) ;
#304 =( NAMED_UNIT ( * ) PLANE_ANGLE_UNIT ( ) SI_UNIT ( $, .RADIAN. ) );
#305 = APPLICATION_PROTOCOL_DEFINITION ( 'draft international standard', 'automotive_design', 1998, #80 ) ;
#306 = EDGE_CURVE ( 'NONE', #127, #201, #121, .T. ) ;
#307 = SURFACE_SIDE_STYLE ('',( #303 ) ) ;
#308 = EDGE_CURVE ( 'NONE', #127, #142, #300, .T. ) ;
#309 =( NAMED_UNIT ( * ) SI_UNIT ( $, .STERADIAN. ) SOLID_ANGLE_UNIT ( ) );
ENDSEC;
END-ISO-10303-21;
