ISO-10303-21;
HEADER;
FILE_DESCRIPTION (( 'STEP AP214' ),
    '1' );
FILE_NAME ('Micro_SEM-250-03X.STEP',
    '2021-09-02T02:33:27',
    ( '' ),
    ( '' ),
    'SwSTEP 2.0',
    'SolidWorks 2020',
    '' );
FILE_SCHEMA (( 'AUTOMOTIVE_DESIGN' ));
ENDSEC;

DATA;
#1 = LENGTH_MEASURE_WITH_UNIT ( LENGTH_MEASURE( 0.02539999999999999897 ), #159 );
#2 = AXIS2_PLACEMENT_3D ( 'NONE', #130, #15, #219 ) ;
#3 = LENGTH_MEASURE_WITH_UNIT ( LENGTH_MEASURE( 0.02539999999999999897 ), #22 );
#4 = VERTEX_POINT ( 'NONE', #104 ) ;
#5 = APPLICATION_PROTOCOL_DEFINITION ( 'draft international standard', 'automotive_design', 1998, #77 ) ;
#6 = PRODUCT_DEFINITION_CONTEXT ( 'detailed design', #89, 'design' ) ;
#7 = CIRCLE ( 'NONE', #170, 0.1250000000000000000 ) ;
#8 = FACE_OUTER_BOUND ( 'NONE', #201, .T. ) ;
#9 = DIRECTION ( 'NONE',  ( -1.224646799147353207E-16, -0.0000000000000000000, -1.000000000000000000 ) ) ;
#10 = ORIENTED_EDGE ( 'NONE', *, *, #220, .F. ) ;
#11 = CARTESIAN_POINT ( 'NONE',  ( 0.0000000000000000000, 0.0000000000000000000, 2.000000000000000000 ) ) ;
#12 = CIRCLE ( 'NONE', #81, 0.1099999999999996397 ) ;
#13 = CIRCLE ( 'NONE', #36, 0.1099999999999996397 ) ;
#14 = DIRECTION ( 'NONE',  ( -1.000000000000000000, 0.0000000000000000000, 0.0000000000000000000 ) ) ;
#15 = DIRECTION ( 'NONE',  ( -0.0000000000000000000, -0.0000000000000000000, -1.000000000000000000 ) ) ;
#16 = DIRECTION ( 'NONE',  ( -1.224646799147353207E-16, -0.0000000000000000000, -1.000000000000000000 ) ) ;
#17 = EDGE_CURVE ( 'NONE', #4, #123, #12, .T. ) ;
#18 = CARTESIAN_POINT ( 'NONE',  ( 0.1248750000000000693, 0.0000000000000000000, 0.5000000000000000000 ) ) ;
#19 = LINE ( 'NONE', #114, #54 ) ;
#20 = ORIENTED_EDGE ( 'NONE', *, *, #247, .T. ) ;
#21 = VERTEX_POINT ( 'NONE', #208 ) ;
#22 =( LENGTH_UNIT ( ) NAMED_UNIT ( * ) SI_UNIT ( $, .METRE. ) );
#23 = SURFACE_STYLE_FILL_AREA ( #69 ) ;
#24 = EDGE_CURVE ( 'NONE', #21, #235, #32, .T. ) ;
#25 = VECTOR ( 'NONE', #177, 39.37007874015748143 ) ;
#26 = LINE ( 'NONE', #199, #25 ) ;
#27 = ADVANCED_FACE ( 'NONE', ( #142 ), #103, .T. ) ;
#28 = ORIENTED_EDGE ( 'NONE', *, *, #24, .T. ) ;
#29 = ORIENTED_EDGE ( 'NONE', *, *, #24, .F. ) ;
#30 = VECTOR ( 'NONE', #190, 39.37007874015748143 ) ;
#31 = UNCERTAINTY_MEASURE_WITH_UNIT (LENGTH_MEASURE( 1.000000000000000082E-05 ), #64, 'distance_accuracy_value', 'NONE');
#32 = LINE ( 'NONE', #53, #30 ) ;
#33 = LINE ( 'NONE', #78, #72 ) ;
#34 = CARTESIAN_POINT ( 'NONE',  ( 0.1250000000000000555, 1.530808498934192125E-17, 0.5007089102274522308 ) ) ;
#35 = ORIENTED_EDGE ( 'NONE', *, *, #291, .T. ) ;
#36 = AXIS2_PLACEMENT_3D ( 'NONE', #279, #106, #284 ) ;
#37 = CYLINDRICAL_SURFACE ( 'NONE', #243, 0.1248749999999999999 ) ;
#38 = CARTESIAN_POINT ( 'NONE',  ( 0.0000000000000000000, 0.0000000000000000000, 0.0000000000000000000 ) ) ;
#39 = LINE ( 'NONE', #85, #121 ) ;
#40 = CIRCLE ( 'NONE', #120, 0.1250000000000000000 ) ;
#41 =( NAMED_UNIT ( * ) SI_UNIT ( $, .STERADIAN. ) SOLID_ANGLE_UNIT ( ) );
#42 = EDGE_LOOP ( 'NONE', ( #256, #71 ) ) ;
#43 = CARTESIAN_POINT ( 'NONE',  ( 0.1250000000000000000, 1.530808498934191509E-17, 1.984999999999999432 ) ) ;
#44 = CIRCLE ( 'NONE', #233, 0.1250000000000000000 ) ;
#45 = DIRECTION ( 'NONE',  ( 1.224646799147353207E-16, 0.0000000000000000000, 1.000000000000000000 ) ) ;
#46 = CONICAL_SURFACE ( 'NONE', #251, 0.1248749999999999999, 0.1745329251994339192 ) ;
#47 = PRODUCT_CONTEXT ( 'NONE', #77, 'mechanical' ) ;
#48 = EDGE_CURVE ( 'NONE', #94, #214, #44, .T. ) ;
#49 = CIRCLE ( 'NONE', #268, 0.1248749999999999999 ) ;
#50 =( CONVERSION_BASED_UNIT ( 'INCH', #1 ) LENGTH_UNIT ( ) NAMED_UNIT ( #272 ) );
#51 = PRODUCT_DEFINITION_SHAPE ( 'NONE', 'NONE',  #207 ) ;
#52 = DIRECTION ( 'NONE',  ( -1.224646799147353207E-16, -0.0000000000000000000, -1.000000000000000000 ) ) ;
#53 = CARTESIAN_POINT ( 'NONE',  ( -0.1248749999999999999, 0.0000000000000000000, 1.529277690435257475E-17 ) ) ;
#54 = VECTOR ( 'NONE', #196, 39.37007874015748143 ) ;
#55 = ORIENTED_EDGE ( 'NONE', *, *, #139, .T. ) ;
#56 = ADVANCED_FACE ( 'NONE', ( #259 ), #83, .F. ) ;
#57 = ORIENTED_EDGE ( 'NONE', *, *, #289, .F. ) ;
#58 = CARTESIAN_POINT ( 'NONE',  ( 0.1248750000000000693, 0.0000000000000000000, 0.5000000000000000000 ) ) ;
#59 = DIRECTION ( 'NONE',  ( -1.000000000000000000, 0.0000000000000000000, 1.224646799147353454E-16 ) ) ;
#60 = ORIENTED_EDGE ( 'NONE', *, *, #48, .T. ) ;
#61 = CONICAL_SURFACE ( 'NONE', #262, 0.1099999999999996397, 0.7853981633974426169 ) ;
#62 = LINE ( 'NONE', #195, #155 ) ;
#63 = EDGE_CURVE ( 'NONE', #175, #133, #40, .T. ) ;
#64 =( CONVERSION_BASED_UNIT ( 'INCH', #65 ) LENGTH_UNIT ( ) NAMED_UNIT ( #116 ) );
#65 = LENGTH_MEASURE_WITH_UNIT ( LENGTH_MEASURE( 0.02539999999999999897 ), #241 );
#66 = FACE_OUTER_BOUND ( 'NONE', #213, .T. ) ;
#67 = FACE_OUTER_BOUND ( 'NONE', #146, .T. ) ;
#68 = ORIENTED_EDGE ( 'NONE', *, *, #291, .F. ) ;
#69 = FILL_AREA_STYLE ('',( #117 ) ) ;
#70 = DIMENSIONAL_EXPONENTS ( 1.000000000000000000, 0.0000000000000000000, 0.0000000000000000000, 0.0000000000000000000, 0.0000000000000000000, 0.0000000000000000000, 0.0000000000000000000 ) ;
#71 = ORIENTED_EDGE ( 'NONE', *, *, #289, .T. ) ;
#72 = VECTOR ( 'NONE', #129, 39.37007874015748143 ) ;
#73 = CIRCLE ( 'NONE', #110, 0.1248749999999999999 ) ;
#74 = ORIENTED_EDGE ( 'NONE', *, *, #63, .F. ) ;
#75 = DIRECTION ( 'NONE',  ( 1.000000000000000000, 0.0000000000000000000, 0.0000000000000000000 ) ) ;
#76 = UNCERTAINTY_MEASURE_WITH_UNIT (LENGTH_MEASURE( 1.000000000000000082E-05 ), #254, 'distance_accuracy_value', 'NONE');
#77 = APPLICATION_CONTEXT ( 'automotive_design' ) ;
#78 = CARTESIAN_POINT ( 'NONE',  ( 0.1250000000000000000, 1.530808498934191509E-17, 2.000000000000000000 ) ) ;
#79 = CARTESIAN_POINT ( 'NONE',  ( -0.1099999999999996397, 0.0000000000000000000, 2.000000000000000000 ) ) ;
#80 = ORIENTED_EDGE ( 'NONE', *, *, #274, .F. ) ;
#81 = AXIS2_PLACEMENT_3D ( 'NONE', #100, #165, #124 ) ;
#82 = PRESENTATION_LAYER_ASSIGNMENT (  '', '', ( #95 ) ) ;
#83 = PLANE ( 'NONE',  #164 ) ;
#84 = LINE ( 'NONE', #79, #276 ) ;
#85 = CARTESIAN_POINT ( 'NONE',  ( -0.1248749999999999444, 1.529277690435257475E-17, 0.5000000000000000000 ) ) ;
#86 = ADVANCED_FACE ( 'NONE', ( #206 ), #37, .T. ) ;
#87 = CARTESIAN_POINT ( 'NONE',  ( 1.872825028598994811E-33, 0.0000000000000000000, 1.529277690435257475E-17 ) ) ;
#88 = PRESENTATION_STYLE_ASSIGNMENT (( #90 ) ) ;
#89 = APPLICATION_CONTEXT ( 'automotive_design' ) ;
#90 = SURFACE_STYLE_USAGE ( .BOTH. , #136 ) ;
#91 = VECTOR ( 'NONE', #265, 39.37007874015748143 ) ;
#92 = CARTESIAN_POINT ( 'NONE',  ( 0.0000000000000000000, 0.0000000000000000000, 1.984999999999999432 ) ) ;
#93 = ORIENTED_EDGE ( 'NONE', *, *, #274, .T. ) ;
#94 = VERTEX_POINT ( 'NONE', #167 ) ;
#95 = STYLED_ITEM ( 'NONE', ( #223 ), #113 ) ;
#96 = ORIENTED_EDGE ( 'NONE', *, *, #229, .T. ) ;
#97 = SURFACE_STYLE_USAGE ( .BOTH. , #250 ) ;
#98 = VERTEX_POINT ( 'NONE', #58 ) ;
#99 = PRODUCT_RELATED_PRODUCT_CATEGORY ( 'part', '', ( #228 ) ) ;
#100 = CARTESIAN_POINT ( 'NONE',  ( 0.0000000000000000000, 0.0000000000000000000, 2.000000000000000000 ) ) ;
#101 = AXIS2_PLACEMENT_3D ( 'NONE', #275, #140, #75 ) ;
#102 = PLANE ( 'NONE',  #152 ) ;
#103 = CYLINDRICAL_SURFACE ( 'NONE', #218, 0.1250000000000000000 ) ;
#104 = CARTESIAN_POINT ( 'NONE',  ( 0.1099999999999996397, 1.438959988998137757E-17, 2.000000000000000000 ) ) ;
#105 = EDGE_LOOP ( 'NONE', ( #60, #281, #74, #226 ) ) ;
#106 = DIRECTION ( 'NONE',  ( 0.0000000000000000000, 0.0000000000000000000, 1.000000000000000000 ) ) ;
#107 = FACE_OUTER_BOUND ( 'NONE', #183, .T. ) ;
#108 = EDGE_LOOP ( 'NONE', ( #80, #160, #122, #10 ) ) ;
#109 = DIRECTION ( 'NONE',  ( -1.000000000000000000, 0.0000000000000000000, 1.224646799147353454E-16 ) ) ;
#110 = AXIS2_PLACEMENT_3D ( 'NONE', #87, #171, #264 ) ;
#111 = DIRECTION ( 'NONE',  ( 0.0000000000000000000, 0.0000000000000000000, -1.000000000000000000 ) ) ;
#112 = ORIENTED_EDGE ( 'NONE', *, *, #216, .F. ) ;
#113 = ADVANCED_BREP_SHAPE_REPRESENTATION ( 'Micro_SEM-250-03X', ( #224, #189 ), #137 ) ;
#114 = CARTESIAN_POINT ( 'NONE',  ( 0.1099999999999996397, 1.347111479062084158E-17, 2.000000000000000000 ) ) ;
#115 = AXIS2_PLACEMENT_3D ( 'NONE', #263, #131, #169 ) ;
#116 = DIMENSIONAL_EXPONENTS ( 1.000000000000000000, 0.0000000000000000000, 0.0000000000000000000, 0.0000000000000000000, 0.0000000000000000000, 0.0000000000000000000, 0.0000000000000000000 ) ;
#117 = FILL_AREA_STYLE_COLOUR ( '', #154 ) ;
#118 = EDGE_CURVE ( 'NONE', #214, #133, #33, .T. ) ;
#119 =( NAMED_UNIT ( * ) SI_UNIT ( $, .STERADIAN. ) SOLID_ANGLE_UNIT ( ) );
#120 = AXIS2_PLACEMENT_3D ( 'NONE', #236, #239, #185 ) ;
#121 = VECTOR ( 'NONE', #244, 39.37007874015747433 ) ;
#122 = ORIENTED_EDGE ( 'NONE', *, *, #150, .T. ) ;
#123 = VERTEX_POINT ( 'NONE', #148 ) ;
#124 = DIRECTION ( 'NONE',  ( 1.000000000000000000, 0.0000000000000000000, 0.0000000000000000000 ) ) ;
#125 = CARTESIAN_POINT ( 'NONE',  ( 0.0000000000000000000, 0.0000000000000000000, 0.0000000000000000000 ) ) ;
#126 = DIRECTION ( 'NONE',  ( 1.000000000000000000, 0.0000000000000000000, 0.0000000000000000000 ) ) ;
#127 = CARTESIAN_POINT ( 'NONE',  ( 0.0000000000000000000, 0.0000000000000000000, 2.000000000000000000 ) ) ;
#128 = STYLED_ITEM ( 'NONE', ( #88 ), #224 ) ;
#129 = DIRECTION ( 'NONE',  ( -0.0000000000000000000, -0.0000000000000000000, -1.000000000000000000 ) ) ;
#130 = CARTESIAN_POINT ( 'NONE',  ( 0.0000000000000000000, 0.0000000000000000000, 2.000000000000000000 ) ) ;
#131 = DIRECTION ( 'NONE',  ( 1.224646799147353207E-16, 0.0000000000000000000, 1.000000000000000000 ) ) ;
#132 = AXIS2_PLACEMENT_3D ( 'NONE', #255, #232, #205 ) ;
#133 = VERTEX_POINT ( 'NONE', #34 ) ;
#134 = CARTESIAN_POINT ( 'NONE',  ( 0.0000000000000000000, 0.0000000000000000000, 2.000000000000000000 ) ) ;
#135 = ADVANCED_FACE ( 'NONE', ( #187 ), #158, .T. ) ;
#136 = SURFACE_SIDE_STYLE ('',( #194 ) ) ;
#137 =( GEOMETRIC_REPRESENTATION_CONTEXT ( 3 ) GLOBAL_UNCERTAINTY_ASSIGNED_CONTEXT ( ( #76 ) ) GLOBAL_UNIT_ASSIGNED_CONTEXT ( ( #254, #227, #138 ) ) REPRESENTATION_CONTEXT ( 'NONE', 'WORKASPACE' ) );
#138 =( NAMED_UNIT ( * ) SI_UNIT ( $, .STERADIAN. ) SOLID_ANGLE_UNIT ( ) );
#139 = EDGE_CURVE ( 'NONE', #123, #4, #13, .T. ) ;
#140 = DIRECTION ( 'NONE',  ( -1.224646799147353207E-16, -0.0000000000000000000, -1.000000000000000000 ) ) ;
#141 = DIRECTION ( 'NONE',  ( 1.000000000000000000, 0.0000000000000000000, 0.0000000000000000000 ) ) ;
#142 = FACE_OUTER_BOUND ( 'NONE', #105, .T. ) ;
#143 = DIRECTION ( 'NONE',  ( 0.0000000000000000000, 0.0000000000000000000, 1.000000000000000000 ) ) ;
#144 = CIRCLE ( 'NONE', #179, 0.1248749999999999999 ) ;
#145 = DIRECTION ( 'NONE',  ( 1.000000000000000000, 0.0000000000000000000, -0.0000000000000000000 ) ) ;
#146 = EDGE_LOOP ( 'NONE', ( #178, #20, #157, #29 ) ) ;
#147 = UNCERTAINTY_MEASURE_WITH_UNIT (LENGTH_MEASURE( 1.000000000000000082E-05 ), #50, 'distance_accuracy_value', 'NONE');
#148 = CARTESIAN_POINT ( 'NONE',  ( -0.1099999999999996397, 0.0000000000000000000, 2.000000000000000000 ) ) ;
#149 = EDGE_LOOP ( 'NONE', ( #285, #269, #200, #68 ) ) ;
#150 = EDGE_CURVE ( 'NONE', #123, #94, #84, .T. ) ;
#151 = CARTESIAN_POINT ( 'NONE',  ( 0.0000000000000000000, 0.0000000000000000000, 0.0000000000000000000 ) ) ;
#152 = AXIS2_PLACEMENT_3D ( 'NONE', #186, #163, #257 ) ;
#153 = DIRECTION ( 'NONE',  ( 0.0000000000000000000, 0.0000000000000000000, -1.000000000000000000 ) ) ;
#154 = COLOUR_RGB ( '',0.7921568627450980005, 0.8196078431372548767, 0.9333333333333333481 ) ;
#155 = VECTOR ( 'NONE', #294, 39.37007874015748143 ) ;
#156 = CYLINDRICAL_SURFACE ( 'NONE', #2, 0.1250000000000000000 ) ;
#157 = ORIENTED_EDGE ( 'NONE', *, *, #166, .F. ) ;
#158 = CONICAL_SURFACE ( 'NONE', #193, 0.1099999999999996397, 0.7853981633974426169 ) ;
#159 =( LENGTH_UNIT ( ) NAMED_UNIT ( * ) SI_UNIT ( $, .METRE. ) );
#160 = ORIENTED_EDGE ( 'NONE', *, *, #139, .F. ) ;
#161 = APPLICATION_PROTOCOL_DEFINITION ( 'draft international standard', 'automotive_design', 1998, #89 ) ;
#162 = CARTESIAN_POINT ( 'NONE',  ( -0.1249999999999999306, 0.0000000000000000000, 0.5007089102274522308 ) ) ;
#163 = DIRECTION ( 'NONE',  ( 0.0000000000000000000, 0.0000000000000000000, 1.000000000000000000 ) ) ;
#164 = AXIS2_PLACEMENT_3D ( 'NONE', #125, #143, #145 ) ;
#165 = DIRECTION ( 'NONE',  ( 0.0000000000000000000, 0.0000000000000000000, 1.000000000000000000 ) ) ;
#166 = EDGE_CURVE ( 'NONE', #235, #198, #144, .T. ) ;
#167 = CARTESIAN_POINT ( 'NONE',  ( -0.1250000000000000000, 0.0000000000000000000, 1.984999999999999432 ) ) ;
#168 = DIRECTION ( 'NONE',  ( -0.7071067811865434649, 0.0000000000000000000, -0.7071067811865515695 ) ) ;
#169 = DIRECTION ( 'NONE',  ( 1.000000000000000000, 0.0000000000000000000, 0.0000000000000000000 ) ) ;
#170 = AXIS2_PLACEMENT_3D ( 'NONE', #92, #111, #267 ) ;
#171 = DIRECTION ( 'NONE',  ( -1.224646799147353207E-16, -0.0000000000000000000, -1.000000000000000000 ) ) ;
#172 = CARTESIAN_POINT ( 'NONE',  ( 6.123233995736766036E-17, 0.0000000000000000000, 0.5000000000000000000 ) ) ;
#173 = PRESENTATION_LAYER_ASSIGNMENT (  '', '', ( #128 ) ) ;
#174 = FILL_AREA_STYLE_COLOUR ( '', #234 ) ;
#175 = VERTEX_POINT ( 'NONE', #162 ) ;
#176 = EDGE_LOOP ( 'NONE', ( #293, #96, #298, #204 ) ) ;
#177 = DIRECTION ( 'NONE',  ( -0.0000000000000000000, -0.0000000000000000000, -1.000000000000000000 ) ) ;
#178 = ORIENTED_EDGE ( 'NONE', *, *, #180, .T. ) ;
#179 = AXIS2_PLACEMENT_3D ( 'NONE', #261, #52, #59 ) ;
#180 = EDGE_CURVE ( 'NONE', #21, #98, #258, .T. ) ;
#181 = DIRECTION ( 'NONE',  ( 1.000000000000000000, 0.0000000000000000000, 0.0000000000000000000 ) ) ;
#182 = ORIENTED_EDGE ( 'NONE', *, *, #17, .F. ) ;
#183 = EDGE_LOOP ( 'NONE', ( #225, #112, #277, #35 ) ) ;
#184 = DIRECTION ( 'NONE',  ( 0.0000000000000000000, 0.0000000000000000000, 1.000000000000000000 ) ) ;
#185 = DIRECTION ( 'NONE',  ( 1.000000000000000000, 0.0000000000000000000, 0.0000000000000000000 ) ) ;
#186 = CARTESIAN_POINT ( 'NONE',  ( 0.0000000000000000000, 0.0000000000000000000, 2.000000000000000000 ) ) ;
#187 = FACE_OUTER_BOUND ( 'NONE', #108, .T. ) ;
#188 = ADVANCED_FACE ( 'NONE', ( #8 ), #102, .T. ) ;
#189 = AXIS2_PLACEMENT_3D ( 'NONE', #203, #184, #141 ) ;
#190 = DIRECTION ( 'NONE',  ( -1.224646799147353207E-16, -0.0000000000000000000, -1.000000000000000000 ) ) ;
#191 = DIRECTION ( 'NONE',  ( -1.000000000000000000, 0.0000000000000000000, 0.0000000000000000000 ) ) ;
#192 = FACE_OUTER_BOUND ( 'NONE', #149, .T. ) ;
#193 = AXIS2_PLACEMENT_3D ( 'NONE', #127, #211, #14 ) ;
#194 = SURFACE_STYLE_FILL_AREA ( #292 ) ;
#195 = CARTESIAN_POINT ( 'NONE',  ( 0.1248749999999999999, 1.529277690435257475E-17, -1.529277690435257475E-17 ) ) ;
#196 = DIRECTION ( 'NONE',  ( 0.7071067811865434649, 8.659560562354883554E-17, -0.7071067811865515695 ) ) ;
#197 = ORIENTED_EDGE ( 'NONE', *, *, #17, .T. ) ;
#198 = VERTEX_POINT ( 'NONE', #248 ) ;
#199 = CARTESIAN_POINT ( 'NONE',  ( -0.1250000000000000000, 0.0000000000000000000, 2.000000000000000000 ) ) ;
#200 = ORIENTED_EDGE ( 'NONE', *, *, #299, .T. ) ;
#201 = EDGE_LOOP ( 'NONE', ( #55, #197 ) ) ;
#202 = PRODUCT_DEFINITION_FORMATION_WITH_SPECIFIED_SOURCE ( 'ANY', '', #228, .NOT_KNOWN. ) ;
#203 = CARTESIAN_POINT ( 'NONE',  ( 0.0000000000000000000, 0.0000000000000000000, 0.0000000000000000000 ) ) ;
#204 = ORIENTED_EDGE ( 'NONE', *, *, #242, .F. ) ;
#205 = DIRECTION ( 'NONE',  ( -1.000000000000000000, 0.0000000000000000000, 0.0000000000000000000 ) ) ;
#206 = FACE_OUTER_BOUND ( 'NONE', #297, .T. ) ;
#207 = PRODUCT_DEFINITION ( 'UNKNOWN', '', #202, #6 ) ;
#208 = CARTESIAN_POINT ( 'NONE',  ( -0.1248749999999999444, 1.530043094684724646E-17, 0.5000000000000000000 ) ) ;
#209 = ORIENTED_EDGE ( 'NONE', *, *, #150, .F. ) ;
#210 =( GEOMETRIC_REPRESENTATION_CONTEXT ( 3 ) GLOBAL_UNCERTAINTY_ASSIGNED_CONTEXT ( ( #31 ) ) GLOBAL_UNIT_ASSIGNED_CONTEXT ( ( #64, #221, #41 ) ) REPRESENTATION_CONTEXT ( 'NONE', 'WORKASPACE' ) );
#211 = DIRECTION ( 'NONE',  ( 0.0000000000000000000, 0.0000000000000000000, -1.000000000000000000 ) ) ;
#212 = ORIENTED_EDGE ( 'NONE', *, *, #216, .T. ) ;
#213 = EDGE_LOOP ( 'NONE', ( #182, #93, #273, #209 ) ) ;
#214 = VERTEX_POINT ( 'NONE', #43 ) ;
#215 = DIRECTION ( 'NONE',  ( -1.000000000000000000, 0.0000000000000000000, 0.0000000000000000000 ) ) ;
#216 = EDGE_CURVE ( 'NONE', #98, #21, #49, .T. ) ;
#217 = CARTESIAN_POINT ( 'NONE',  ( -0.1248749999999999999, 0.0000000000000000000, 3.058555380870514950E-17 ) ) ;
#218 = AXIS2_PLACEMENT_3D ( 'NONE', #11, #283, #191 ) ;
#219 = DIRECTION ( 'NONE',  ( -1.000000000000000000, 0.0000000000000000000, 0.0000000000000000000 ) ) ;
#220 = EDGE_CURVE ( 'NONE', #214, #94, #7, .T. ) ;
#221 =( NAMED_UNIT ( * ) PLANE_ANGLE_UNIT ( ) SI_UNIT ( $, .RADIAN. ) );
#222 = AXIS2_PLACEMENT_3D ( 'NONE', #38, #16, #109 ) ;
#223 = PRESENTATION_STYLE_ASSIGNMENT (( #97 ) ) ;
#224 = MANIFOLD_SOLID_BREP ( 'Cut-Revolve1', #287 ) ;
#225 = ORIENTED_EDGE ( 'NONE', *, *, #229, .F. ) ;
#226 = ORIENTED_EDGE ( 'NONE', *, *, #299, .F. ) ;
#227 =( NAMED_UNIT ( * ) PLANE_ANGLE_UNIT ( ) SI_UNIT ( $, .RADIAN. ) );
#228 = PRODUCT ( 'Micro_SEM-250-03X', 'Micro_SEM-250-03X', '', ( #47 ) ) ;
#229 = EDGE_CURVE ( 'NONE', #21, #175, #39, .T. ) ;
#230 = SHAPE_DEFINITION_REPRESENTATION ( #51, #113 ) ;
#231 = ADVANCED_FACE ( 'NONE', ( #107 ), #238, .T. ) ;
#232 = DIRECTION ( 'NONE',  ( -1.224646799147353207E-16, -0.0000000000000000000, -1.000000000000000000 ) ) ;
#233 = AXIS2_PLACEMENT_3D ( 'NONE', #280, #260, #126 ) ;
#234 = COLOUR_RGB ( '',0.7921568627450980005, 0.8196078431372548767, 0.9333333333333333481 ) ;
#235 = VERTEX_POINT ( 'NONE', #217 ) ;
#236 = CARTESIAN_POINT ( 'NONE',  ( 6.131915642146087268E-17, 0.0000000000000000000, 0.5007089102274522308 ) ) ;
#237 = DIRECTION ( 'NONE',  ( -1.000000000000000000, 0.0000000000000000000, 1.224646799147353454E-16 ) ) ;
#238 = CONICAL_SURFACE ( 'NONE', #115, 0.1248749999999999999, 0.1745329251994339192 ) ;
#239 = DIRECTION ( 'NONE',  ( -1.224646799147353207E-16, -0.0000000000000000000, -1.000000000000000000 ) ) ;
#240 = CYLINDRICAL_SURFACE ( 'NONE', #222, 0.1248749999999999999 ) ;
#241 =( LENGTH_UNIT ( ) NAMED_UNIT ( * ) SI_UNIT ( $, .METRE. ) );
#242 = EDGE_CURVE ( 'NONE', #98, #133, #249, .T. ) ;
#243 = AXIS2_PLACEMENT_3D ( 'NONE', #151, #9, #237 ) ;
#244 = DIRECTION ( 'NONE',  ( -0.1736481776669312194, 2.126576849575783625E-17, 0.9848077530122080203 ) ) ;
#245 =( GEOMETRIC_REPRESENTATION_CONTEXT ( 3 ) GLOBAL_UNCERTAINTY_ASSIGNED_CONTEXT ( ( #147 ) ) GLOBAL_UNIT_ASSIGNED_CONTEXT ( ( #50, #252, #119 ) ) REPRESENTATION_CONTEXT ( 'NONE', 'WORKASPACE' ) );
#246 = ORIENTED_EDGE ( 'NONE', *, *, #247, .F. ) ;
#247 = EDGE_CURVE ( 'NONE', #98, #198, #62, .T. ) ;
#248 = CARTESIAN_POINT ( 'NONE',  ( 0.1248749999999999999, 1.529277690435257475E-17, 0.0000000000000000000 ) ) ;
#249 = LINE ( 'NONE', #18, #91 ) ;
#250 = SURFACE_SIDE_STYLE ('',( #23 ) ) ;
#251 = AXIS2_PLACEMENT_3D ( 'NONE', #271, #45, #181 ) ;
#252 =( NAMED_UNIT ( * ) PLANE_ANGLE_UNIT ( ) SI_UNIT ( $, .RADIAN. ) );
#253 = FACE_OUTER_BOUND ( 'NONE', #176, .T. ) ;
#254 =( CONVERSION_BASED_UNIT ( 'INCH', #3 ) LENGTH_UNIT ( ) NAMED_UNIT ( #70 ) );
#255 = CARTESIAN_POINT ( 'NONE',  ( 6.123233995736766036E-17, 0.0000000000000000000, 0.5000000000000000000 ) ) ;
#256 = ORIENTED_EDGE ( 'NONE', *, *, #166, .T. ) ;
#257 = DIRECTION ( 'NONE',  ( 1.000000000000000000, 0.0000000000000000000, -0.0000000000000000000 ) ) ;
#258 = CIRCLE ( 'NONE', #132, 0.1248749999999999999 ) ;
#259 = FACE_OUTER_BOUND ( 'NONE', #42, .T. ) ;
#260 = DIRECTION ( 'NONE',  ( 0.0000000000000000000, 0.0000000000000000000, -1.000000000000000000 ) ) ;
#261 = CARTESIAN_POINT ( 'NONE',  ( 1.872825028598994811E-33, 0.0000000000000000000, 1.529277690435257475E-17 ) ) ;
#262 = AXIS2_PLACEMENT_3D ( 'NONE', #134, #153, #215 ) ;
#263 = CARTESIAN_POINT ( 'NONE',  ( 6.123233995736766036E-17, 0.0000000000000000000, 0.5000000000000000000 ) ) ;
#264 = DIRECTION ( 'NONE',  ( -1.000000000000000000, 0.0000000000000000000, 1.224646799147353454E-16 ) ) ;
#265 = DIRECTION ( 'NONE',  ( 0.1736481776669314137, 0.0000000000000000000, 0.9848077530122077983 ) ) ;
#266 = ADVANCED_FACE ( 'NONE', ( #192 ), #156, .T. ) ;
#267 = DIRECTION ( 'NONE',  ( 1.000000000000000000, 0.0000000000000000000, 0.0000000000000000000 ) ) ;
#268 = AXIS2_PLACEMENT_3D ( 'NONE', #172, #286, #290 ) ;
#269 = ORIENTED_EDGE ( 'NONE', *, *, #220, .T. ) ;
#270 = ADVANCED_FACE ( 'NONE', ( #66 ), #61, .T. ) ;
#271 = CARTESIAN_POINT ( 'NONE',  ( 6.123233995736766036E-17, 0.0000000000000000000, 0.5000000000000000000 ) ) ;
#272 = DIMENSIONAL_EXPONENTS ( 1.000000000000000000, 0.0000000000000000000, 0.0000000000000000000, 0.0000000000000000000, 0.0000000000000000000, 0.0000000000000000000, 0.0000000000000000000 ) ;
#273 = ORIENTED_EDGE ( 'NONE', *, *, #48, .F. ) ;
#274 = EDGE_CURVE ( 'NONE', #4, #214, #19, .T. ) ;
#275 = CARTESIAN_POINT ( 'NONE',  ( 6.131915642146087268E-17, 0.0000000000000000000, 0.5007089102274522308 ) ) ;
#276 = VECTOR ( 'NONE', #168, 39.37007874015748143 ) ;
#277 = ORIENTED_EDGE ( 'NONE', *, *, #242, .T. ) ;
#278 = ADVANCED_FACE ( 'NONE', ( #67 ), #240, .T. ) ;
#279 = CARTESIAN_POINT ( 'NONE',  ( 0.0000000000000000000, 0.0000000000000000000, 2.000000000000000000 ) ) ;
#280 = CARTESIAN_POINT ( 'NONE',  ( 0.0000000000000000000, 0.0000000000000000000, 1.984999999999999432 ) ) ;
#281 = ORIENTED_EDGE ( 'NONE', *, *, #118, .T. ) ;
#282 = CIRCLE ( 'NONE', #101, 0.1250000000000000000 ) ;
#283 = DIRECTION ( 'NONE',  ( -0.0000000000000000000, -0.0000000000000000000, -1.000000000000000000 ) ) ;
#284 = DIRECTION ( 'NONE',  ( 1.000000000000000000, 0.0000000000000000000, 0.0000000000000000000 ) ) ;
#285 = ORIENTED_EDGE ( 'NONE', *, *, #118, .F. ) ;
#286 = DIRECTION ( 'NONE',  ( -1.224646799147353207E-16, -0.0000000000000000000, -1.000000000000000000 ) ) ;
#287 = CLOSED_SHELL ( 'NONE', ( #278, #296, #270, #27, #266, #188, #135, #231, #86, #56 ) ) ;
#288 = MECHANICAL_DESIGN_GEOMETRIC_PRESENTATION_REPRESENTATION (  '', ( #128 ), #210 ) ;
#289 = EDGE_CURVE ( 'NONE', #198, #235, #73, .T. ) ;
#290 = DIRECTION ( 'NONE',  ( -1.000000000000000000, 0.0000000000000000000, 0.0000000000000000000 ) ) ;
#291 = EDGE_CURVE ( 'NONE', #133, #175, #282, .T. ) ;
#292 = FILL_AREA_STYLE ('',( #174 ) ) ;
#293 = ORIENTED_EDGE ( 'NONE', *, *, #180, .F. ) ;
#294 = DIRECTION ( 'NONE',  ( -1.224646799147353207E-16, -0.0000000000000000000, -1.000000000000000000 ) ) ;
#295 = MECHANICAL_DESIGN_GEOMETRIC_PRESENTATION_REPRESENTATION (  '', ( #95 ), #245 ) ;
#296 = ADVANCED_FACE ( 'NONE', ( #253 ), #46, .T. ) ;
#297 = EDGE_LOOP ( 'NONE', ( #246, #212, #28, #57 ) ) ;
#298 = ORIENTED_EDGE ( 'NONE', *, *, #63, .T. ) ;
#299 = EDGE_CURVE ( 'NONE', #94, #175, #26, .T. ) ;
ENDSEC;
END-ISO-10303-21;
