ISO-10303-21;
HEADER;
FILE_DESCRIPTION (( 'STEP AP214' ),
    '1' );
FILE_NAME ('17257.STEP',
    '2023-06-30T21:53:21',
    ( '' ),
    ( '' ),
    'SwSTEP 2.0',
    'SolidWorks 2023',
    '' );
FILE_SCHEMA (( 'AUTOMOTIVE_DESIGN' ));
ENDSEC;

DATA;
#1 = DIRECTION ( 'NONE',  ( -1.000000000000000000, 0.000000000000000000, 0.000000000000000000 ) ) ;
#2 = DIRECTION ( 'NONE',  ( -1.000000000000000000, 0.000000000000000000, 0.000000000000000000 ) ) ;
#3 = CIRCLE ( 'NONE', #95, 0.1562500000000000000 ) ;
#4 = EDGE_LOOP ( 'NONE', ( #79, #348, #149, #140 ) ) ;
#5 = FILL_AREA_STYLE ('',( #145 ) ) ;
#6 = VERTEX_POINT ( 'NONE', #246 ) ;
#7 = PRODUCT_DEFINITION_FORMATION_WITH_SPECIFIED_SOURCE ( 'ANY', '', #160, .NOT_KNOWN. ) ;
#8 = DIRECTION ( 'NONE',  ( -0.000000000000000000, -1.000000000000000000, -0.000000000000000000 ) ) ;
#9 = CARTESIAN_POINT ( 'NONE',  ( 0.000000000000000000, 0.8125000000000000000, 0.000000000000000000 ) ) ;
#10 =( NAMED_UNIT ( * ) PLANE_ANGLE_UNIT ( ) SI_UNIT ( $, .RADIAN. ) );
#11 = CARTESIAN_POINT ( 'NONE',  ( -6.123233995736766036E-17, 2.500000000000000000, 0.000000000000000000 ) ) ;
#12 = PRESENTATION_LAYER_ASSIGNMENT (  '', '', ( #46 ) ) ;
#13 =( GEOMETRIC_REPRESENTATION_CONTEXT ( 3 ) GLOBAL_UNCERTAINTY_ASSIGNED_CONTEXT ( ( #180 ) ) GLOBAL_UNIT_ASSIGNED_CONTEXT ( ( #236, #139, #257 ) ) REPRESENTATION_CONTEXT ( 'NONE', 'WORKASPACE' ) );
#14 = FILL_AREA_STYLE_COLOUR ( '', #176 ) ;
#15 = FILL_AREA_STYLE ('',( #214 ) ) ;
#16 = PRESENTATION_STYLE_ASSIGNMENT (( #359 ) ) ;
#17 = EDGE_CURVE ( 'NONE', #82, #177, #113, .T. ) ;
#18 =( NAMED_UNIT ( * ) SI_UNIT ( $, .STERADIAN. ) SOLID_ANGLE_UNIT ( ) );
#19 = SURFACE_STYLE_USAGE ( .BOTH. , #222 ) ;
#20 = CARTESIAN_POINT ( 'NONE',  ( 0.000000000000000000, 0.8125000000000000000, 0.000000000000000000 ) ) ;
#21 = DIRECTION ( 'NONE',  ( -0.000000000000000000, -1.000000000000000000, -0.000000000000000000 ) ) ;
#22 = AXIS2_PLACEMENT_3D ( 'NONE', #256, #163, #1 ) ;
#23 = DIMENSIONAL_EXPONENTS ( 1.000000000000000000, 0.000000000000000000, 0.000000000000000000, 0.000000000000000000, 0.000000000000000000, 0.000000000000000000, 0.000000000000000000 ) ;
#24 = DIRECTION ( 'NONE',  ( -1.224646799147353207E-16, 1.000000000000000000, -0.000000000000000000 ) ) ;
#25 =( NAMED_UNIT ( * ) PLANE_ANGLE_UNIT ( ) SI_UNIT ( $, .RADIAN. ) );
#26 = AXIS2_PLACEMENT_3D ( 'NONE', #320, #24, #32 ) ;
#27 = AXIS2_PLACEMENT_3D ( 'NONE', #271, #156, #151 ) ;
#28 = CARTESIAN_POINT ( 'NONE',  ( -0.1562500000000000278, 0.1562500000000000833, 1.913510623667739463E-17 ) ) ;
#29 = EDGE_LOOP ( 'NONE', ( #362, #57 ) ) ;
#30 = ORIENTED_EDGE ( 'NONE', *, *, #353, .F. ) ;
#31 = EDGE_CURVE ( 'NONE', #177, #203, #3, .T. ) ;
#32 = DIRECTION ( 'NONE',  ( -1.000000000000000000, 0.000000000000000000, 0.000000000000000000 ) ) ;
#33 = EDGE_LOOP ( 'NONE', ( #354, #323 ) ) ;
#34 = STYLED_ITEM ( 'NONE', ( #301 ), #38 ) ;
#35 = AXIS2_PLACEMENT_3D ( 'NONE', #127, #21, #193 ) ;
#36 = DIRECTION ( 'NONE',  ( 0.000000000000000000, 0.000000000000000000, -1.000000000000000000 ) ) ;
#37 = ORIENTED_EDGE ( 'NONE', *, *, #93, .T. ) ;
#38 = ADVANCED_FACE ( 'NONE', ( #62 ), #61, .T. ) ;
#39 = UNCERTAINTY_MEASURE_WITH_UNIT (LENGTH_MEASURE( 1.000000000000000082E-05 ), #89, 'distance_accuracy_value', 'NONE');
#40 = DIRECTION ( 'NONE',  ( -0.000000000000000000, -1.000000000000000000, -0.000000000000000000 ) ) ;
#41 = CARTESIAN_POINT ( 'NONE',  ( 0.000000000000000000, 0.1562500000000000833, 0.000000000000000000 ) ) ;
#42 =( LENGTH_UNIT ( ) NAMED_UNIT ( * ) SI_UNIT ( $, .METRE. ) );
#43 = PLANE ( 'NONE',  #27 ) ;
#44 = ADVANCED_FACE ( 'NONE', ( #94 ), #150, .F. ) ;
#45 =( CONVERSION_BASED_UNIT ( 'INCH', #97 ) LENGTH_UNIT ( ) NAMED_UNIT ( #334 ) );
#46 = STYLED_ITEM ( 'NONE', ( #221 ), #71 ) ;
#47 = CIRCLE ( 'NONE', #356, 0.1562499999999997780 ) ;
#48 = AXIS2_PLACEMENT_3D ( 'NONE', #143, #8, #347 ) ;
#49 = FACE_OUTER_BOUND ( 'NONE', #92, .T. ) ;
#50 = ORIENTED_EDGE ( 'NONE', *, *, #284, .T. ) ;
#51 = FACE_OUTER_BOUND ( 'NONE', #55, .T. ) ;
#52 = AXIS2_PLACEMENT_3D ( 'NONE', #360, #217, #268 ) ;
#53 = PRESENTATION_LAYER_ASSIGNMENT (  '', '', ( #135 ) ) ;
#54 = ADVANCED_FACE ( 'NONE', ( #121 ), #157, .T. ) ;
#55 = EDGE_LOOP ( 'NONE', ( #242, #50, #112, #30, #146 ) ) ;
#56 = CARTESIAN_POINT ( 'NONE',  ( 1.454268073987481856E-16, 0.8125000000000001110, 0.000000000000000000 ) ) ;
#57 = ORIENTED_EDGE ( 'NONE', *, *, #205, .F. ) ;
#58 = CARTESIAN_POINT ( 'NONE',  ( -6.123233995736766036E-17, 2.500000000000000000, 0.000000000000000000 ) ) ;
#59 = FILL_AREA_STYLE_COLOUR ( '', #232 ) ;
#60 = DIRECTION ( 'NONE',  ( -0.000000000000000000, -1.000000000000000000, -0.000000000000000000 ) ) ;
#61 = CYLINDRICAL_SURFACE ( 'NONE', #125, 0.1562499999999999445 ) ;
#62 = FACE_OUTER_BOUND ( 'NONE', #144, .T. ) ;
#63 = AXIS2_PLACEMENT_3D ( 'NONE', #331, #296, #300 ) ;
#64 = ORIENTED_EDGE ( 'NONE', *, *, #273, .T. ) ;
#65 = SURFACE_SIDE_STYLE ('',( #297 ) ) ;
#66 = CARTESIAN_POINT ( 'NONE',  ( 0.1562499999999998057, 2.500000000000000000, 1.913510623667737923E-17 ) ) ;
#67 = PRODUCT_RELATED_PRODUCT_CATEGORY ( 'part', '', ( #160 ) ) ;
#68 = STYLED_ITEM ( 'NONE', ( #313 ), #220 ) ;
#69 = DIMENSIONAL_EXPONENTS ( 1.000000000000000000, 0.000000000000000000, 0.000000000000000000, 0.000000000000000000, 0.000000000000000000, 0.000000000000000000, 0.000000000000000000 ) ;
#70 = DIRECTION ( 'NONE',  ( 1.224646799147353207E-16, -0.000000000000000000, 1.000000000000000000 ) ) ;
#71 = MANIFOLD_SOLID_BREP ( 'Revolve - Tool Body (Straight Shanked)', #152 ) ;
#72 = FACE_OUTER_BOUND ( 'NONE', #33, .T. ) ;
#73 = CARTESIAN_POINT ( 'NONE',  ( -1.913510623667739771E-17, 0.1562500000000000278, 0.000000000000000000 ) ) ;
#74 = CARTESIAN_POINT ( 'NONE',  ( 0.000000000000000000, 0.000000000000000000, -0.1562499999999999445 ) ) ;
#75 = UNCERTAINTY_MEASURE_WITH_UNIT (LENGTH_MEASURE( 1.000000000000000082E-05 ), #184, 'distance_accuracy_value', 'NONE');
#76 = CYLINDRICAL_SURFACE ( 'NONE', #26, 0.1562499999999998612 ) ;
#77 = ORIENTED_EDGE ( 'NONE', *, *, #93, .F. ) ;
#78 =( LENGTH_UNIT ( ) NAMED_UNIT ( * ) SI_UNIT ( $, .METRE. ) );
#79 = ORIENTED_EDGE ( 'NONE', *, *, #372, .F. ) ;
#80 = FACE_OUTER_BOUND ( 'NONE', #29, .T. ) ;
#81 = PRESENTATION_LAYER_ASSIGNMENT (  '', '', ( #202 ) ) ;
#82 = VERTEX_POINT ( 'NONE', #129 ) ;
#83 = SURFACE_SIDE_STYLE ('',( #114 ) ) ;
#84 = VERTEX_POINT ( 'NONE', #189 ) ;
#85 =( CONVERSION_BASED_UNIT ( 'INCH', #116 ) LENGTH_UNIT ( ) NAMED_UNIT ( #69 ) );
#86 = LENGTH_MEASURE_WITH_UNIT ( LENGTH_MEASURE( 0.02539999999999999897 ), #42 );
#87 = DIRECTION ( 'NONE',  ( -1.224646799147353207E-16, 1.000000000000000000, -0.000000000000000000 ) ) ;
#88 = AXIS2_PLACEMENT_3D ( 'NONE', #264, #170, #287 ) ;
#89 =( CONVERSION_BASED_UNIT ( 'INCH', #86 ) LENGTH_UNIT ( ) NAMED_UNIT ( #103 ) );
#90 = DIRECTION ( 'NONE',  ( -0.000000000000000000, -1.000000000000000000, -0.000000000000000000 ) ) ;
#91 = SPHERICAL_SURFACE ( 'NONE', #63, 0.1562500000000000278 ) ;
#92 = EDGE_LOOP ( 'NONE', ( #77, #208, #172, #260 ) ) ;
#93 = EDGE_CURVE ( 'NONE', #6, #265, #155, .T. ) ;
#94 = FACE_OUTER_BOUND ( 'NONE', #142, .T. ) ;
#95 = AXIS2_PLACEMENT_3D ( 'NONE', #41, #179, #239 ) ;
#96 =( NAMED_UNIT ( * ) SI_UNIT ( $, .STERADIAN. ) SOLID_ANGLE_UNIT ( ) );
#97 = LENGTH_MEASURE_WITH_UNIT ( LENGTH_MEASURE( 0.02539999999999999897 ), #100 );
#98 =( NAMED_UNIT ( * ) SI_UNIT ( $, .STERADIAN. ) SOLID_ANGLE_UNIT ( ) );
#99 = EDGE_CURVE ( 'NONE', #314, #84, #368, .T. ) ;
#100 =( LENGTH_UNIT ( ) NAMED_UNIT ( * ) SI_UNIT ( $, .METRE. ) );
#101 = CIRCLE ( 'NONE', #319, 0.1562500000000000000 ) ;
#102 =( LENGTH_UNIT ( ) NAMED_UNIT ( * ) SI_UNIT ( $, .METRE. ) );
#103 = DIMENSIONAL_EXPONENTS ( 1.000000000000000000, 0.000000000000000000, 0.000000000000000000, 0.000000000000000000, 0.000000000000000000, 0.000000000000000000, 0.000000000000000000 ) ;
#104 = ADVANCED_BREP_SHAPE_REPRESENTATION ( '17257', ( #309, #71, #330 ), #250 ) ;
#105 = LENGTH_MEASURE_WITH_UNIT ( LENGTH_MEASURE( 0.02539999999999999897 ), #373 );
#106 = CARTESIAN_POINT ( 'NONE',  ( -0.1562500000000000278, 2.500000000000000000, 0.000000000000000000 ) ) ;
#107 = AXIS2_PLACEMENT_3D ( 'NONE', #20, #282, #165 ) ;
#108 = CYLINDRICAL_SURFACE ( 'NONE', #48, 0.1562499999999999445 ) ;
#109 = VERTEX_POINT ( 'NONE', #106 ) ;
#110 = VERTEX_POINT ( 'NONE', #195 ) ;
#111 = ADVANCED_FACE ( 'NONE', ( #72 ), #281, .T. ) ;
#112 = ORIENTED_EDGE ( 'NONE', *, *, #99, .T. ) ;
#113 = CIRCLE ( 'NONE', #133, 0.1562500000000000000 ) ;
#114 = SURFACE_STYLE_FILL_AREA ( #5 ) ;
#115 = AXIS2_PLACEMENT_3D ( 'NONE', #73, #70, #279 ) ;
#116 = LENGTH_MEASURE_WITH_UNIT ( LENGTH_MEASURE( 0.02539999999999999897 ), #102 );
#117 =( CONVERSION_BASED_UNIT ( 'INCH', #158 ) LENGTH_UNIT ( ) NAMED_UNIT ( #23 ) );
#118 =( LENGTH_UNIT ( ) NAMED_UNIT ( * ) SI_UNIT ( $, .METRE. ) );
#119 = MECHANICAL_DESIGN_GEOMETRIC_PRESENTATION_REPRESENTATION (  '', ( #68 ), #13 ) ;
#120 = PRODUCT_DEFINITION_CONTEXT ( 'detailed design', #316, 'design' ) ;
#121 = FACE_OUTER_BOUND ( 'NONE', #262, .T. ) ;
#122 = PRODUCT_DEFINITION_SHAPE ( 'NONE', 'NONE',  #212 ) ;
#123 = SURFACE_SIDE_STYLE ('',( #327 ) ) ;
#124 = LENGTH_MEASURE_WITH_UNIT ( LENGTH_MEASURE( 0.02539999999999999897 ), #118 );
#125 = AXIS2_PLACEMENT_3D ( 'NONE', #186, #328, #272 ) ;
#126 = MECHANICAL_DESIGN_GEOMETRIC_PRESENTATION_REPRESENTATION (  '', ( #325 ), #185 ) ;
#127 = CARTESIAN_POINT ( 'NONE',  ( 0.000000000000000000, 0.8125000000000000000, 0.000000000000000000 ) ) ;
#128 = EDGE_CURVE ( 'NONE', #265, #109, #277, .T. ) ;
#129 = CARTESIAN_POINT ( 'NONE',  ( 0.1562500000000000000, 0.1562500000000000833, 0.000000000000000000 ) ) ;
#130 = PRODUCT_CONTEXT ( 'NONE', #351, 'mechanical' ) ;
#131 = DIRECTION ( 'NONE',  ( -1.000000000000000000, 0.000000000000000000, 0.000000000000000000 ) ) ;
#132 = AXIS2_PLACEMENT_3D ( 'NONE', #11, #87, #244 ) ;
#133 = AXIS2_PLACEMENT_3D ( 'NONE', #181, #90, #275 ) ;
#134 = DIMENSIONAL_EXPONENTS ( 1.000000000000000000, 0.000000000000000000, 0.000000000000000000, 0.000000000000000000, 0.000000000000000000, 0.000000000000000000, 0.000000000000000000 ) ;
#135 = STYLED_ITEM ( 'NONE', ( #16 ), #309 ) ;
#136 = DIRECTION ( 'NONE',  ( 0.000000000000000000, 0.000000000000000000, -1.000000000000000000 ) ) ;
#137 = SURFACE_STYLE_FILL_AREA ( #192 ) ;
#138 = DIRECTION ( 'NONE',  ( -1.224646799147353207E-16, 1.000000000000000000, -0.000000000000000000 ) ) ;
#139 =( NAMED_UNIT ( * ) PLANE_ANGLE_UNIT ( ) SI_UNIT ( $, .RADIAN. ) );
#140 = ORIENTED_EDGE ( 'NONE', *, *, #147, .T. ) ;
#141 = DIMENSIONAL_EXPONENTS ( 1.000000000000000000, 0.000000000000000000, 0.000000000000000000, 0.000000000000000000, 0.000000000000000000, 0.000000000000000000, 0.000000000000000000 ) ;
#142 = EDGE_LOOP ( 'NONE', ( #64, #171 ) ) ;
#143 = CARTESIAN_POINT ( 'NONE',  ( 0.000000000000000000, 0.000000000000000000, 0.000000000000000000 ) ) ;
#144 = EDGE_LOOP ( 'NONE', ( #206, #290, #229, #317, #201 ) ) ;
#145 = FILL_AREA_STYLE_COLOUR ( '', #169 ) ;
#146 = ORIENTED_EDGE ( 'NONE', *, *, #31, .F. ) ;
#147 = EDGE_CURVE ( 'NONE', #82, #110, #254, .T. ) ;
#148 = DIRECTION ( 'NONE',  ( -1.000000000000000000, 0.000000000000000000, 0.000000000000000000 ) ) ;
#149 = ORIENTED_EDGE ( 'NONE', *, *, #340, .T. ) ;
#150 = PLANE ( 'NONE',  #52 ) ;
#151 = DIRECTION ( 'NONE',  ( -1.000000000000000000, -1.224646799147353207E-16, 0.000000000000000000 ) ) ;
#152 = CLOSED_SHELL ( 'NONE', ( #54, #238, #194, #44 ) ) ;
#153 = CIRCLE ( 'NONE', #35, 0.1562499999999999167 ) ;
#154 = UNCERTAINTY_MEASURE_WITH_UNIT (LENGTH_MEASURE( 1.000000000000000082E-05 ), #117, 'distance_accuracy_value', 'NONE');
#155 = LINE ( 'NONE', #66, #183 ) ;
#156 = DIRECTION ( 'NONE',  ( -1.224646799147353207E-16, 1.000000000000000000, 0.000000000000000000 ) ) ;
#157 = CYLINDRICAL_SURFACE ( 'NONE', #132, 0.1562499999999998612 ) ;
#158 = LENGTH_MEASURE_WITH_UNIT ( LENGTH_MEASURE( 0.02539999999999999897 ), #303 );
#159 = MECHANICAL_DESIGN_GEOMETRIC_PRESENTATION_REPRESENTATION (  '', ( #349 ), #283 ) ;
#160 = PRODUCT ( '17257', '17257', '', ( #130 ) ) ;
#161 = VECTOR ( 'NONE', #326, 39.37007874015748143 ) ;
#162 = ADVANCED_FACE ( 'NONE', ( #338 ), #289, .T. ) ;
#163 = DIRECTION ( 'NONE',  ( -1.224646799147353207E-16, 1.000000000000000000, -0.000000000000000000 ) ) ;
#164 = DIRECTION ( 'NONE',  ( 1.000000000000000000, 0.000000000000000000, 0.000000000000000000 ) ) ;
#165 = DIRECTION ( 'NONE',  ( 0.000000000000000000, -0.000000000000000000, 1.000000000000000000 ) ) ;
#166 = SURFACE_SIDE_STYLE ('',( #137 ) ) ;
#167 = AXIS2_PLACEMENT_3D ( 'NONE', #230, #352, #345 ) ;
#168 = UNCERTAINTY_MEASURE_WITH_UNIT (LENGTH_MEASURE( 1.000000000000000082E-05 ), #85, 'distance_accuracy_value', 'NONE');
#169 = COLOUR_RGB ( '',1.000000000000000000, 0.000000000000000000, 0.000000000000000000 ) ;
#170 = DIRECTION ( 'NONE',  ( 0.000000000000000000, 0.000000000000000000, 1.000000000000000000 ) ) ;
#171 = ORIENTED_EDGE ( 'NONE', *, *, #128, .T. ) ;
#172 = ORIENTED_EDGE ( 'NONE', *, *, #304, .T. ) ;
#173 = PRESENTATION_STYLE_ASSIGNMENT (( #204 ) ) ;
#174 = ORIENTED_EDGE ( 'NONE', *, *, #187, .T. ) ;
#175 =( NAMED_UNIT ( * ) SI_UNIT ( $, .STERADIAN. ) SOLID_ANGLE_UNIT ( ) );
#176 = COLOUR_RGB ( '',0.7921568627450980005, 0.8196078431372548767, 0.9333333333333333481 ) ;
#177 = VERTEX_POINT ( 'NONE', #307 ) ;
#178 = DIRECTION ( 'NONE',  ( -1.224646799147353207E-16, 1.000000000000000000, -0.000000000000000000 ) ) ;
#179 = DIRECTION ( 'NONE',  ( -0.000000000000000000, -1.000000000000000000, -0.000000000000000000 ) ) ;
#180 = UNCERTAINTY_MEASURE_WITH_UNIT (LENGTH_MEASURE( 1.000000000000000082E-05 ), #236, 'distance_accuracy_value', 'NONE');
#181 = CARTESIAN_POINT ( 'NONE',  ( 0.000000000000000000, 0.1562500000000000833, 0.000000000000000000 ) ) ;
#182 =( CONVERSION_BASED_UNIT ( 'INCH', #209 ) LENGTH_UNIT ( ) NAMED_UNIT ( #134 ) );
#183 = VECTOR ( 'NONE', #138, 39.37007874015748143 ) ;
#184 =( CONVERSION_BASED_UNIT ( 'INCH', #124 ) LENGTH_UNIT ( ) NAMED_UNIT ( #228 ) );
#185 =( GEOMETRIC_REPRESENTATION_CONTEXT ( 3 ) GLOBAL_UNCERTAINTY_ASSIGNED_CONTEXT ( ( #333 ) ) GLOBAL_UNIT_ASSIGNED_CONTEXT ( ( #182, #10, #247 ) ) REPRESENTATION_CONTEXT ( 'NONE', 'WORKASPACE' ) );
#186 = CARTESIAN_POINT ( 'NONE',  ( 0.000000000000000000, 0.000000000000000000, 0.000000000000000000 ) ) ;
#187 = EDGE_CURVE ( 'NONE', #258, #6, #329, .T. ) ;
#188 = DIRECTION ( 'NONE',  ( 0.000000000000000000, 0.000000000000000000, 1.000000000000000000 ) ) ;
#189 = CARTESIAN_POINT ( 'NONE',  ( 0.000000000000000000, 0.1562500000000000833, -0.1562500000000000000 ) ) ;
#190 =( GEOMETRIC_REPRESENTATION_CONTEXT ( 3 ) GLOBAL_UNCERTAINTY_ASSIGNED_CONTEXT ( ( #312 ) ) GLOBAL_UNIT_ASSIGNED_CONTEXT ( ( #369, #278, #98 ) ) REPRESENTATION_CONTEXT ( 'NONE', 'WORKASPACE' ) );
#191 = MECHANICAL_DESIGN_GEOMETRIC_PRESENTATION_REPRESENTATION (  '', ( #135 ), #226 ) ;
#192 = FILL_AREA_STYLE ('',( #224 ) ) ;
#193 = DIRECTION ( 'NONE',  ( 0.000000000000000000, 0.000000000000000000, -1.000000000000000000 ) ) ;
#194 = ADVANCED_FACE ( 'NONE', ( #49 ), #76, .T. ) ;
#195 = CARTESIAN_POINT ( 'NONE',  ( -9.567553118338698857E-18, 0.000000000000000000, 0.000000000000000000 ) ) ;
#196 = DIRECTION ( 'NONE',  ( 0.000000000000000000, 0.000000000000000000, -1.000000000000000000 ) ) ;
#197 = VECTOR ( 'NONE', #336, 39.37007874015748143 ) ;
#198 = CARTESIAN_POINT ( 'NONE',  ( 1.913510623667738231E-17, 0.8125000000000000000, 0.1562499999999999167 ) ) ;
#199 = VERTEX_POINT ( 'NONE', #198 ) ;
#200 = FILL_AREA_STYLE ('',( #346 ) ) ;
#201 = ORIENTED_EDGE ( 'NONE', *, *, #99, .F. ) ;
#202 = STYLED_ITEM ( 'NONE', ( #255 ), #111 ) ;
#203 = VERTEX_POINT ( 'NONE', #28 ) ;
#204 = SURFACE_STYLE_USAGE ( .BOTH. , #83 ) ;
#205 = EDGE_CURVE ( 'NONE', #6, #258, #47, .T. ) ;
#206 = ORIENTED_EDGE ( 'NONE', *, *, #367, .T. ) ;
#207 =( NAMED_UNIT ( * ) SI_UNIT ( $, .STERADIAN. ) SOLID_ANGLE_UNIT ( ) );
#208 = ORIENTED_EDGE ( 'NONE', *, *, #205, .T. ) ;
#209 = LENGTH_MEASURE_WITH_UNIT ( LENGTH_MEASURE( 0.02539999999999999897 ), #266 );
#210 = CIRCLE ( 'NONE', #357, 0.1562499999999999167 ) ;
#211 = ORIENTED_EDGE ( 'NONE', *, *, #273, .F. ) ;
#212 = PRODUCT_DEFINITION ( 'UNKNOWN', '', #7, #120 ) ;
#213 = CARTESIAN_POINT ( 'NONE',  ( 0.000000000000000000, 0.8125000000000000000, -0.1562499999999999167 ) ) ;
#214 = FILL_AREA_STYLE_COLOUR ( '', #248 ) ;
#215 = SURFACE_SIDE_STYLE ('',( #355 ) ) ;
#216 = COLOUR_RGB ( '',1.000000000000000000, 0.000000000000000000, 0.000000000000000000 ) ;
#217 = DIRECTION ( 'NONE',  ( 1.224646799147353207E-16, -1.000000000000000000, 0.000000000000000000 ) ) ;
#218 = AXIS2_PLACEMENT_3D ( 'NONE', #58, #178, #148 ) ;
#219 = CARTESIAN_POINT ( 'NONE',  ( -0.1562499999999999445, 2.500000000000000000, 0.000000000000000000 ) ) ;
#220 = ADVANCED_FACE ( 'NONE', ( #51 ), #108, .T. ) ;
#221 = PRESENTATION_STYLE_ASSIGNMENT (( #332 ) ) ;
#222 = SURFACE_SIDE_STYLE ('',( #251 ) ) ;
#223 = CARTESIAN_POINT ( 'NONE',  ( 0.000000000000000000, 0.000000000000000000, 0.000000000000000000 ) ) ;
#224 = FILL_AREA_STYLE_COLOUR ( '', #370 ) ;
#225 = MECHANICAL_DESIGN_GEOMETRIC_PRESENTATION_REPRESENTATION (  '', ( #46 ), #363 ) ;
#226 =( GEOMETRIC_REPRESENTATION_CONTEXT ( 3 ) GLOBAL_UNCERTAINTY_ASSIGNED_CONTEXT ( ( #39 ) ) GLOBAL_UNIT_ASSIGNED_CONTEXT ( ( #89, #241, #175 ) ) REPRESENTATION_CONTEXT ( 'NONE', 'WORKASPACE' ) );
#227 = FILL_AREA_STYLE_COLOUR ( '', #216 ) ;
#228 = DIMENSIONAL_EXPONENTS ( 1.000000000000000000, 0.000000000000000000, 0.000000000000000000, 0.000000000000000000, 0.000000000000000000, 0.000000000000000000, 0.000000000000000000 ) ;
#229 = ORIENTED_EDGE ( 'NONE', *, *, #17, .F. ) ;
#230 = CARTESIAN_POINT ( 'NONE',  ( 1.454268073987481856E-16, 0.8125000000000001110, 0.000000000000000000 ) ) ;
#231 = ORIENTED_EDGE ( 'NONE', *, *, #304, .F. ) ;
#232 = COLOUR_RGB ( '',1.000000000000000000, 0.000000000000000000, 0.000000000000000000 ) ;
#233 = ADVANCED_FACE ( 'NONE', ( #261 ), #91, .T. ) ;
#234 = SURFACE_STYLE_FILL_AREA ( #200 ) ;
#235 = EDGE_LOOP ( 'NONE', ( #267, #294, #321, #288 ) ) ;
#236 =( CONVERSION_BASED_UNIT ( 'INCH', #315 ) LENGTH_UNIT ( ) NAMED_UNIT ( #311 ) );
#237 = CARTESIAN_POINT ( 'NONE',  ( 0.000000000000000000, 0.1562500000000000833, 0.000000000000000000 ) ) ;
#238 = ADVANCED_FACE ( 'NONE', ( #80 ), #43, .F. ) ;
#239 = DIRECTION ( 'NONE',  ( 0.000000000000000000, 0.000000000000000000, -1.000000000000000000 ) ) ;
#240 = COLOUR_RGB ( '',1.000000000000000000, 0.000000000000000000, 0.000000000000000000 ) ;
#241 =( NAMED_UNIT ( * ) PLANE_ANGLE_UNIT ( ) SI_UNIT ( $, .RADIAN. ) );
#242 = ORIENTED_EDGE ( 'NONE', *, *, #280, .F. ) ;
#243 = CARTESIAN_POINT ( 'NONE',  ( -0.1562499999999996392, 0.8125000000000001110, 0.000000000000000000 ) ) ;
#244 = DIRECTION ( 'NONE',  ( -1.000000000000000000, 0.000000000000000000, 0.000000000000000000 ) ) ;
#245 = CARTESIAN_POINT ( 'NONE',  ( 0.1562499999999999167, 2.500000000000000000, 1.913510623667738231E-17 ) ) ;
#246 = CARTESIAN_POINT ( 'NONE',  ( 0.1562499999999999167, 0.8125000000000001110, 1.913510623667738231E-17 ) ) ;
#247 =( NAMED_UNIT ( * ) SI_UNIT ( $, .STERADIAN. ) SOLID_ANGLE_UNIT ( ) );
#248 = COLOUR_RGB ( '',0.7921568627450980005, 0.8196078431372548767, 0.9333333333333333481 ) ;
#249 = FILL_AREA_STYLE ('',( #59 ) ) ;
#250 =( GEOMETRIC_REPRESENTATION_CONTEXT ( 3 ) GLOBAL_UNCERTAINTY_ASSIGNED_CONTEXT ( ( #269 ) ) GLOBAL_UNIT_ASSIGNED_CONTEXT ( ( #45, #302, #18 ) ) REPRESENTATION_CONTEXT ( 'NONE', 'WORKASPACE' ) );
#251 = SURFACE_STYLE_FILL_AREA ( #342 ) ;
#252 = SURFACE_STYLE_USAGE ( .BOTH. , #166 ) ;
#253 = PRESENTATION_STYLE_ASSIGNMENT (( #19 ) ) ;
#254 = CIRCLE ( 'NONE', #324, 0.1562500000000000278 ) ;
#255 = PRESENTATION_STYLE_ASSIGNMENT (( #252 ) ) ;
#256 = CARTESIAN_POINT ( 'NONE',  ( -6.123233995736766036E-17, 2.500000000000000000, 0.000000000000000000 ) ) ;
#257 =( NAMED_UNIT ( * ) SI_UNIT ( $, .STERADIAN. ) SOLID_ANGLE_UNIT ( ) );
#258 = VERTEX_POINT ( 'NONE', #243 ) ;
#259 = SURFACE_STYLE_USAGE ( .BOTH. , #285 ) ;
#260 = ORIENTED_EDGE ( 'NONE', *, *, #128, .F. ) ;
#261 = FACE_OUTER_BOUND ( 'NONE', #235, .T. ) ;
#262 = EDGE_LOOP ( 'NONE', ( #174, #37, #211, #231 ) ) ;
#263 = PRESENTATION_LAYER_ASSIGNMENT (  '', '', ( #34 ) ) ;
#264 = CARTESIAN_POINT ( 'NONE',  ( -1.913510623667739771E-17, 0.1562500000000000278, 0.000000000000000000 ) ) ;
#265 = VERTEX_POINT ( 'NONE', #245 ) ;
#266 =( LENGTH_UNIT ( ) NAMED_UNIT ( * ) SI_UNIT ( $, .METRE. ) );
#267 = ORIENTED_EDGE ( 'NONE', *, *, #31, .T. ) ;
#268 = DIRECTION ( 'NONE',  ( 1.000000000000000000, 1.224646799147353207E-16, 0.000000000000000000 ) ) ;
#269 = UNCERTAINTY_MEASURE_WITH_UNIT (LENGTH_MEASURE( 1.000000000000000082E-05 ), #45, 'distance_accuracy_value', 'NONE');
#270 = CIRCLE ( 'NONE', #364, 0.1562500000000000000 ) ;
#271 = CARTESIAN_POINT ( 'NONE',  ( 1.454268073987481856E-16, 0.8125000000000000000, 0.000000000000000000 ) ) ;
#272 = DIRECTION ( 'NONE',  ( 0.000000000000000000, 0.000000000000000000, -1.000000000000000000 ) ) ;
#273 = EDGE_CURVE ( 'NONE', #109, #265, #350, .T. ) ;
#274 = LINE ( 'NONE', #365, #344 ) ;
#275 = DIRECTION ( 'NONE',  ( 0.000000000000000000, 0.000000000000000000, -1.000000000000000000 ) ) ;
#276 = CARTESIAN_POINT ( 'NONE',  ( 0.000000000000000000, 0.1562500000000000833, 0.000000000000000000 ) ) ;
#277 = CIRCLE ( 'NONE', #22, 0.1562499999999999722 ) ;
#278 =( NAMED_UNIT ( * ) PLANE_ANGLE_UNIT ( ) SI_UNIT ( $, .RADIAN. ) );
#279 = DIRECTION ( 'NONE',  ( 1.000000000000000000, 0.000000000000000000, -1.224646799147353207E-16 ) ) ;
#280 = EDGE_CURVE ( 'NONE', #199, #177, #274, .T. ) ;
#281 = PLANE ( 'NONE',  #107 ) ;
#282 = DIRECTION ( 'NONE',  ( 0.000000000000000000, 1.000000000000000000, 0.000000000000000000 ) ) ;
#283 =( GEOMETRIC_REPRESENTATION_CONTEXT ( 3 ) GLOBAL_UNCERTAINTY_ASSIGNED_CONTEXT ( ( #168 ) ) GLOBAL_UNIT_ASSIGNED_CONTEXT ( ( #85, #25, #207 ) ) REPRESENTATION_CONTEXT ( 'NONE', 'WORKASPACE' ) );
#284 = EDGE_CURVE ( 'NONE', #199, #314, #210, .T. ) ;
#285 = SURFACE_SIDE_STYLE ('',( #234 ) ) ;
#286 = PRESENTATION_LAYER_ASSIGNMENT (  '', '', ( #68 ) ) ;
#287 = DIRECTION ( 'NONE',  ( 1.000000000000000000, 0.000000000000000000, 0.000000000000000000 ) ) ;
#288 = ORIENTED_EDGE ( 'NONE', *, *, #17, .T. ) ;
#289 = SPHERICAL_SURFACE ( 'NONE', #88, 0.1562500000000000278 ) ;
#290 = ORIENTED_EDGE ( 'NONE', *, *, #280, .T. ) ;
#291 = PRESENTATION_LAYER_ASSIGNMENT (  '', '', ( #349 ) ) ;
#292 = PRESENTATION_LAYER_ASSIGNMENT (  '', '', ( #325 ) ) ;
#293 = FILL_AREA_STYLE ('',( #14 ) ) ;
#294 = ORIENTED_EDGE ( 'NONE', *, *, #372, .T. ) ;
#295 =( NAMED_UNIT ( * ) PLANE_ANGLE_UNIT ( ) SI_UNIT ( $, .RADIAN. ) );
#296 = DIRECTION ( 'NONE',  ( 0.000000000000000000, 0.000000000000000000, 1.000000000000000000 ) ) ;
#297 = SURFACE_STYLE_FILL_AREA ( #249 ) ;
#298 = CLOSED_SHELL ( 'NONE', ( #233, #38, #111, #220, #162 ) ) ;
#299 = SURFACE_STYLE_USAGE ( .BOTH. , #65 ) ;
#300 = DIRECTION ( 'NONE',  ( 1.000000000000000000, 0.000000000000000000, 0.000000000000000000 ) ) ;
#301 = PRESENTATION_STYLE_ASSIGNMENT (( #299 ) ) ;
#302 =( NAMED_UNIT ( * ) PLANE_ANGLE_UNIT ( ) SI_UNIT ( $, .RADIAN. ) );
#303 =( LENGTH_UNIT ( ) NAMED_UNIT ( * ) SI_UNIT ( $, .METRE. ) );
#304 = EDGE_CURVE ( 'NONE', #258, #109, #361, .T. ) ;
#305 = APPLICATION_PROTOCOL_DEFINITION ( 'draft international standard', 'automotive_design', 1998, #351 ) ;
#306 =( NAMED_UNIT ( * ) PLANE_ANGLE_UNIT ( ) SI_UNIT ( $, .RADIAN. ) );
#307 = CARTESIAN_POINT ( 'NONE',  ( 1.913510623667739463E-17, 0.1562500000000000833, 0.1562500000000000000 ) ) ;
#308 = MECHANICAL_DESIGN_GEOMETRIC_PRESENTATION_REPRESENTATION (  '', ( #34 ), #318 ) ;
#309 = MANIFOLD_SOLID_BREP ( 'Revolve - Cutting Edge', #298 ) ;
#310 =( NAMED_UNIT ( * ) SI_UNIT ( $, .STERADIAN. ) SOLID_ANGLE_UNIT ( ) );
#311 = DIMENSIONAL_EXPONENTS ( 1.000000000000000000, 0.000000000000000000, 0.000000000000000000, 0.000000000000000000, 0.000000000000000000, 0.000000000000000000, 0.000000000000000000 ) ;
#312 = UNCERTAINTY_MEASURE_WITH_UNIT (LENGTH_MEASURE( 1.000000000000000082E-05 ), #369, 'distance_accuracy_value', 'NONE');
#313 = PRESENTATION_STYLE_ASSIGNMENT (( #259 ) ) ;
#314 = VERTEX_POINT ( 'NONE', #213 ) ;
#315 = LENGTH_MEASURE_WITH_UNIT ( LENGTH_MEASURE( 0.02539999999999999897 ), #78 );
#316 = APPLICATION_CONTEXT ( 'automotive_design' ) ;
#317 = ORIENTED_EDGE ( 'NONE', *, *, #340, .F. ) ;
#318 =( GEOMETRIC_REPRESENTATION_CONTEXT ( 3 ) GLOBAL_UNCERTAINTY_ASSIGNED_CONTEXT ( ( #75 ) ) GLOBAL_UNIT_ASSIGNED_CONTEXT ( ( #184, #295, #96 ) ) REPRESENTATION_CONTEXT ( 'NONE', 'WORKASPACE' ) );
#319 = AXIS2_PLACEMENT_3D ( 'NONE', #276, #366, #136 ) ;
#320 = CARTESIAN_POINT ( 'NONE',  ( -6.123233995736766036E-17, 2.500000000000000000, 0.000000000000000000 ) ) ;
#321 = ORIENTED_EDGE ( 'NONE', *, *, #147, .F. ) ;
#322 = DIRECTION ( 'NONE',  ( -1.224646799147353207E-16, 1.000000000000000000, -0.000000000000000000 ) ) ;
#323 = ORIENTED_EDGE ( 'NONE', *, *, #284, .F. ) ;
#324 = AXIS2_PLACEMENT_3D ( 'NONE', #341, #196, #131 ) ;
#325 = STYLED_ITEM ( 'NONE', ( #173 ), #233 ) ;
#326 = DIRECTION ( 'NONE',  ( -1.224646799147353207E-16, 1.000000000000000000, -0.000000000000000000 ) ) ;
#327 = SURFACE_STYLE_FILL_AREA ( #15 ) ;
#328 = DIRECTION ( 'NONE',  ( -0.000000000000000000, -1.000000000000000000, -0.000000000000000000 ) ) ;
#329 = CIRCLE ( 'NONE', #167, 0.1562499999999997780 ) ;
#330 = AXIS2_PLACEMENT_3D ( 'NONE', #223, #188, #164 ) ;
#331 = CARTESIAN_POINT ( 'NONE',  ( -1.913510623667739771E-17, 0.1562500000000000278, 0.000000000000000000 ) ) ;
#332 = SURFACE_STYLE_USAGE ( .BOTH. , #123 ) ;
#333 = UNCERTAINTY_MEASURE_WITH_UNIT (LENGTH_MEASURE( 1.000000000000000082E-05 ), #182, 'distance_accuracy_value', 'NONE');
#334 = DIMENSIONAL_EXPONENTS ( 1.000000000000000000, 0.000000000000000000, 0.000000000000000000, 0.000000000000000000, 0.000000000000000000, 0.000000000000000000, 0.000000000000000000 ) ;
#335 = DIRECTION ( 'NONE',  ( 0.000000000000000000, 0.000000000000000000, -1.000000000000000000 ) ) ;
#336 = DIRECTION ( 'NONE',  ( -0.000000000000000000, -1.000000000000000000, -0.000000000000000000 ) ) ;
#337 = SHAPE_DEFINITION_REPRESENTATION ( #122, #104 ) ;
#338 = FACE_OUTER_BOUND ( 'NONE', #4, .T. ) ;
#339 = APPLICATION_PROTOCOL_DEFINITION ( 'draft international standard', 'automotive_design', 1998, #316 ) ;
#340 = EDGE_CURVE ( 'NONE', #84, #82, #270, .T. ) ;
#341 = CARTESIAN_POINT ( 'NONE',  ( -1.913510623667739771E-17, 0.1562500000000000278, 0.000000000000000000 ) ) ;
#342 = FILL_AREA_STYLE ('',( #227 ) ) ;
#343 = MECHANICAL_DESIGN_GEOMETRIC_PRESENTATION_REPRESENTATION (  '', ( #202 ), #190 ) ;
#344 = VECTOR ( 'NONE', #40, 39.37007874015748143 ) ;
#345 = DIRECTION ( 'NONE',  ( -1.000000000000000000, 0.000000000000000000, 0.000000000000000000 ) ) ;
#346 = FILL_AREA_STYLE_COLOUR ( '', #240 ) ;
#347 = DIRECTION ( 'NONE',  ( 0.000000000000000000, 0.000000000000000000, -1.000000000000000000 ) ) ;
#348 = ORIENTED_EDGE ( 'NONE', *, *, #353, .T. ) ;
#349 = STYLED_ITEM ( 'NONE', ( #253 ), #162 ) ;
#350 = CIRCLE ( 'NONE', #218, 0.1562499999999999722 ) ;
#351 = APPLICATION_CONTEXT ( 'automotive_design' ) ;
#352 = DIRECTION ( 'NONE',  ( -1.224646799147353207E-16, 1.000000000000000000, -0.000000000000000000 ) ) ;
#353 = EDGE_CURVE ( 'NONE', #203, #84, #101, .T. ) ;
#354 = ORIENTED_EDGE ( 'NONE', *, *, #367, .F. ) ;
#355 = SURFACE_STYLE_FILL_AREA ( #293 ) ;
#356 = AXIS2_PLACEMENT_3D ( 'NONE', #56, #322, #2 ) ;
#357 = AXIS2_PLACEMENT_3D ( 'NONE', #9, #60, #36 ) ;
#358 = DIRECTION ( 'NONE',  ( -0.000000000000000000, -1.000000000000000000, -0.000000000000000000 ) ) ;
#359 = SURFACE_STYLE_USAGE ( .BOTH. , #215 ) ;
#360 = CARTESIAN_POINT ( 'NONE',  ( 0.1562499999999999167, 2.500000000000000000, 0.000000000000000000 ) ) ;
#361 = LINE ( 'NONE', #219, #161 ) ;
#362 = ORIENTED_EDGE ( 'NONE', *, *, #187, .F. ) ;
#363 =( GEOMETRIC_REPRESENTATION_CONTEXT ( 3 ) GLOBAL_UNCERTAINTY_ASSIGNED_CONTEXT ( ( #154 ) ) GLOBAL_UNIT_ASSIGNED_CONTEXT ( ( #117, #306, #310 ) ) REPRESENTATION_CONTEXT ( 'NONE', 'WORKASPACE' ) );
#364 = AXIS2_PLACEMENT_3D ( 'NONE', #237, #358, #335 ) ;
#365 = CARTESIAN_POINT ( 'NONE',  ( 1.913510623667738539E-17, 0.000000000000000000, 0.1562499999999999445 ) ) ;
#366 = DIRECTION ( 'NONE',  ( -0.000000000000000000, -1.000000000000000000, -0.000000000000000000 ) ) ;
#367 = EDGE_CURVE ( 'NONE', #314, #199, #153, .T. ) ;
#368 = LINE ( 'NONE', #74, #197 ) ;
#369 =( CONVERSION_BASED_UNIT ( 'INCH', #105 ) LENGTH_UNIT ( ) NAMED_UNIT ( #141 ) );
#370 = COLOUR_RGB ( '',1.000000000000000000, 0.000000000000000000, 0.000000000000000000 ) ;
#371 = CIRCLE ( 'NONE', #115, 0.1562500000000000278 ) ;
#372 = EDGE_CURVE ( 'NONE', #203, #110, #371, .T. ) ;
#373 =( LENGTH_UNIT ( ) NAMED_UNIT ( * ) SI_UNIT ( $, .METRE. ) );
ENDSEC;
END-ISO-10303-21;
