ISO-10303-21;
HEADER;
FILE_DESCRIPTION (( 'STEP AP214' ),
    '1' );
FILE_NAME ('59818.STEP',
    '2023-07-12T13:06:12',
    ( '' ),
    ( '' ),
    'SwSTEP 2.0',
    'SolidWorks 2023',
    '' );
FILE_SCHEMA (( 'AUTOMOTIVE_DESIGN' ));
ENDSEC;

DATA;
#1 =( LENGTH_UNIT ( ) NAMED_UNIT ( * ) SI_UNIT ( $, .METRE. ) );
#2 = AXIS2_PLACEMENT_3D ( 'NONE', #181, #178, #59 ) ;
#3 = SURFACE_SIDE_STYLE ('',( #174 ) ) ;
#4 = DIRECTION ( 'NONE',  ( -1.000000000000000000, 0.000000000000000000, 0.000000000000000000 ) ) ;
#5 =( NAMED_UNIT ( * ) PLANE_ANGLE_UNIT ( ) SI_UNIT ( $, .RADIAN. ) );
#6 = AXIS2_PLACEMENT_3D ( 'NONE', #90, #163, #298 ) ;
#7 = MECHANICAL_DESIGN_GEOMETRIC_PRESENTATION_REPRESENTATION (  '', ( #53 ), #147 ) ;
#8 =( LENGTH_UNIT ( ) NAMED_UNIT ( * ) SI_UNIT ( $, .METRE. ) );
#9 = EDGE_CURVE ( 'NONE', #283, #189, #170, .T. ) ;
#10 = VERTEX_POINT ( 'NONE', #234 ) ;
#11 = FACE_OUTER_BOUND ( 'NONE', #49, .T. ) ;
#12 = EDGE_CURVE ( 'NONE', #129, #156, #132, .T. ) ;
#13 = VERTEX_POINT ( 'NONE', #51 ) ;
#14 = SURFACE_SIDE_STYLE ('',( #304 ) ) ;
#15 = SURFACE_STYLE_USAGE ( .BOTH. , #187 ) ;
#16 = ORIENTED_EDGE ( 'NONE', *, *, #155, .F. ) ;
#17 =( NAMED_UNIT ( * ) SI_UNIT ( $, .STERADIAN. ) SOLID_ANGLE_UNIT ( ) );
#18 = MECHANICAL_DESIGN_GEOMETRIC_PRESENTATION_REPRESENTATION (  '', ( #110 ), #122 ) ;
#19 = DIRECTION ( 'NONE',  ( 6.123233995736778362E-17, 0.8660254037844379305, -0.5000000000000009992 ) ) ;
#20 =( NAMED_UNIT ( * ) SI_UNIT ( $, .STERADIAN. ) SOLID_ANGLE_UNIT ( ) );
#21 = ORIENTED_EDGE ( 'NONE', *, *, #9, .F. ) ;
#22 =( NAMED_UNIT ( * ) SI_UNIT ( $, .STERADIAN. ) SOLID_ANGLE_UNIT ( ) );
#23 = AXIS2_PLACEMENT_3D ( 'NONE', #306, #98, #93 ) ;
#24 = ORIENTED_EDGE ( 'NONE', *, *, #226, .F. ) ;
#25 =( NAMED_UNIT ( * ) PLANE_ANGLE_UNIT ( ) SI_UNIT ( $, .RADIAN. ) );
#26 = UNCERTAINTY_MEASURE_WITH_UNIT (LENGTH_MEASURE( 1.000000000000000082E-05 ), #108, 'distance_accuracy_value', 'NONE');
#27 = CONICAL_SURFACE ( 'NONE', #199, 0.04499999999999999833, 0.5235987755983001479 ) ;
#28 = PRESENTATION_STYLE_ASSIGNMENT (( #121 ) ) ;
#29 = ADVANCED_FACE ( 'NONE', ( #92 ), #281, .T. ) ;
#30 = FILL_AREA_STYLE ('',( #261 ) ) ;
#31 = DIMENSIONAL_EXPONENTS ( 1.000000000000000000, 0.000000000000000000, 0.000000000000000000, 0.000000000000000000, 0.000000000000000000, 0.000000000000000000, 0.000000000000000000 ) ;
#32 = STYLED_ITEM ( 'NONE', ( #73 ), #94 ) ;
#33 = LINE ( 'NONE', #292, #153 ) ;
#34 = AXIS2_PLACEMENT_3D ( 'NONE', #50, #185, #139 ) ;
#35 =( NAMED_UNIT ( * ) PLANE_ANGLE_UNIT ( ) SI_UNIT ( $, .RADIAN. ) );
#36 = SURFACE_STYLE_USAGE ( .BOTH. , #151 ) ;
#37 = MECHANICAL_DESIGN_GEOMETRIC_PRESENTATION_REPRESENTATION (  '', ( #60 ), #180 ) ;
#38 = MECHANICAL_DESIGN_GEOMETRIC_PRESENTATION_REPRESENTATION (  '', ( #134 ), #76 ) ;
#39 = ORIENTED_EDGE ( 'NONE', *, *, #173, .T. ) ;
#40 = ORIENTED_EDGE ( 'NONE', *, *, #217, .T. ) ;
#41 = LENGTH_MEASURE_WITH_UNIT ( LENGTH_MEASURE( 0.02539999999999999897 ), #299 );
#42 = AXIS2_PLACEMENT_3D ( 'NONE', #286, #74, #66 ) ;
#43 = ORIENTED_EDGE ( 'NONE', *, *, #12, .F. ) ;
#44 = AXIS2_PLACEMENT_3D ( 'NONE', #177, #225, #4 ) ;
#45 = EDGE_LOOP ( 'NONE', ( #228, #135 ) ) ;
#46 = PRODUCT_DEFINITION ( 'UNKNOWN', '', #204, #245 ) ;
#47 = DIRECTION ( 'NONE',  ( 0.000000000000000000, 0.000000000000000000, -1.000000000000000000 ) ) ;
#48 = UNCERTAINTY_MEASURE_WITH_UNIT (LENGTH_MEASURE( 1.000000000000000082E-05 ), #254, 'distance_accuracy_value', 'NONE');
#49 = EDGE_LOOP ( 'NONE', ( #255, #89, #21, #24 ) ) ;
#50 = CARTESIAN_POINT ( 'NONE',  ( 0.000000000000000000, 0.000000000000000000, 0.000000000000000000 ) ) ;
#51 = CARTESIAN_POINT ( 'NONE',  ( 0.000000000000000000, 0.000000000000000000, 0.04499999999999999833 ) ) ;
#52 = PRODUCT_DEFINITION_SHAPE ( 'NONE', 'NONE',  #46 ) ;
#53 = STYLED_ITEM ( 'NONE', ( #28 ), #221 ) ;
#54 = DIRECTION ( 'NONE',  ( -1.443498496665532493E-16, 1.000000000000000000, -0.000000000000000000 ) ) ;
#55 = DIRECTION ( 'NONE',  ( -1.443498496665532493E-16, 1.000000000000000000, -0.000000000000000000 ) ) ;
#56 = APPLICATION_CONTEXT ( 'automotive_design' ) ;
#57 = UNCERTAINTY_MEASURE_WITH_UNIT (LENGTH_MEASURE( 1.000000000000000082E-05 ), #124, 'distance_accuracy_value', 'NONE');
#58 = DIRECTION ( 'NONE',  ( 0.000000000000000000, 1.000000000000000000, 0.000000000000000000 ) ) ;
#59 = DIRECTION ( 'NONE',  ( -1.000000000000000000, -1.443498496665532493E-16, 0.000000000000000000 ) ) ;
#60 = STYLED_ITEM ( 'NONE', ( #273 ), #290 ) ;
#61 = FILL_AREA_STYLE_COLOUR ( '', #194 ) ;
#62 = CYLINDRICAL_SURFACE ( 'NONE', #44, 0.3124999999999998890 ) ;
#63 = CIRCLE ( 'NONE', #232, 0.04499999999999999833 ) ;
#64 = LENGTH_MEASURE_WITH_UNIT ( LENGTH_MEASURE( 0.02539999999999999897 ), #284 );
#65 = ORIENTED_EDGE ( 'NONE', *, *, #214, .T. ) ;
#66 = DIRECTION ( 'NONE',  ( -1.000000000000000000, 0.000000000000000000, 0.000000000000000000 ) ) ;
#67 = ORIENTED_EDGE ( 'NONE', *, *, #12, .T. ) ;
#68 =( NAMED_UNIT ( * ) PLANE_ANGLE_UNIT ( ) SI_UNIT ( $, .RADIAN. ) );
#69 =( GEOMETRIC_REPRESENTATION_CONTEXT ( 3 ) GLOBAL_UNCERTAINTY_ASSIGNED_CONTEXT ( ( #288 ) ) GLOBAL_UNIT_ASSIGNED_CONTEXT ( ( #165, #25, #22 ) ) REPRESENTATION_CONTEXT ( 'NONE', 'WORKASPACE' ) );
#70 =( NAMED_UNIT ( * ) PLANE_ANGLE_UNIT ( ) SI_UNIT ( $, .RADIAN. ) );
#71 = LINE ( 'NONE', #164, #112 ) ;
#72 = ORIENTED_EDGE ( 'NONE', *, *, #169, .F. ) ;
#73 = PRESENTATION_STYLE_ASSIGNMENT (( #15 ) ) ;
#74 = DIRECTION ( 'NONE',  ( -1.443498496665532493E-16, 1.000000000000000000, -0.000000000000000000 ) ) ;
#75 = CIRCLE ( 'NONE', #84, 0.3125000000000000000 ) ;
#76 =( GEOMETRIC_REPRESENTATION_CONTEXT ( 3 ) GLOBAL_UNCERTAINTY_ASSIGNED_CONTEXT ( ( #57 ) ) GLOBAL_UNIT_ASSIGNED_CONTEXT ( ( #124, #5, #271 ) ) REPRESENTATION_CONTEXT ( 'NONE', 'WORKASPACE' ) );
#77 = FILL_AREA_STYLE_COLOUR ( '', #102 ) ;
#78 = FACE_OUTER_BOUND ( 'NONE', #45, .T. ) ;
#79 = LINE ( 'NONE', #200, #160 ) ;
#80 = CIRCLE ( 'NONE', #253, 0.04499999999999999833 ) ;
#81 =( NAMED_UNIT ( * ) SI_UNIT ( $, .STERADIAN. ) SOLID_ANGLE_UNIT ( ) );
#82 =( CONVERSION_BASED_UNIT ( 'INCH', #167 ) LENGTH_UNIT ( ) NAMED_UNIT ( #168 ) );
#83 = CARTESIAN_POINT ( 'NONE',  ( 0.000000000000000000, 0.000000000000000000, 0.000000000000000000 ) ) ;
#84 = AXIS2_PLACEMENT_3D ( 'NONE', #242, #148, #308 ) ;
#85 = FILL_AREA_STYLE_COLOUR ( '', #140 ) ;
#86 = AXIS2_PLACEMENT_3D ( 'NONE', #198, #142, #118 ) ;
#87 = LENGTH_MEASURE_WITH_UNIT ( LENGTH_MEASURE( 0.02539999999999999897 ), #8 );
#88 = EDGE_CURVE ( 'NONE', #13, #10, #80, .T. ) ;
#89 = ORIENTED_EDGE ( 'NONE', *, *, #169, .T. ) ;
#90 = CARTESIAN_POINT ( 'NONE',  ( 0.000000000000000000, 0.000000000000000000, 0.000000000000000000 ) ) ;
#91 = EDGE_CURVE ( 'NONE', #13, #107, #71, .T. ) ;
#92 = FACE_OUTER_BOUND ( 'NONE', #236, .T. ) ;
#93 = DIRECTION ( 'NONE',  ( 1.000000000000000000, 1.443498496665532493E-16, 0.000000000000000000 ) ) ;
#94 = ADVANCED_FACE ( 'NONE', ( #191 ), #146, .T. ) ;
#95 = ORIENTED_EDGE ( 'NONE', *, *, #9, .T. ) ;
#96 = AXIS2_PLACEMENT_3D ( 'NONE', #161, #116, #157 ) ;
#97 = EDGE_LOOP ( 'NONE', ( #238, #257 ) ) ;
#98 = DIRECTION ( 'NONE',  ( 1.443498496665532493E-16, -1.000000000000000000, 0.000000000000000000 ) ) ;
#99 =( CONVERSION_BASED_UNIT ( 'INCH', #220 ) LENGTH_UNIT ( ) NAMED_UNIT ( #144 ) );
#100 = COLOUR_RGB ( '',1.000000000000000000, 0.000000000000000000, 0.000000000000000000 ) ;
#101 = CARTESIAN_POINT ( 'NONE',  ( 3.049365183309128781E-16, 0.4633235910246734091, 0.000000000000000000 ) ) ;
#102 = COLOUR_RGB ( '',0.7921568627450980005, 0.8196078431372548767, 0.9333333333333333481 ) ;
#103 = DIMENSIONAL_EXPONENTS ( 1.000000000000000000, 0.000000000000000000, 0.000000000000000000, 0.000000000000000000, 0.000000000000000000, 0.000000000000000000, 0.000000000000000000 ) ;
#104 = FACE_OUTER_BOUND ( 'NONE', #239, .T. ) ;
#105 = LENGTH_MEASURE_WITH_UNIT ( LENGTH_MEASURE( 0.02539999999999999897 ), #203 );
#106 = VECTOR ( 'NONE', #19, 39.37007874015748854 ) ;
#107 = VERTEX_POINT ( 'NONE', #285 ) ;
#108 =( CONVERSION_BASED_UNIT ( 'INCH', #128 ) LENGTH_UNIT ( ) NAMED_UNIT ( #126 ) );
#109 = CARTESIAN_POINT ( 'NONE',  ( 3.049365183309128781E-16, 0.4633235910246734091, 0.000000000000000000 ) ) ;
#110 = STYLED_ITEM ( 'NONE', ( #248 ), #230 ) ;
#111 = DIRECTION ( 'NONE',  ( -1.000000000000000000, -2.185478394931412547E-16, 0.000000000000000000 ) ) ;
#112 = VECTOR ( 'NONE', #305, 39.37007874015748854 ) ;
#113 = CARTESIAN_POINT ( 'NONE',  ( -0.3124999999999994449, 0.4633235910246733535, 0.000000000000000000 ) ) ;
#114 = UNCERTAINTY_MEASURE_WITH_UNIT (LENGTH_MEASURE( 1.000000000000000082E-05 ), #82, 'distance_accuracy_value', 'NONE');
#115 = ORIENTED_EDGE ( 'NONE', *, *, #120, .F. ) ;
#116 = DIRECTION ( 'NONE',  ( 0.000000000000000000, -1.000000000000000000, -0.000000000000000000 ) ) ;
#117 = LINE ( 'NONE', #300, #106 ) ;
#118 = DIRECTION ( 'NONE',  ( 0.000000000000000000, 0.000000000000000000, -1.000000000000000000 ) ) ;
#119 = DIRECTION ( 'NONE',  ( -1.443498496665532493E-16, 1.000000000000000000, -0.000000000000000000 ) ) ;
#120 = EDGE_CURVE ( 'NONE', #10, #138, #117, .T. ) ;
#121 = SURFACE_STYLE_USAGE ( .BOTH. , #287 ) ;
#122 =( GEOMETRIC_REPRESENTATION_CONTEXT ( 3 ) GLOBAL_UNCERTAINTY_ASSIGNED_CONTEXT ( ( #218 ) ) GLOBAL_UNIT_ASSIGNED_CONTEXT ( ( #272, #270, #123 ) ) REPRESENTATION_CONTEXT ( 'NONE', 'WORKASPACE' ) );
#123 =( NAMED_UNIT ( * ) SI_UNIT ( $, .STERADIAN. ) SOLID_ANGLE_UNIT ( ) );
#124 =( CONVERSION_BASED_UNIT ( 'INCH', #87 ) LENGTH_UNIT ( ) NAMED_UNIT ( #219 ) );
#125 = CLOSED_SHELL ( 'NONE', ( #258, #230, #94, #290 ) ) ;
#126 = DIMENSIONAL_EXPONENTS ( 1.000000000000000000, 0.000000000000000000, 0.000000000000000000, 0.000000000000000000, 0.000000000000000000, 0.000000000000000000, 0.000000000000000000 ) ;
#127 = ORIENTED_EDGE ( 'NONE', *, *, #226, .T. ) ;
#128 = LENGTH_MEASURE_WITH_UNIT ( LENGTH_MEASURE( 0.02539999999999999897 ), #183 );
#129 = VERTEX_POINT ( 'NONE', #136 ) ;
#130 = ADVANCED_FACE ( 'NONE', ( #209 ), #184, .F. ) ;
#131 = ORIENTED_EDGE ( 'NONE', *, *, #91, .T. ) ;
#132 = CIRCLE ( 'NONE', #211, 0.3124999999999997224 ) ;
#133 = DIRECTION ( 'NONE',  ( 0.000000000000000000, 0.000000000000000000, -1.000000000000000000 ) ) ;
#134 = STYLED_ITEM ( 'NONE', ( #293 ), #258 ) ;
#135 = ORIENTED_EDGE ( 'NONE', *, *, #217, .F. ) ;
#136 = CARTESIAN_POINT ( 'NONE',  ( 0.3125000000000000000, 0.4633235910246734646, 3.827021247335478926E-17 ) ) ;
#137 = CARTESIAN_POINT ( 'NONE',  ( 3.827021247335479543E-17, 0.4633235910246734091, -0.3125000000000000000 ) ) ;
#138 = VERTEX_POINT ( 'NONE', #137 ) ;
#139 = DIRECTION ( 'NONE',  ( 1.000000000000000000, 0.000000000000000000, 0.000000000000000000 ) ) ;
#140 = COLOUR_RGB ( '',1.000000000000000000, 0.000000000000000000, 0.000000000000000000 ) ;
#141 = CARTESIAN_POINT ( 'NONE',  ( -6.123233995736770966E-17, 3.000000000000000444, 0.000000000000000000 ) ) ;
#142 = DIRECTION ( 'NONE',  ( -0.000000000000000000, -1.000000000000000000, -0.000000000000000000 ) ) ;
#143 = UNCERTAINTY_MEASURE_WITH_UNIT (LENGTH_MEASURE( 1.000000000000000082E-05 ), #99, 'distance_accuracy_value', 'NONE');
#144 = DIMENSIONAL_EXPONENTS ( 1.000000000000000000, 0.000000000000000000, 0.000000000000000000, 0.000000000000000000, 0.000000000000000000, 0.000000000000000000, 0.000000000000000000 ) ;
#145 = SURFACE_STYLE_USAGE ( .BOTH. , #262 ) ;
#146 = CONICAL_SURFACE ( 'NONE', #6, 0.04499999999999999833, 0.5235987755983001479 ) ;
#147 =( GEOMETRIC_REPRESENTATION_CONTEXT ( 3 ) GLOBAL_UNCERTAINTY_ASSIGNED_CONTEXT ( ( #143 ) ) GLOBAL_UNIT_ASSIGNED_CONTEXT ( ( #99, #243, #81 ) ) REPRESENTATION_CONTEXT ( 'NONE', 'WORKASPACE' ) );
#148 = DIRECTION ( 'NONE',  ( -0.000000000000000000, -1.000000000000000000, -0.000000000000000000 ) ) ;
#149 = CARTESIAN_POINT ( 'NONE',  ( -0.3125000000000001665, 3.000000000000000444, 0.000000000000000000 ) ) ;
#150 = PRESENTATION_LAYER_ASSIGNMENT (  '', '', ( #110 ) ) ;
#151 = SURFACE_SIDE_STYLE ('',( #201 ) ) ;
#152 = FILL_AREA_STYLE ('',( #61 ) ) ;
#153 = VECTOR ( 'NONE', #54, 39.37007874015748143 ) ;
#154 = SURFACE_STYLE_USAGE ( .BOTH. , #14 ) ;
#155 = EDGE_CURVE ( 'NONE', #10, #13, #63, .T. ) ;
#156 = VERTEX_POINT ( 'NONE', #113 ) ;
#157 = DIRECTION ( 'NONE',  ( 0.000000000000000000, 0.000000000000000000, -1.000000000000000000 ) ) ;
#158 = DIRECTION ( 'NONE',  ( -0.000000000000000000, -1.000000000000000000, -0.000000000000000000 ) ) ;
#159 = ORIENTED_EDGE ( 'NONE', *, *, #120, .T. ) ;
#160 = VECTOR ( 'NONE', #267, 39.37007874015748143 ) ;
#161 = CARTESIAN_POINT ( 'NONE',  ( 0.000000000000000000, 0.000000000000000000, 0.000000000000000000 ) ) ;
#162 = STYLED_ITEM ( 'NONE', ( #264 ), #222 ) ;
#163 = DIRECTION ( 'NONE',  ( 0.000000000000000000, 1.000000000000000000, 0.000000000000000000 ) ) ;
#164 = CARTESIAN_POINT ( 'NONE',  ( 0.000000000000000000, 0.000000000000000000, 0.04499999999999999833 ) ) ;
#165 =( CONVERSION_BASED_UNIT ( 'INCH', #41 ) LENGTH_UNIT ( ) NAMED_UNIT ( #31 ) );
#166 = SURFACE_STYLE_FILL_AREA ( #244 ) ;
#167 = LENGTH_MEASURE_WITH_UNIT ( LENGTH_MEASURE( 0.02539999999999999897 ), #175 );
#168 = DIMENSIONAL_EXPONENTS ( 1.000000000000000000, 0.000000000000000000, 0.000000000000000000, 0.000000000000000000, 0.000000000000000000, 0.000000000000000000, 0.000000000000000000 ) ;
#169 = EDGE_CURVE ( 'NONE', #129, #189, #79, .T. ) ;
#170 = CIRCLE ( 'NONE', #302, 0.3125000000000000555 ) ;
#171 = CARTESIAN_POINT ( 'NONE',  ( 0.3125000000000000000, 3.000000000000000444, 3.827021247335478926E-17 ) ) ;
#172 = AXIS2_PLACEMENT_3D ( 'NONE', #141, #119, #289 ) ;
#173 = EDGE_CURVE ( 'NONE', #189, #283, #301, .T. ) ;
#174 = SURFACE_STYLE_FILL_AREA ( #275 ) ;
#175 =( LENGTH_UNIT ( ) NAMED_UNIT ( * ) SI_UNIT ( $, .METRE. ) );
#176 = PRODUCT_RELATED_PRODUCT_CATEGORY ( 'part', '', ( #241 ) ) ;
#177 = CARTESIAN_POINT ( 'NONE',  ( -6.123233995736772199E-17, 3.000000000000000444, 0.000000000000000000 ) ) ;
#178 = DIRECTION ( 'NONE',  ( -1.443498496665532493E-16, 1.000000000000000000, 0.000000000000000000 ) ) ;
#179 = MECHANICAL_DESIGN_GEOMETRIC_PRESENTATION_REPRESENTATION (  '', ( #32 ), #69 ) ;
#180 =( GEOMETRIC_REPRESENTATION_CONTEXT ( 3 ) GLOBAL_UNCERTAINTY_ASSIGNED_CONTEXT ( ( #48 ) ) GLOBAL_UNIT_ASSIGNED_CONTEXT ( ( #254, #68, #20 ) ) REPRESENTATION_CONTEXT ( 'NONE', 'WORKASPACE' ) );
#181 = CARTESIAN_POINT ( 'NONE',  ( 3.049365183309128781E-16, 0.4633235910246734091, 0.000000000000000000 ) ) ;
#182 = COLOUR_RGB ( '',0.7921568627450980005, 0.8196078431372548767, 0.9333333333333333481 ) ;
#183 =( LENGTH_UNIT ( ) NAMED_UNIT ( * ) SI_UNIT ( $, .METRE. ) );
#184 = PLANE ( 'NONE',  #23 ) ;
#185 = DIRECTION ( 'NONE',  ( 0.000000000000000000, 0.000000000000000000, 1.000000000000000000 ) ) ;
#186 = DIRECTION ( 'NONE',  ( -1.443498496665532493E-16, 1.000000000000000000, -0.000000000000000000 ) ) ;
#187 = SURFACE_SIDE_STYLE ('',( #260 ) ) ;
#188 = PRESENTATION_LAYER_ASSIGNMENT (  '', '', ( #60 ) ) ;
#189 = VERTEX_POINT ( 'NONE', #171 ) ;
#190 = APPLICATION_PROTOCOL_DEFINITION ( 'draft international standard', 'automotive_design', 1998, #56 ) ;
#191 = FACE_OUTER_BOUND ( 'NONE', #296, .T. ) ;
#192 = CARTESIAN_POINT ( 'NONE',  ( 0.000000000000000000, 0.000000000000000000, 0.000000000000000000 ) ) ;
#193 = EDGE_CURVE ( 'NONE', #156, #129, #268, .T. ) ;
#194 = COLOUR_RGB ( '',1.000000000000000000, 0.000000000000000000, 0.000000000000000000 ) ;
#195 = DIRECTION ( 'NONE',  ( -1.000000000000000000, -2.185478394931412547E-16, 0.000000000000000000 ) ) ;
#196 = DIMENSIONAL_EXPONENTS ( 1.000000000000000000, 0.000000000000000000, 0.000000000000000000, 0.000000000000000000, 0.000000000000000000, 0.000000000000000000, 0.000000000000000000 ) ;
#197 = CIRCLE ( 'NONE', #86, 0.3125000000000000000 ) ;
#198 = CARTESIAN_POINT ( 'NONE',  ( 0.000000000000000000, 0.4633235910246734091, 0.000000000000000000 ) ) ;
#199 = AXIS2_PLACEMENT_3D ( 'NONE', #83, #58, #229 ) ;
#200 = CARTESIAN_POINT ( 'NONE',  ( 0.3124999999999998335, 3.000000000000000444, 3.827021247335477078E-17 ) ) ;
#201 = SURFACE_STYLE_FILL_AREA ( #205 ) ;
#202 = FACE_OUTER_BOUND ( 'NONE', #280, .T. ) ;
#203 =( LENGTH_UNIT ( ) NAMED_UNIT ( * ) SI_UNIT ( $, .METRE. ) );
#204 = PRODUCT_DEFINITION_FORMATION_WITH_SPECIFIED_SOURCE ( 'ANY', '', #241, .NOT_KNOWN. ) ;
#205 = FILL_AREA_STYLE ('',( #85 ) ) ;
#206 = ORIENTED_EDGE ( 'NONE', *, *, #88, .F. ) ;
#207 = DIRECTION ( 'NONE',  ( -1.000000000000000000, 0.000000000000000000, 0.000000000000000000 ) ) ;
#208 = ADVANCED_BREP_SHAPE_REPRESENTATION ( '59818', ( #221, #222, #34 ), #213 ) ;
#209 = FACE_OUTER_BOUND ( 'NONE', #303, .T. ) ;
#210 = CLOSED_SHELL ( 'NONE', ( #249, #266, #29, #130 ) ) ;
#211 = AXIS2_PLACEMENT_3D ( 'NONE', #109, #186, #111 ) ;
#212 = DIRECTION ( 'NONE',  ( -1.443498496665532493E-16, 1.000000000000000000, -0.000000000000000000 ) ) ;
#213 =( GEOMETRIC_REPRESENTATION_CONTEXT ( 3 ) GLOBAL_UNCERTAINTY_ASSIGNED_CONTEXT ( ( #26 ) ) GLOBAL_UNIT_ASSIGNED_CONTEXT ( ( #108, #70, #17 ) ) REPRESENTATION_CONTEXT ( 'NONE', 'WORKASPACE' ) );
#214 = EDGE_CURVE ( 'NONE', #107, #138, #75, .T. ) ;
#215 = ORIENTED_EDGE ( 'NONE', *, *, #173, .F. ) ;
#216 = APPLICATION_PROTOCOL_DEFINITION ( 'draft international standard', 'automotive_design', 1998, #263 ) ;
#217 = EDGE_CURVE ( 'NONE', #138, #107, #197, .T. ) ;
#218 = UNCERTAINTY_MEASURE_WITH_UNIT (LENGTH_MEASURE( 1.000000000000000082E-05 ), #272, 'distance_accuracy_value', 'NONE');
#219 = DIMENSIONAL_EXPONENTS ( 1.000000000000000000, 0.000000000000000000, 0.000000000000000000, 0.000000000000000000, 0.000000000000000000, 0.000000000000000000, 0.000000000000000000 ) ;
#220 = LENGTH_MEASURE_WITH_UNIT ( LENGTH_MEASURE( 0.02539999999999999897 ), #1 );
#221 = MANIFOLD_SOLID_BREP ( 'Revolve - Cutting Edge', #125 ) ;
#222 = MANIFOLD_SOLID_BREP ( 'Revolve - Tool Body (Tipped Off)', #210 ) ;
#223 = PLANE ( 'NONE',  #2 ) ;
#224 = PLANE ( 'NONE',  #297 ) ;
#225 = DIRECTION ( 'NONE',  ( -1.443498496665532493E-16, 1.000000000000000000, -0.000000000000000000 ) ) ;
#226 = EDGE_CURVE ( 'NONE', #156, #283, #33, .T. ) ;
#227 = CARTESIAN_POINT ( 'NONE',  ( 0.000000000000000000, 0.4633235910246734091, 0.000000000000000000 ) ) ;
#228 = ORIENTED_EDGE ( 'NONE', *, *, #214, .F. ) ;
#229 = DIRECTION ( 'NONE',  ( 0.000000000000000000, 0.000000000000000000, 1.000000000000000000 ) ) ;
#230 = ADVANCED_FACE ( 'NONE', ( #78 ), #224, .T. ) ;
#231 = ORIENTED_EDGE ( 'NONE', *, *, #193, .F. ) ;
#232 = AXIS2_PLACEMENT_3D ( 'NONE', #192, #259, #47 ) ;
#233 = FILL_AREA_STYLE_COLOUR ( '', #269 ) ;
#234 = CARTESIAN_POINT ( 'NONE',  ( 2.189056153475893941E-17, 0.000000000000000000, -0.04499999999999999833 ) ) ;
#235 = PRESENTATION_LAYER_ASSIGNMENT (  '', '', ( #134 ) ) ;
#236 = EDGE_LOOP ( 'NONE', ( #72, #67, #127, #215 ) ) ;
#237 = FILL_AREA_STYLE ('',( #256 ) ) ;
#238 = ORIENTED_EDGE ( 'NONE', *, *, #88, .T. ) ;
#239 = EDGE_LOOP ( 'NONE', ( #16, #159, #40, #276 ) ) ;
#240 = SHAPE_DEFINITION_REPRESENTATION ( #52, #208 ) ;
#241 = PRODUCT ( '59818', '59818', '', ( #277 ) ) ;
#242 = CARTESIAN_POINT ( 'NONE',  ( 0.000000000000000000, 0.4633235910246734091, 0.000000000000000000 ) ) ;
#243 =( NAMED_UNIT ( * ) PLANE_ANGLE_UNIT ( ) SI_UNIT ( $, .RADIAN. ) );
#244 = FILL_AREA_STYLE ('',( #77 ) ) ;
#245 = PRODUCT_DEFINITION_CONTEXT ( 'detailed design', #56, 'design' ) ;
#246 = PRESENTATION_LAYER_ASSIGNMENT (  '', '', ( #162 ) ) ;
#247 =( NAMED_UNIT ( * ) SI_UNIT ( $, .STERADIAN. ) SOLID_ANGLE_UNIT ( ) );
#248 = PRESENTATION_STYLE_ASSIGNMENT (( #251 ) ) ;
#249 = ADVANCED_FACE ( 'NONE', ( #11 ), #62, .T. ) ;
#250 = PLANE ( 'NONE',  #96 ) ;
#251 = SURFACE_STYLE_USAGE ( .BOTH. , #3 ) ;
#252 = FACE_OUTER_BOUND ( 'NONE', #97, .T. ) ;
#253 = AXIS2_PLACEMENT_3D ( 'NONE', #278, #158, #133 ) ;
#254 =( CONVERSION_BASED_UNIT ( 'INCH', #64 ) LENGTH_UNIT ( ) NAMED_UNIT ( #103 ) );
#255 = ORIENTED_EDGE ( 'NONE', *, *, #193, .T. ) ;
#256 = FILL_AREA_STYLE_COLOUR ( '', #100 ) ;
#257 = ORIENTED_EDGE ( 'NONE', *, *, #155, .T. ) ;
#258 = ADVANCED_FACE ( 'NONE', ( #104 ), #27, .T. ) ;
#259 = DIRECTION ( 'NONE',  ( -0.000000000000000000, -1.000000000000000000, -0.000000000000000000 ) ) ;
#260 = SURFACE_STYLE_FILL_AREA ( #237 ) ;
#261 = FILL_AREA_STYLE_COLOUR ( '', #182 ) ;
#262 = SURFACE_SIDE_STYLE ('',( #166 ) ) ;
#263 = APPLICATION_CONTEXT ( 'automotive_design' ) ;
#264 = PRESENTATION_STYLE_ASSIGNMENT (( #145 ) ) ;
#265 = MECHANICAL_DESIGN_GEOMETRIC_PRESENTATION_REPRESENTATION (  '', ( #162 ), #274 ) ;
#266 = ADVANCED_FACE ( 'NONE', ( #202 ), #223, .F. ) ;
#267 = DIRECTION ( 'NONE',  ( -1.443498496665532493E-16, 1.000000000000000000, -0.000000000000000000 ) ) ;
#268 = CIRCLE ( 'NONE', #307, 0.3124999999999997224 ) ;
#269 = COLOUR_RGB ( '',1.000000000000000000, 0.000000000000000000, 0.000000000000000000 ) ;
#270 =( NAMED_UNIT ( * ) PLANE_ANGLE_UNIT ( ) SI_UNIT ( $, .RADIAN. ) );
#271 =( NAMED_UNIT ( * ) SI_UNIT ( $, .STERADIAN. ) SOLID_ANGLE_UNIT ( ) );
#272 =( CONVERSION_BASED_UNIT ( 'INCH', #105 ) LENGTH_UNIT ( ) NAMED_UNIT ( #196 ) );
#273 = PRESENTATION_STYLE_ASSIGNMENT (( #154 ) ) ;
#274 =( GEOMETRIC_REPRESENTATION_CONTEXT ( 3 ) GLOBAL_UNCERTAINTY_ASSIGNED_CONTEXT ( ( #114 ) ) GLOBAL_UNIT_ASSIGNED_CONTEXT ( ( #82, #35, #247 ) ) REPRESENTATION_CONTEXT ( 'NONE', 'WORKASPACE' ) );
#275 = FILL_AREA_STYLE ('',( #233 ) ) ;
#276 = ORIENTED_EDGE ( 'NONE', *, *, #91, .F. ) ;
#277 = PRODUCT_CONTEXT ( 'NONE', #263, 'mechanical' ) ;
#278 = CARTESIAN_POINT ( 'NONE',  ( 0.000000000000000000, 0.000000000000000000, 0.000000000000000000 ) ) ;
#279 = CARTESIAN_POINT ( 'NONE',  ( -6.123233995736770966E-17, 3.000000000000000444, 0.000000000000000000 ) ) ;
#280 = EDGE_LOOP ( 'NONE', ( #231, #43 ) ) ;
#281 = CYLINDRICAL_SURFACE ( 'NONE', #42, 0.3124999999999998890 ) ;
#282 = PRESENTATION_LAYER_ASSIGNMENT (  '', '', ( #53 ) ) ;
#283 = VERTEX_POINT ( 'NONE', #149 ) ;
#284 =( LENGTH_UNIT ( ) NAMED_UNIT ( * ) SI_UNIT ( $, .METRE. ) );
#285 = CARTESIAN_POINT ( 'NONE',  ( 0.000000000000000000, 0.4633235910246734091, 0.3125000000000000000 ) ) ;
#286 = CARTESIAN_POINT ( 'NONE',  ( -6.123233995736772199E-17, 3.000000000000000444, 0.000000000000000000 ) ) ;
#287 = SURFACE_SIDE_STYLE ('',( #291 ) ) ;
#288 = UNCERTAINTY_MEASURE_WITH_UNIT (LENGTH_MEASURE( 1.000000000000000082E-05 ), #165, 'distance_accuracy_value', 'NONE');
#289 = DIRECTION ( 'NONE',  ( -1.000000000000000000, 0.000000000000000000, 0.000000000000000000 ) ) ;
#290 = ADVANCED_FACE ( 'NONE', ( #252 ), #250, .T. ) ;
#291 = SURFACE_STYLE_FILL_AREA ( #30 ) ;
#292 = CARTESIAN_POINT ( 'NONE',  ( -0.3124999999999999445, 3.000000000000000444, 0.000000000000000000 ) ) ;
#293 = PRESENTATION_STYLE_ASSIGNMENT (( #36 ) ) ;
#294 = DIRECTION ( 'NONE',  ( 0.000000000000000000, 1.000000000000000000, 0.000000000000000000 ) ) ;
#295 = DIRECTION ( 'NONE',  ( 0.000000000000000000, -0.000000000000000000, 1.000000000000000000 ) ) ;
#296 = EDGE_LOOP ( 'NONE', ( #115, #206, #131, #65 ) ) ;
#297 = AXIS2_PLACEMENT_3D ( 'NONE', #227, #294, #295 ) ;
#298 = DIRECTION ( 'NONE',  ( 0.000000000000000000, 0.000000000000000000, 1.000000000000000000 ) ) ;
#299 =( LENGTH_UNIT ( ) NAMED_UNIT ( * ) SI_UNIT ( $, .METRE. ) );
#300 = CARTESIAN_POINT ( 'NONE',  ( 5.510910596163089556E-18, 0.000000000000000000, -0.04499999999999999833 ) ) ;
#301 = CIRCLE ( 'NONE', #172, 0.3125000000000000555 ) ;
#302 = AXIS2_PLACEMENT_3D ( 'NONE', #279, #212, #207 ) ;
#303 = EDGE_LOOP ( 'NONE', ( #95, #39 ) ) ;
#304 = SURFACE_STYLE_FILL_AREA ( #152 ) ;
#305 = DIRECTION ( 'NONE',  ( 0.000000000000000000, 0.8660254037844379305, 0.5000000000000009992 ) ) ;
#306 = CARTESIAN_POINT ( 'NONE',  ( 0.3125000000000000000, 3.000000000000000444, 0.000000000000000000 ) ) ;
#307 = AXIS2_PLACEMENT_3D ( 'NONE', #101, #55, #195 ) ;
#308 = DIRECTION ( 'NONE',  ( 0.000000000000000000, 0.000000000000000000, -1.000000000000000000 ) ) ;
#309 = PRESENTATION_LAYER_ASSIGNMENT (  '', '', ( #32 ) ) ;
ENDSEC;
END-ISO-10303-21;
