ISO-10303-21;
HEADER;
FILE_DESCRIPTION (( 'STEP AP214' ),
    '1' );
FILE_NAME ('Micro_RTCM-030-2X.STEP',
    '2021-09-03T18:19:31',
    ( '' ),
    ( '' ),
    'SwSTEP 2.0',
    'SolidWorks 2020',
    '' );
FILE_SCHEMA (( 'AUTOMOTIVE_DESIGN' ));
ENDSEC;

DATA;
#1 = CONICAL_SURFACE ( 'NONE', #57, 0.003936999999999995191, 0.2617993877991502960 ) ;
#2 = DIRECTION ( 'NONE',  ( 1.000000000000000000, 0.0000000000000000000, -0.0000000000000000000 ) ) ;
#3 = DIRECTION ( 'NONE',  ( -0.0000000000000000000, -0.0000000000000000000, -1.000000000000000000 ) ) ;
#4 = LINE ( 'NONE', #96, #215 ) ;
#5 = CARTESIAN_POINT ( 'NONE',  ( 0.0000000000000000000, 0.0000000000000000000, 0.0000000000000000000 ) ) ;
#6 = AXIS2_PLACEMENT_3D ( 'NONE', #170, #3, #249 ) ;
#7 = ADVANCED_FACE ( 'NONE', ( #130 ), #81, .T. ) ;
#8 = CIRCLE ( 'NONE', #120, 0.05905500000000001720 ) ;
#9 = LINE ( 'NONE', #201, #246 ) ;
#10 = ORIENTED_EDGE ( 'NONE', *, *, #191, .T. ) ;
#11 = CARTESIAN_POINT ( 'NONE',  ( 0.05905500000000001720, 7.232151672364695422E-18, 0.2057031764115806738 ) ) ;
#12 = VERTEX_POINT ( 'NONE', #197 ) ;
#13 = PRESENTATION_LAYER_ASSIGNMENT (  '', '', ( #61 ) ) ;
#14 = EDGE_LOOP ( 'NONE', ( #86, #211 ) ) ;
#15 = PRODUCT_DEFINITION ( 'UNKNOWN', '', #137, #54 ) ;
#16 = FILL_AREA_STYLE_COLOUR ( '', #51 ) ;
#17 = ORIENTED_EDGE ( 'NONE', *, *, #228, .T. ) ;
#18 = DIRECTION ( 'NONE',  ( -0.0000000000000000000, -0.0000000000000000000, -1.000000000000000000 ) ) ;
#19 = DIRECTION ( 'NONE',  ( -0.0000000000000000000, -0.0000000000000000000, -1.000000000000000000 ) ) ;
#20 = PRESENTATION_STYLE_ASSIGNMENT (( #188 ) ) ;
#21 = CIRCLE ( 'NONE', #6, 0.05905500000000001720 ) ;
#22 = DIRECTION ( 'NONE',  ( -1.000000000000000000, 0.0000000000000000000, 0.0000000000000000000 ) ) ;
#23 = ADVANCED_FACE ( 'NONE', ( #94 ), #200, .T. ) ;
#24 = DIRECTION ( 'NONE',  ( -0.0000000000000000000, -0.0000000000000000000, -1.000000000000000000 ) ) ;
#25 =( LENGTH_UNIT ( ) NAMED_UNIT ( * ) SI_UNIT ( $, .METRE. ) );
#26 = EDGE_CURVE ( 'NONE', #166, #12, #155, .T. ) ;
#27 = CARTESIAN_POINT ( 'NONE',  ( -0.003936999999999995191, 4.821434448243123477E-19, 0.0000000000000000000 ) ) ;
#28 = CLOSED_SHELL ( 'NONE', ( #82, #23, #235, #7, #231, #100, #111, #106 ) ) ;
#29 = EDGE_CURVE ( 'NONE', #12, #226, #21, .T. ) ;
#30 =( CONVERSION_BASED_UNIT ( 'INCH', #182 ) LENGTH_UNIT ( ) NAMED_UNIT ( #92 ) );
#31 = APPLICATION_CONTEXT ( 'automotive_design' ) ;
#32 = LINE ( 'NONE', #63, #136 ) ;
#33 = EDGE_CURVE ( 'NONE', #181, #103, #206, .T. ) ;
#34 = ORIENTED_EDGE ( 'NONE', *, *, #66, .F. ) ;
#35 = ORIENTED_EDGE ( 'NONE', *, *, #203, .F. ) ;
#36 = DIRECTION ( 'NONE',  ( -0.0000000000000000000, -0.0000000000000000000, -1.000000000000000000 ) ) ;
#37 = DIRECTION ( 'NONE',  ( 1.000000000000000000, 0.0000000000000000000, 0.0000000000000000000 ) ) ;
#38 = CARTESIAN_POINT ( 'NONE',  ( 0.0000000000000000000, 0.0000000000000000000, 1.496062999999999921 ) ) ;
#39 = AXIS2_PLACEMENT_3D ( 'NONE', #219, #153, #22 ) ;
#40 = PRESENTATION_STYLE_ASSIGNMENT (( #134 ) ) ;
#41 = DIRECTION ( 'NONE',  ( -0.2588190451025216832, 3.169619151431776035E-17, 0.9659258262890679791 ) ) ;
#42 = CARTESIAN_POINT ( 'NONE',  ( 0.003936999999999995191, 0.0000000000000000000, 1.496062999999999921 ) ) ;
#43 = AXIS2_PLACEMENT_3D ( 'NONE', #133, #56, #236 ) ;
#44 = PRODUCT ( 'Micro_RTCM-030-2X', 'Micro_RTCM-030-2X', '', ( #107 ) ) ;
#45 = DIMENSIONAL_EXPONENTS ( 1.000000000000000000, 0.0000000000000000000, 0.0000000000000000000, 0.0000000000000000000, 0.0000000000000000000, 0.0000000000000000000, 0.0000000000000000000 ) ;
#46 = CIRCLE ( 'NONE', #192, 0.003936999999999995191 ) ;
#47 = CYLINDRICAL_SURFACE ( 'NONE', #179, 0.05905500000000001720 ) ;
#48 = ORIENTED_EDGE ( 'NONE', *, *, #123, .T. ) ;
#49 = ORIENTED_EDGE ( 'NONE', *, *, #146, .T. ) ;
#50 = CONICAL_SURFACE ( 'NONE', #158, 0.003936999999999995191, 0.2617993877991502960 ) ;
#51 = COLOUR_RGB ( '',0.7921568627450980005, 0.8196078431372548767, 0.9333333333333333481 ) ;
#52 =( LENGTH_UNIT ( ) NAMED_UNIT ( * ) SI_UNIT ( $, .METRE. ) );
#53 = ORIENTED_EDGE ( 'NONE', *, *, #71, .F. ) ;
#54 = PRODUCT_DEFINITION_CONTEXT ( 'detailed design', #119, 'design' ) ;
#55 = EDGE_LOOP ( 'NONE', ( #72, #149, #229, #164 ) ) ;
#56 = DIRECTION ( 'NONE',  ( -0.0000000000000000000, -0.0000000000000000000, -1.000000000000000000 ) ) ;
#57 = AXIS2_PLACEMENT_3D ( 'NONE', #151, #116, #37 ) ;
#58 = FILL_AREA_STYLE_COLOUR ( '', #178 ) ;
#59 = DIRECTION ( 'NONE',  ( -1.000000000000000000, 0.0000000000000000000, 0.0000000000000000000 ) ) ;
#60 = CARTESIAN_POINT ( 'NONE',  ( -0.05905500000000001720, 0.0000000000000000000, 1.290359823588419275 ) ) ;
#61 = STYLED_ITEM ( 'NONE', ( #20 ), #204 ) ;
#62 = FACE_OUTER_BOUND ( 'NONE', #230, .T. ) ;
#63 = CARTESIAN_POINT ( 'NONE',  ( -0.003936999999999995191, -4.821434448243123477E-19, 1.496062999999999921 ) ) ;
#64 = VECTOR ( 'NONE', #19, 39.37007874015748143 ) ;
#65 = AXIS2_PLACEMENT_3D ( 'NONE', #184, #202, #223 ) ;
#66 = EDGE_CURVE ( 'NONE', #105, #226, #4, .T. ) ;
#67 = CARTESIAN_POINT ( 'NONE',  ( 0.003936999999999995191, 0.0000000000000000000, 0.0000000000000000000 ) ) ;
#68 = ORIENTED_EDGE ( 'NONE', *, *, #26, .F. ) ;
#69 =( GEOMETRIC_REPRESENTATION_CONTEXT ( 3 ) GLOBAL_UNCERTAINTY_ASSIGNED_CONTEXT ( ( #77 ) ) GLOBAL_UNIT_ASSIGNED_CONTEXT ( ( #214, #152, #248 ) ) REPRESENTATION_CONTEXT ( 'NONE', 'WORKASPACE' ) );
#70 =( NAMED_UNIT ( * ) SI_UNIT ( $, .STERADIAN. ) SOLID_ANGLE_UNIT ( ) );
#71 = EDGE_CURVE ( 'NONE', #105, #166, #99, .T. ) ;
#72 = ORIENTED_EDGE ( 'NONE', *, *, #33, .F. ) ;
#73 = EDGE_LOOP ( 'NONE', ( #17, #10, #53, #125 ) ) ;
#74 =( GEOMETRIC_REPRESENTATION_CONTEXT ( 3 ) GLOBAL_UNCERTAINTY_ASSIGNED_CONTEXT ( ( #171 ) ) GLOBAL_UNIT_ASSIGNED_CONTEXT ( ( #30, #227, #70 ) ) REPRESENTATION_CONTEXT ( 'NONE', 'WORKASPACE' ) );
#75 = DIRECTION ( 'NONE',  ( 1.000000000000000000, 0.0000000000000000000, -0.0000000000000000000 ) ) ;
#76 = DIRECTION ( 'NONE',  ( 0.0000000000000000000, 0.0000000000000000000, 1.000000000000000000 ) ) ;
#77 = UNCERTAINTY_MEASURE_WITH_UNIT (LENGTH_MEASURE( 1.000000000000000082E-05 ), #214, 'distance_accuracy_value', 'NONE');
#78 = STYLED_ITEM ( 'NONE', ( #40 ), #176 ) ;
#79 = CARTESIAN_POINT ( 'NONE',  ( 0.0000000000000000000, 0.0000000000000000000, 1.496062999999999921 ) ) ;
#80 = CARTESIAN_POINT ( 'NONE',  ( 0.0000000000000000000, 0.0000000000000000000, 1.290359823588419275 ) ) ;
#81 = CYLINDRICAL_SURFACE ( 'NONE', #148, 0.05905500000000001720 ) ;
#82 = ADVANCED_FACE ( 'NONE', ( #169 ), #50, .T. ) ;
#83 = DIRECTION ( 'NONE',  ( -0.0000000000000000000, -0.0000000000000000000, -1.000000000000000000 ) ) ;
#84 = AXIS2_PLACEMENT_3D ( 'NONE', #79, #76, #75 ) ;
#85 = CONICAL_SURFACE ( 'NONE', #194, 0.003936999999999995191, 0.2617993877991502960 ) ;
#86 = ORIENTED_EDGE ( 'NONE', *, *, #228, .F. ) ;
#87 = DIRECTION ( 'NONE',  ( -1.000000000000000000, 0.0000000000000000000, 0.0000000000000000000 ) ) ;
#88 = CIRCLE ( 'NONE', #65, 0.003936999999999995191 ) ;
#89 = VERTEX_POINT ( 'NONE', #239 ) ;
#90 = DIMENSIONAL_EXPONENTS ( 1.000000000000000000, 0.0000000000000000000, 0.0000000000000000000, 0.0000000000000000000, 0.0000000000000000000, 0.0000000000000000000, 0.0000000000000000000 ) ;
#91 = SURFACE_SIDE_STYLE ('',( #168 ) ) ;
#92 = DIMENSIONAL_EXPONENTS ( 1.000000000000000000, 0.0000000000000000000, 0.0000000000000000000, 0.0000000000000000000, 0.0000000000000000000, 0.0000000000000000000, 0.0000000000000000000 ) ;
#93 = AXIS2_PLACEMENT_3D ( 'NONE', #221, #193, #2 ) ;
#94 = FACE_OUTER_BOUND ( 'NONE', #55, .T. ) ;
#95 = CARTESIAN_POINT ( 'NONE',  ( 0.003936999999999995191, 0.0000000000000000000, 0.0000000000000000000 ) ) ;
#96 = CARTESIAN_POINT ( 'NONE',  ( 0.05905500000000001720, 7.232151672364695422E-18, 1.496062999999999921 ) ) ;
#97 = PLANE ( 'NONE',  #84 ) ;
#98 = DIRECTION ( 'NONE',  ( 0.0000000000000000000, 0.0000000000000000000, 1.000000000000000000 ) ) ;
#99 = CIRCLE ( 'NONE', #39, 0.05905500000000001720 ) ;
#100 = ADVANCED_FACE ( 'NONE', ( #62 ), #172, .F. ) ;
#101 = CIRCLE ( 'NONE', #245, 0.05905500000000001720 ) ;
#102 = DIRECTION ( 'NONE',  ( 0.0000000000000000000, 0.0000000000000000000, 1.000000000000000000 ) ) ;
#103 = VERTEX_POINT ( 'NONE', #95 ) ;
#104 = DIRECTION ( 'NONE',  ( 0.0000000000000000000, 0.0000000000000000000, -1.000000000000000000 ) ) ;
#105 = VERTEX_POINT ( 'NONE', #247 ) ;
#106 = ADVANCED_FACE ( 'NONE', ( #110 ), #97, .T. ) ;
#107 = PRODUCT_CONTEXT ( 'NONE', #31, 'mechanical' ) ;
#108 = CARTESIAN_POINT ( 'NONE',  ( 0.0000000000000000000, 0.0000000000000000000, 1.496062999999999921 ) ) ;
#109 = LENGTH_MEASURE_WITH_UNIT ( LENGTH_MEASURE( 0.02539999999999999897 ), #52 );
#110 = FACE_OUTER_BOUND ( 'NONE', #14, .T. ) ;
#111 = ADVANCED_FACE ( 'NONE', ( #114 ), #1, .T. ) ;
#112 = DIRECTION ( 'NONE',  ( 1.000000000000000000, 0.0000000000000000000, 0.0000000000000000000 ) ) ;
#113 = CARTESIAN_POINT ( 'NONE',  ( -0.05905500000000001720, 0.0000000000000000000, 1.496062999999999921 ) ) ;
#114 = FACE_OUTER_BOUND ( 'NONE', #124, .T. ) ;
#115 = AXIS2_PLACEMENT_3D ( 'NONE', #196, #98, #174 ) ;
#116 = DIRECTION ( 'NONE',  ( 0.0000000000000000000, 0.0000000000000000000, -1.000000000000000000 ) ) ;
#117 = FACE_OUTER_BOUND ( 'NONE', #242, .T. ) ;
#118 = CARTESIAN_POINT ( 'NONE',  ( -0.003936999999999995191, 3.857147558594504174E-18, 0.0000000000000000000 ) ) ;
#119 = APPLICATION_CONTEXT ( 'automotive_design' ) ;
#120 = AXIS2_PLACEMENT_3D ( 'NONE', #238, #234, #59 ) ;
#121 = FACE_OUTER_BOUND ( 'NONE', #189, .T. ) ;
#122 = VECTOR ( 'NONE', #41, 39.37007874015748143 ) ;
#123 = EDGE_CURVE ( 'NONE', #226, #12, #8, .T. ) ;
#124 = EDGE_LOOP ( 'NONE', ( #210, #183, #186, #147 ) ) ;
#125 = ORIENTED_EDGE ( 'NONE', *, *, #244, .F. ) ;
#126 = ORIENTED_EDGE ( 'NONE', *, *, #29, .F. ) ;
#127 = CARTESIAN_POINT ( 'NONE',  ( 0.0000000000000000000, 0.0000000000000000000, 0.0000000000000000000 ) ) ;
#128 = ORIENTED_EDGE ( 'NONE', *, *, #123, .F. ) ;
#129 = ORIENTED_EDGE ( 'NONE', *, *, #180, .T. ) ;
#130 = FACE_OUTER_BOUND ( 'NONE', #144, .T. ) ;
#131 = DIRECTION ( 'NONE',  ( 0.0000000000000000000, 0.0000000000000000000, 1.000000000000000000 ) ) ;
#132 = CARTESIAN_POINT ( 'NONE',  ( 0.0000000000000000000, 0.0000000000000000000, 0.0000000000000000000 ) ) ;
#133 = CARTESIAN_POINT ( 'NONE',  ( 0.0000000000000000000, 0.0000000000000000000, 0.0000000000000000000 ) ) ;
#134 = SURFACE_STYLE_USAGE ( .BOTH. , #156 ) ;
#135 = PRODUCT_RELATED_PRODUCT_CATEGORY ( 'part', '', ( #44 ) ) ;
#136 = VECTOR ( 'NONE', #165, 39.37007874015748143 ) ;
#137 = PRODUCT_DEFINITION_FORMATION_WITH_SPECIFIED_SOURCE ( 'ANY', '', #44, .NOT_KNOWN. ) ;
#138 = DIRECTION ( 'NONE',  ( -1.000000000000000000, 0.0000000000000000000, 0.0000000000000000000 ) ) ;
#139 =( LENGTH_UNIT ( ) NAMED_UNIT ( * ) SI_UNIT ( $, .METRE. ) );
#140 = DIRECTION ( 'NONE',  ( 0.2588190451025216832, 0.0000000000000000000, 0.9659258262890679791 ) ) ;
#141 = PRESENTATION_LAYER_ASSIGNMENT (  '', '', ( #78 ) ) ;
#142 =( GEOMETRIC_REPRESENTATION_CONTEXT ( 3 ) GLOBAL_UNCERTAINTY_ASSIGNED_CONTEXT ( ( #187 ) ) GLOBAL_UNIT_ASSIGNED_CONTEXT ( ( #241, #175, #161 ) ) REPRESENTATION_CONTEXT ( 'NONE', 'WORKASPACE' ) );
#143 = LINE ( 'NONE', #27, #122 ) ;
#144 = EDGE_LOOP ( 'NONE', ( #34, #173, #213, #128 ) ) ;
#145 = ORIENTED_EDGE ( 'NONE', *, *, #198, .T. ) ;
#146 = EDGE_CURVE ( 'NONE', #103, #181, #154, .T. ) ;
#147 = ORIENTED_EDGE ( 'NONE', *, *, #180, .F. ) ;
#148 = AXIS2_PLACEMENT_3D ( 'NONE', #38, #24, #138 ) ;
#149 = ORIENTED_EDGE ( 'NONE', *, *, #203, .T. ) ;
#150 = AXIS2_PLACEMENT_3D ( 'NONE', #127, #131, #112 ) ;
#151 = CARTESIAN_POINT ( 'NONE',  ( 0.0000000000000000000, 0.0000000000000000000, 1.496062999999999921 ) ) ;
#152 =( NAMED_UNIT ( * ) PLANE_ANGLE_UNIT ( ) SI_UNIT ( $, .RADIAN. ) );
#153 = DIRECTION ( 'NONE',  ( 0.0000000000000000000, 0.0000000000000000000, -1.000000000000000000 ) ) ;
#154 = CIRCLE ( 'NONE', #43, 0.003936999999999995191 ) ;
#155 = LINE ( 'NONE', #113, #64 ) ;
#156 = SURFACE_SIDE_STYLE ('',( #199 ) ) ;
#157 = DIRECTION ( 'NONE',  ( 0.0000000000000000000, 0.0000000000000000000, -1.000000000000000000 ) ) ;
#158 = AXIS2_PLACEMENT_3D ( 'NONE', #108, #157, #216 ) ;
#159 = LENGTH_MEASURE_WITH_UNIT ( LENGTH_MEASURE( 0.02539999999999999897 ), #25 );
#160 = DIRECTION ( 'NONE',  ( -1.000000000000000000, 0.0000000000000000000, 0.0000000000000000000 ) ) ;
#161 =( NAMED_UNIT ( * ) SI_UNIT ( $, .STERADIAN. ) SOLID_ANGLE_UNIT ( ) );
#162 = DIRECTION ( 'NONE',  ( 1.000000000000000000, 0.0000000000000000000, 0.0000000000000000000 ) ) ;
#163 = AXIS2_PLACEMENT_3D ( 'NONE', #132, #18, #237 ) ;
#164 = ORIENTED_EDGE ( 'NONE', *, *, #198, .F. ) ;
#165 = DIRECTION ( 'NONE',  ( -0.2588190451025216832, -3.169619151431776035E-17, -0.9659258262890679791 ) ) ;
#166 = VERTEX_POINT ( 'NONE', #60 ) ;
#167 = ORIENTED_EDGE ( 'NONE', *, *, #66, .T. ) ;
#168 = SURFACE_STYLE_FILL_AREA ( #218 ) ;
#169 = FACE_OUTER_BOUND ( 'NONE', #73, .T. ) ;
#170 = CARTESIAN_POINT ( 'NONE',  ( 0.0000000000000000000, 0.0000000000000000000, 0.2057031764115806738 ) ) ;
#171 = UNCERTAINTY_MEASURE_WITH_UNIT (LENGTH_MEASURE( 1.000000000000000082E-05 ), #30, 'distance_accuracy_value', 'NONE');
#172 = PLANE ( 'NONE',  #93 ) ;
#173 = ORIENTED_EDGE ( 'NONE', *, *, #71, .T. ) ;
#174 = DIRECTION ( 'NONE',  ( 1.000000000000000000, 0.0000000000000000000, 0.0000000000000000000 ) ) ;
#175 =( NAMED_UNIT ( * ) PLANE_ANGLE_UNIT ( ) SI_UNIT ( $, .RADIAN. ) );
#176 = MANIFOLD_SOLID_BREP ( 'Mirror1', #28 ) ;
#177 = CARTESIAN_POINT ( 'NONE',  ( 0.0000000000000000000, 0.0000000000000000000, 1.496062999999999921 ) ) ;
#178 = COLOUR_RGB ( '',0.7921568627450980005, 0.8196078431372548767, 0.9333333333333333481 ) ;
#179 = AXIS2_PLACEMENT_3D ( 'NONE', #177, #83, #87 ) ;
#180 = EDGE_CURVE ( 'NONE', #166, #105, #101, .T. ) ;
#181 = VERTEX_POINT ( 'NONE', #118 ) ;
#182 = LENGTH_MEASURE_WITH_UNIT ( LENGTH_MEASURE( 0.02539999999999999897 ), #139 );
#183 = ORIENTED_EDGE ( 'NONE', *, *, #208, .T. ) ;
#184 = CARTESIAN_POINT ( 'NONE',  ( 0.0000000000000000000, 0.0000000000000000000, 1.496062999999999921 ) ) ;
#185 = VERTEX_POINT ( 'NONE', #42 ) ;
#186 = ORIENTED_EDGE ( 'NONE', *, *, #244, .T. ) ;
#187 = UNCERTAINTY_MEASURE_WITH_UNIT (LENGTH_MEASURE( 1.000000000000000082E-05 ), #241, 'distance_accuracy_value', 'NONE');
#188 = SURFACE_STYLE_USAGE ( .BOTH. , #91 ) ;
#189 = EDGE_LOOP ( 'NONE', ( #35, #233, #145, #48 ) ) ;
#190 = SHAPE_DEFINITION_REPRESENTATION ( #232, #204 ) ;
#191 = EDGE_CURVE ( 'NONE', #89, #166, #32, .T. ) ;
#192 = AXIS2_PLACEMENT_3D ( 'NONE', #207, #104, #160 ) ;
#193 = DIRECTION ( 'NONE',  ( 0.0000000000000000000, 0.0000000000000000000, 1.000000000000000000 ) ) ;
#194 = AXIS2_PLACEMENT_3D ( 'NONE', #5, #102, #162 ) ;
#195 = APPLICATION_PROTOCOL_DEFINITION ( 'draft international standard', 'automotive_design', 1998, #119 ) ;
#196 = CARTESIAN_POINT ( 'NONE',  ( 0.0000000000000000000, 0.0000000000000000000, 0.0000000000000000000 ) ) ;
#197 = CARTESIAN_POINT ( 'NONE',  ( -0.05905500000000001720, 0.0000000000000000000, 0.2057031764115806738 ) ) ;
#198 = EDGE_CURVE ( 'NONE', #103, #226, #243, .T. ) ;
#199 = SURFACE_STYLE_FILL_AREA ( #220 ) ;
#200 = CONICAL_SURFACE ( 'NONE', #115, 0.003936999999999995191, 0.2617993877991502960 ) ;
#201 = CARTESIAN_POINT ( 'NONE',  ( 0.003936999999999995191, 0.0000000000000000000, 1.496062999999999921 ) ) ;
#202 = DIRECTION ( 'NONE',  ( 0.0000000000000000000, 0.0000000000000000000, -1.000000000000000000 ) ) ;
#203 = EDGE_CURVE ( 'NONE', #181, #12, #143, .T. ) ;
#204 = ADVANCED_BREP_SHAPE_REPRESENTATION ( 'Micro_RTCM-030-2X', ( #176, #150 ), #142 ) ;
#205 = DIRECTION ( 'NONE',  ( -1.000000000000000000, 0.0000000000000000000, 0.0000000000000000000 ) ) ;
#206 = CIRCLE ( 'NONE', #163, 0.003936999999999995191 ) ;
#207 = CARTESIAN_POINT ( 'NONE',  ( 0.0000000000000000000, 0.0000000000000000000, 1.496062999999999921 ) ) ;
#208 = EDGE_CURVE ( 'NONE', #89, #185, #46, .T. ) ;
#209 = DIRECTION ( 'NONE',  ( 0.0000000000000000000, 0.0000000000000000000, -1.000000000000000000 ) ) ;
#210 = ORIENTED_EDGE ( 'NONE', *, *, #191, .F. ) ;
#211 = ORIENTED_EDGE ( 'NONE', *, *, #208, .F. ) ;
#212 = APPLICATION_PROTOCOL_DEFINITION ( 'draft international standard', 'automotive_design', 1998, #31 ) ;
#213 = ORIENTED_EDGE ( 'NONE', *, *, #26, .T. ) ;
#214 =( CONVERSION_BASED_UNIT ( 'INCH', #109 ) LENGTH_UNIT ( ) NAMED_UNIT ( #45 ) );
#215 = VECTOR ( 'NONE', #36, 39.37007874015748143 ) ;
#216 = DIRECTION ( 'NONE',  ( 1.000000000000000000, 0.0000000000000000000, 0.0000000000000000000 ) ) ;
#217 = MECHANICAL_DESIGN_GEOMETRIC_PRESENTATION_REPRESENTATION (  '', ( #61 ), #69 ) ;
#218 = FILL_AREA_STYLE ('',( #16 ) ) ;
#219 = CARTESIAN_POINT ( 'NONE',  ( 0.0000000000000000000, 0.0000000000000000000, 1.290359823588419275 ) ) ;
#220 = FILL_AREA_STYLE ('',( #58 ) ) ;
#221 = CARTESIAN_POINT ( 'NONE',  ( 0.0000000000000000000, 0.0000000000000000000, 0.0000000000000000000 ) ) ;
#222 = ORIENTED_EDGE ( 'NONE', *, *, #33, .T. ) ;
#223 = DIRECTION ( 'NONE',  ( -1.000000000000000000, 0.0000000000000000000, 0.0000000000000000000 ) ) ;
#224 = MECHANICAL_DESIGN_GEOMETRIC_PRESENTATION_REPRESENTATION (  '', ( #78 ), #74 ) ;
#225 = DIRECTION ( 'NONE',  ( 0.2588190451025216832, 0.0000000000000000000, -0.9659258262890679791 ) ) ;
#226 = VERTEX_POINT ( 'NONE', #11 ) ;
#227 =( NAMED_UNIT ( * ) PLANE_ANGLE_UNIT ( ) SI_UNIT ( $, .RADIAN. ) );
#228 = EDGE_CURVE ( 'NONE', #185, #89, #88, .T. ) ;
#229 = ORIENTED_EDGE ( 'NONE', *, *, #29, .T. ) ;
#230 = EDGE_LOOP ( 'NONE', ( #49, #222 ) ) ;
#231 = ADVANCED_FACE ( 'NONE', ( #121 ), #85, .T. ) ;
#232 = PRODUCT_DEFINITION_SHAPE ( 'NONE', 'NONE',  #15 ) ;
#233 = ORIENTED_EDGE ( 'NONE', *, *, #146, .F. ) ;
#234 = DIRECTION ( 'NONE',  ( -0.0000000000000000000, -0.0000000000000000000, -1.000000000000000000 ) ) ;
#235 = ADVANCED_FACE ( 'NONE', ( #117 ), #47, .T. ) ;
#236 = DIRECTION ( 'NONE',  ( -1.000000000000000000, 0.0000000000000000000, 0.0000000000000000000 ) ) ;
#237 = DIRECTION ( 'NONE',  ( -1.000000000000000000, 0.0000000000000000000, 0.0000000000000000000 ) ) ;
#238 = CARTESIAN_POINT ( 'NONE',  ( 0.0000000000000000000, 0.0000000000000000000, 0.2057031764115806738 ) ) ;
#239 = CARTESIAN_POINT ( 'NONE',  ( -0.003936999999999995191, -3.857147558594504174E-18, 1.496062999999999921 ) ) ;
#240 = VECTOR ( 'NONE', #140, 39.37007874015748143 ) ;
#241 =( CONVERSION_BASED_UNIT ( 'INCH', #159 ) LENGTH_UNIT ( ) NAMED_UNIT ( #90 ) );
#242 = EDGE_LOOP ( 'NONE', ( #129, #167, #126, #68 ) ) ;
#243 = LINE ( 'NONE', #67, #240 ) ;
#244 = EDGE_CURVE ( 'NONE', #185, #105, #9, .T. ) ;
#245 = AXIS2_PLACEMENT_3D ( 'NONE', #80, #209, #205 ) ;
#246 = VECTOR ( 'NONE', #225, 39.37007874015748143 ) ;
#247 = CARTESIAN_POINT ( 'NONE',  ( 0.05905500000000001720, 7.232151672364695422E-18, 1.290359823588419275 ) ) ;
#248 =( NAMED_UNIT ( * ) SI_UNIT ( $, .STERADIAN. ) SOLID_ANGLE_UNIT ( ) );
#249 = DIRECTION ( 'NONE',  ( -1.000000000000000000, 0.0000000000000000000, 0.0000000000000000000 ) ) ;
ENDSEC;
END-ISO-10303-21;
